  0
SECTION
  2
HEADER
  9
$ACADVER
  1
AC1014
  9
$ACADMAINTVER
 70
     9
  9
$DWGCODEPAGE
  3
ANSI_1252
  9
$INSBASE
 10
0.0
 20
0.0
 30
0.0
  9
$EXTMIN
 10
-0.0000125000000015
 20
0.249999999999991
 30
0.0
  9
$EXTMAX
 10
160.0000125
 20
410.7499999999999
 30
0.0
  9
$LIMMIN
 10
0.0
 20
0.0
  9
$LIMMAX
 10
12.0
 20
9.0
  9
$ORTHOMODE
 70
     0
  9
$REGENMODE
 70
     1
  9
$FILLMODE
 70
     1
  9
$QTEXTMODE
 70
     0
  9
$MIRRTEXT
 70
     1
  9
$DRAGMODE
 70
     2
  9
$LTSCALE
 40
1.0
  9
$OSMODE
 70
    37
  9
$ATTMODE
 70
     1
  9
$TEXTSIZE
 40
0.2
  9
$TRACEWID
 40
0.05
  9
$TEXTSTYLE
  7
STANDARD
  9
$CLAYER
  8
0
  9
$CELTYPE
  6
CONTINUOUS
  9
$CECOLOR
 62
   256
  9
$CELTSCALE
 40
1.0
  9
$DELOBJ
 70
     1
  9
$DISPSILH
 70
     0
  9
$DIMSCALE
 40
1.0
  9
$DIMASZ
 40
0.18
  9
$DIMEXO
 40
0.0625
  9
$DIMDLI
 40
0.38
  9
$DIMRND
 40
0.0
  9
$DIMDLE
 40
0.0
  9
$DIMEXE
 40
0.18
  9
$DIMTP
 40
0.0
  9
$DIMTM
 40
0.0
  9
$DIMTXT
 40
0.18
  9
$DIMCEN
 40
0.09
  9
$DIMTSZ
 40
0.0
  9
$DIMTOL
 70
     0
  9
$DIMLIM
 70
     0
  9
$DIMTIH
 70
     1
  9
$DIMTOH
 70
     1
  9
$DIMSE1
 70
     0
  9
$DIMSE2
 70
     0
  9
$DIMTAD
 70
     0
  9
$DIMZIN
 70
     0
  9
$DIMBLK
  1

  9
$DIMASO
 70
     1
  9
$DIMSHO
 70
     1
  9
$DIMPOST
  1

  9
$DIMAPOST
  1

  9
$DIMALT
 70
     0
  9
$DIMALTD
 70
     2
  9
$DIMALTF
 40
25.4
  9
$DIMLFAC
 40
1.0
  9
$DIMTOFL
 70
     0
  9
$DIMTVP
 40
0.0
  9
$DIMTIX
 70
     0
  9
$DIMSOXD
 70
     0
  9
$DIMSAH
 70
     0
  9
$DIMBLK1
  1

  9
$DIMBLK2
  1

  9
$DIMSTYLE
  2
STANDARD
  9
$DIMCLRD
 70
     0
  9
$DIMCLRE
 70
     0
  9
$DIMCLRT
 70
     0
  9
$DIMTFAC
 40
1.0
  9
$DIMGAP
 40
0.09
  9
$DIMJUST
 70
     0
  9
$DIMSD1
 70
     0
  9
$DIMSD2
 70
     0
  9
$DIMTOLJ
 70
     1
  9
$DIMTZIN
 70
     0
  9
$DIMALTZ
 70
     0
  9
$DIMALTTZ
 70
     0
  9
$DIMFIT
 70
     3
  9
$DIMUPT
 70
     0
  9
$DIMUNIT
 70
     2
  9
$DIMDEC
 70
     4
  9
$DIMTDEC
 70
     4
  9
$DIMALTU
 70
     2
  9
$DIMALTTD
 70
     2
  9
$DIMTXSTY
  7
STANDARD
  9
$DIMAUNIT
 70
     0
  9
$LUNITS
 70
     2
  9
$LUPREC
 70
     4
  9
$SKETCHINC
 40
0.1
  9
$FILLETRAD
 40
0.0
  9
$AUNITS
 70
     0
  9
$AUPREC
 70
     0
  9
$MENU
  1
.
  9
$ELEVATION
 40
0.0
  9
$PELEVATION
 40
0.0
  9
$THICKNESS
 40
0.0
  9
$LIMCHECK
 70
     0
  9
$BLIPMODE
 70
     0
  9
$CHAMFERA
 40
0.0
  9
$CHAMFERB
 40
0.0
  9
$CHAMFERC
 40
0.0
  9
$CHAMFERD
 40
0.0
  9
$SKPOLY
 70
     0
  9
$TDCREATE
 40
2454690.768270208
  9
$TDUPDATE
 40
2454690.772976701
  9
$TDINDWG
 40
0.0021006944
  9
$TDUSRTIMER
 40
0.0021006944
  9
$USRTIMER
 70
     1
  9
$ANGBASE
 50
0.0
  9
$ANGDIR
 70
     0
  9
$PDMODE
 70
     0
  9
$PDSIZE
 40
0.0
  9
$PLINEWID
 40
0.0
  9
$COORDS
 70
     1
  9
$SPLFRAME
 70
     0
  9
$SPLINETYPE
 70
     6
  9
$SPLINESEGS
 70
     8
  9
$ATTDIA
 70
     0
  9
$ATTREQ
 70
     1
  9
$HANDLING
 70
 22529
  9
$HANDSEED
  5
1A9
  9
$SURFTAB1
 70
     6
  9
$SURFTAB2
 70
     6
  9
$SURFTYPE
 70
     6
  9
$SURFU
 70
     6
  9
$SURFV
 70
     6
  9
$UCSNAME
  2

  9
$UCSORG
 10
0.0
 20
0.0
 30
0.0
  9
$UCSXDIR
 10
1.0
 20
0.0
 30
0.0
  9
$UCSYDIR
 10
0.0
 20
1.0
 30
0.0
  9
$PUCSNAME
  2

  9
$PUCSORG
 10
0.0
 20
0.0
 30
0.0
  9
$PUCSXDIR
 10
1.0
 20
0.0
 30
0.0
  9
$PUCSYDIR
 10
0.0
 20
1.0
 30
0.0
  9
$USERI1
 70
     0
  9
$USERI2
 70
     0
  9
$USERI3
 70
     0
  9
$USERI4
 70
     0
  9
$USERI5
 70
     0
  9
$USERR1
 40
0.0
  9
$USERR2
 40
0.0
  9
$USERR3
 40
0.0
  9
$USERR4
 40
0.0
  9
$USERR5
 40
0.0
  9
$WORLDVIEW
 70
     1
  9
$SHADEDGE
 70
     3
  9
$SHADEDIF
 70
    70
  9
$TILEMODE
 70
     1
  9
$MAXACTVP
 70
    64
  9
$PINSBASE
 10
0.0
 20
0.0
 30
0.0
  9
$PLIMCHECK
 70
     0
  9
$PEXTMIN
 10
1.000000000000000E+20
 20
1.000000000000000E+20
 30
1.000000000000000E+20
  9
$PEXTMAX
 10
-1.000000000000000E+20
 20
-1.000000000000000E+20
 30
-1.000000000000000E+20
  9
$PLIMMIN
 10
0.0
 20
0.0
  9
$PLIMMAX
 10
12.0
 20
9.0
  9
$UNITMODE
 70
     0
  9
$VISRETAIN
 70
     1
  9
$PLINEGEN
 70
     0
  9
$PSLTSCALE
 70
     1
  9
$TREEDEPTH
 70
  3020
  9
$PICKSTYLE
 70
     1
  9
$CMLSTYLE
  2
STANDARD
  9
$CMLJUST
 70
     0
  9
$CMLSCALE
 40
1.0
  9
$PROXYGRAPHICS
 70
     1
  9
$MEASUREMENT
 70
     0
  0
ENDSEC
  0
SECTION
  2
CLASSES
  0
CLASS
  1
ACDBDICTIONARYWDFLT
  2
AcDbDictionaryWithDefault
  3
AutoCAD 2000
 90
        0
280
     0
281
     0
  0
CLASS
  1
ACDBPLACEHOLDER
  2
AcDbPlaceHolder
  3
AutoCAD 2000
 90
        0
280
     0
281
     0
  0
CLASS
  1
LAYOUT
  2
AcDbLayout
  3
AutoCAD 2000
 90
        0
280
     0
281
     0
  0
CLASS
  1
DICTIONARYVAR
  2
AcDbDictionaryVar
  3
AutoCAD 2000
 90
        0
280
     0
281
     0
  0
CLASS
  1
LONG_TRANSACTION
  2
AcDbLongTransaction
  3
AutoCAD 2000
 90
        0
280
     0
281
     0
  0
CLASS
  1
LWPOLYLINE
  2
AcDbPolyline
  3
AutoCAD 2000
 90
        0
280
     0
281
     1
  0
CLASS
  1
HATCH
  2
AcDbHatch
  3
AutoCAD 2000
 90
        0
280
     0
281
     1
  0
CLASS
  1
XRECORD
  2
AcDbXrecord
  3
AutoCAD 2000
 90
        0
280
     0
281
     0
  0
CLASS
  1
LONG_TRANSACTION
  2
AcDbLongTransaction
  3
AutoCAD 2000
 90
        0
280
     0
281
     0
  0
CLASS
  1
LWPOLYLINE
  2
AcDbPolyline
  3
AutoCAD 2000
 90
        0
280
     0
281
     1
  0
CLASS
  1
HATCH
  2
AcDbHatch
  3
AutoCAD 2000
 90
        0
280
     0
281
     1
  0
CLASS
  1
XRECORD
  2
AcDbXrecord
  3
AutoCAD 2000
 90
        0
280
     0
281
     0
  0
ENDSEC
  0
SECTION
  2
TABLES
  0
TABLE
  2
VPORT
  5
8
330
0
100
AcDbSymbolTable
 70
     2
  0
VPORT
  5
186
330
8
100
AcDbSymbolTableRecord
100
AcDbViewportTableRecord
  2
*ACTIVE
 70
     0
 10
0.0
 20
0.0
 11
1.0
 21
1.0
 12
80.0
 22
205.5
 13
0.0
 23
0.0
 14
1.0
 24
1.0
 15
0.0
 25
0.0
 16
0.0
 26
0.0
 36
1.0
 17
0.0
 27
0.0
 37
0.0
 40
413.6496163682864
 41
2.043533930857874
 42
50.0
 43
0.0
 44
0.0
 50
0.0
 51
0.0
 71
     0
 72
   100
 73
     1
 74
     3
 75
     0
 76
     0
 77
     0
 78
     0
  0
ENDTAB
  0
TABLE
  2
LTYPE
  5
5
330
0
100
AcDbSymbolTable
 70
     1
  0
LTYPE
  5
13
330
5
100
AcDbSymbolTableRecord
100
AcDbLinetypeTableRecord
  2
BYBLOCK
 70
     0
  3

 72
    65
 73
     0
 40
0.0
  0
LTYPE
  5
14
330
5
100
AcDbSymbolTableRecord
100
AcDbLinetypeTableRecord
  2
BYLAYER
 70
     0
  3

 72
    65
 73
     0
 40
0.0
  0
LTYPE
  5
15
330
5
100
AcDbSymbolTableRecord
100
AcDbLinetypeTableRecord
  2
CONTINUOUS
 70
     0
  3
Solid line
 72
    65
 73
     0
 40
0.0
  0
ENDTAB
  0
TABLE
  2
LAYER
  5
2
330
0
100
AcDbSymbolTable
 70
     1
  0
LAYER
  5
10
330
2
100
AcDbSymbolTableRecord
100
AcDbLayerTableRecord
  2
0
 70
     0
 62
     7
  6
CONTINUOUS
  0
ENDTAB
  0
TABLE
  2
STYLE
  5
3
330
0
100
AcDbSymbolTable
 70
     1
  0
STYLE
  5
11
330
3
100
AcDbSymbolTableRecord
100
AcDbTextStyleTableRecord
  2
STANDARD
 70
     0
 40
0.0
 41
1.0
 50
0.0
 71
     0
 42
0.2
  3
txt
  4

  0
ENDTAB
  0
TABLE
  2
VIEW
  5
6
330
0
100
AcDbSymbolTable
 70
     0
  0
ENDTAB
  0
TABLE
  2
UCS
  5
7
330
0
100
AcDbSymbolTable
 70
     0
  0
ENDTAB
  0
TABLE
  2
APPID
  5
9
330
0
100
AcDbSymbolTable
 70
     1
  0
APPID
  5
12
330
9
100
AcDbSymbolTableRecord
100
AcDbRegAppTableRecord
  2
ACAD
 70
     0
  0
ENDTAB
  0
TABLE
  2
DIMSTYLE
  5
A
330
0
100
AcDbSymbolTable
 70
     1
  0
DIMSTYLE
105
12F
330
A
100
AcDbSymbolTableRecord
100
AcDbDimStyleTableRecord
  2
STANDARD
 70
     0
  3

  4

  5

  6

  7

 40
1.0
 41
0.18
 42
0.0625
 43
0.38
 44
0.18
 45
0.0
 46
0.0
 47
0.0
 48
0.0
140
0.18
141
0.09
142
0.0
143
25.4
144
1.0
145
0.0
146
1.0
147
0.09
 71
     0
 72
     0
 73
     1
 74
     1
 75
     0
 76
     0
 77
     0
 78
     0
170
     0
171
     2
172
     0
173
     0
174
     0
175
     0
176
     0
177
     0
178
     0
270
     2
271
     4
272
     4
273
     2
274
     2
340
11
275
     0
280
     0
281
     0
282
     0
283
     1
284
     0
285
     0
286
     0
287
     3
288
     0
  0
ENDTAB
  0
TABLE
  2
BLOCK_RECORD
  5
1
330
0
100
AcDbSymbolTable
 70
     0
  0
BLOCK_RECORD
  5
1E
102
{ACAD_XDICTIONARY
360
17E
102
}
330
1
100
AcDbSymbolTableRecord
100
AcDbBlockTableRecord
  2
*MODEL_SPACE
  0
BLOCK_RECORD
  5
1A
102
{ACAD_XDICTIONARY
360
17C
102
}
330
1
100
AcDbSymbolTableRecord
100
AcDbBlockTableRecord
  2
*PAPER_SPACE
  0
ENDTAB
  0
ENDSEC
  0
SECTION
  2
BLOCKS
  0
BLOCK
  5
1F
330
1E
100
AcDbEntity
  8
0
100
AcDbBlockBegin
  2
*MODEL_SPACE
 70
     0
 10
0.0
 20
0.0
 30
0.0
  3
*MODEL_SPACE
  1

  0
ENDBLK
  5
20
330
1E
100
AcDbEntity
  8
0
100
AcDbBlockEnd
  0
BLOCK
  5
1B
330
1A
100
AcDbEntity
 67
     1
  8
0
100
AcDbBlockBegin
  2
*PAPER_SPACE
 70
     0
 10
0.0
 20
0.0
 30
0.0
  3
*PAPER_SPACE
  1

  0
ENDBLK
  5
1C
330
1A
100
AcDbEntity
 67
     1
  8
0
100
AcDbBlockEnd
  0
ENDSEC
  0
SECTION
  2
ENTITIES
  0
LINE
  5
22
330
1E
100
AcDbEntity
  8
0
100
AcDbLine
 10
98.1000125
 20
0.249999999999994
 30
0.0
 11
101.8000124999999
 21
0.249999999999994
 31
0.0
  0
LINE
  5
23
330
1E
100
AcDbEntity
  8
0
100
AcDbLine
 10
2.416012499999999
 20
253.3050999999999
 30
0.0
 11
3.8660125
 21
250.7935999999999
 31
0.0
  0
LINE
  5
24
330
1E
100
AcDbEntity
  8
0
100
AcDbLine
 10
1.8999825
 20
252.1989
 30
0.0
 11
3.2499825
 21
249.8606
 31
0.0
  0
LINE
  5
25
330
1E
100
AcDbEntity
  8
0
100
AcDbLine
 10
3.8660125
 20
250.7935999999999
 30
0.0
 11
5.5660125
 21
247.8491
 31
0.0
  0
LINE
  5
26
330
1E
100
AcDbEntity
  8
0
100
AcDbLine
 10
3.2499825
 20
249.8606
 30
0.0
 11
4.849992499999999
 21
247.0892999999999
 31
0.0
  0
LINE
  5
27
330
1E
100
AcDbEntity
  8
0
100
AcDbLine
 10
-0.0000125000000015
 20
255.4899999999999
 30
0.0
 11
0.366012499999999
 21
256.856
 31
0.0
  0
LINE
  5
28
330
1E
100
AcDbEntity
  8
0
100
AcDbLine
 10
0.249987499999999
 20
255.0566999999999
 30
0.0
 11
0.849987499999999
 21
254.0175
 31
0.0
  0
LINE
  5
29
330
1E
100
AcDbEntity
  8
0
100
AcDbLine
 10
1.3160125
 20
255.2102999999998
 30
0.0
 11
2.416012499999999
 21
253.3050999999999
 31
0.0
  0
LINE
  5
2A
330
1E
100
AcDbEntity
  8
0
100
AcDbLine
 10
0.249987499999999
 20
255.0566999999999
 30
0.0
 11
0.849987499999999
 21
254.0175
 31
0.0
  0
LINE
  5
2B
330
1E
100
AcDbEntity
  8
0
100
AcDbLine
 10
0.6160124999999991
 20
256.4229999999998
 30
0.0
 11
1.3160125
 21
255.2102999999998
 31
0.0
  0
LINE
  5
2C
330
1E
100
AcDbEntity
  8
0
100
AcDbLine
 10
0.366012499999999
 20
256.856
 30
0.0
 11
9.026262499999999
 21
261.8559999999999
 31
0.0
  0
LINE
  5
2D
330
1E
100
AcDbEntity
  8
0
100
AcDbLine
 10
0.6160124999999991
 20
256.4229999999998
 30
0.0
 11
1.3160125
 21
255.2102999999998
 31
0.0
  0
LINE
  5
2E
330
1E
100
AcDbEntity
  8
0
100
AcDbLine
 10
0.366012499999999
 20
256.856
 30
0.0
 11
9.026262499999999
 21
261.8559999999999
 31
0.0
  0
LINE
  5
2F
330
1E
100
AcDbEntity
  8
0
100
AcDbLine
 10
0.366012499999999
 20
256.856
 30
0.0
 11
0.6160124999999991
 21
256.4229999999998
 31
0.0
  0
LINE
  5
30
330
1E
100
AcDbEntity
  8
0
100
AcDbLine
 10
-0.0000125000000014
 20
255.4899999999999
 30
0.0
 11
0.249987499999999
 21
255.0566999999999
 31
0.0
  0
LINE
  5
31
330
1E
100
AcDbEntity
  8
0
100
AcDbLine
 10
-0.0000125000000014
 20
255.4899999999999
 30
0.0
 11
0.249987499999999
 21
255.0566999999999
 31
0.0
  0
LINE
  5
32
330
1E
100
AcDbEntity
  8
0
100
AcDbLine
 10
-0.0000125000000014
 20
255.4899999999999
 30
0.0
 11
0.366012499999999
 21
256.856
 31
0.0
  0
LINE
  5
33
330
1E
100
AcDbEntity
  8
0
100
AcDbLine
 10
0.849987499999999
 20
254.0175
 30
0.0
 11
1.8999825
 21
252.1989
 31
0.0
  0
LINE
  5
34
330
1E
100
AcDbEntity
  8
0
100
AcDbLine
 10
14.3660125
 20
232.6071
 30
0.0
 11
23.0263125
 21
237.6071
 31
0.0
  0
LINE
  5
35
330
1E
100
AcDbEntity
  8
0
100
AcDbLine
 10
14.1160125
 20
233.0401
 30
0.0
 11
14.3660125
 21
232.6071
 31
0.0
  0
LINE
  5
36
330
1E
100
AcDbEntity
  8
0
100
AcDbLine
 10
13.4160125
 20
234.2525
 30
0.0
 11
14.1160125
 21
233.0401
 31
0.0
  0
LINE
  5
37
330
1E
100
AcDbEntity
  8
0
100
AcDbLine
 10
13.0000125
 20
232.9730999999999
 30
0.0
 11
14.3660125
 21
232.6071
 31
0.0
  0
LINE
  5
38
330
1E
100
AcDbEntity
  8
0
100
AcDbLine
 10
12.7500125
 20
233.4060999999999
 30
0.0
 11
13.0000125
 21
232.9730999999999
 31
0.0
  0
LINE
  5
39
330
1E
100
AcDbEntity
  8
0
100
AcDbLine
 10
12.31601249999999
 20
236.1577999999999
 30
0.0
 11
13.4160125
 21
234.2525
 31
0.0
  0
LINE
  5
3A
330
1E
100
AcDbEntity
  8
0
100
AcDbLine
 10
12.1500125
 20
234.4453
 30
0.0
 11
12.7500125
 21
233.4060999999999
 31
0.0
  0
LINE
  5
3B
330
1E
100
AcDbEntity
  8
0
100
AcDbLine
 10
11.1000125
 20
236.264
 30
0.0
 11
12.1500125
 21
234.4453
 31
0.0
  0
LINE
  5
3C
330
1E
100
AcDbEntity
  8
0
100
AcDbLine
 10
10.86601249999999
 20
238.6692
 30
0.0
 11
12.31601249999999
 21
236.1577999999999
 31
0.0
  0
LINE
  5
3D
330
1E
100
AcDbEntity
  8
0
100
AcDbLine
 10
9.1660125
 20
241.6136999999999
 30
0.0
 11
10.86601249999999
 21
238.6692
 31
0.0
  0
LINE
  5
3E
330
1E
100
AcDbEntity
  8
0
100
AcDbLine
 10
9.749992499999999
 20
238.6022
 30
0.0
 11
11.1000125
 21
236.264
 31
0.0
  0
LINE
  5
3F
330
1E
100
AcDbEntity
  8
0
100
AcDbLine
 10
8.1499825
 20
241.3735
 30
0.0
 11
9.749992499999999
 21
238.6022
 31
0.0
  0
LINE
  5
40
330
1E
100
AcDbEntity
  8
0
100
AcDbLine
 10
9.276262499999999
 20
261.4229999999998
 30
0.0
 11
9.9762625
 21
260.2099999999999
 31
0.0
  0
LINE
  5
41
330
1E
100
AcDbEntity
  8
0
100
AcDbLine
 10
5.5660125
 20
247.8491
 30
0.0
 11
7.3660125
 21
244.7313999999999
 31
0.0
  0
LINE
  5
42
330
1E
100
AcDbEntity
  8
0
100
AcDbLine
 10
7.3660125
 20
244.7313999999999
 30
0.0
 11
9.1660125
 21
241.6136999999999
 31
0.0
  0
LINE
  5
43
330
1E
100
AcDbEntity
  8
0
100
AcDbLine
 10
16.02631249999999
 20
249.7314
 30
0.0
 11
17.8263125
 21
246.6136999999999
 31
0.0
  0
LINE
  5
44
330
1E
100
AcDbEntity
  8
0
100
AcDbLine
 10
16.4593125
 20
249.9814
 30
0.0
 11
18.2093125
 21
246.9503
 31
0.0
  0
LINE
  5
45
330
1E
100
AcDbEntity
  8
0
100
AcDbLine
 10
14.2263125
 20
252.8491
 30
0.0
 11
16.02631249999999
 21
249.7314
 31
0.0
  0
LINE
  5
46
330
1E
100
AcDbEntity
  8
0
100
AcDbLine
 10
12.5263125
 20
255.7939999999999
 30
0.0
 11
14.2263125
 21
252.8491
 31
0.0
  0
LINE
  5
47
330
1E
100
AcDbEntity
  8
0
100
AcDbLine
 10
11.0763125
 20
258.305
 30
0.0
 11
12.5263125
 21
255.7939999999999
 31
0.0
  0
LINE
  5
48
330
1E
100
AcDbEntity
  8
0
100
AcDbLine
 10
9.9762625
 20
260.2099999999999
 30
0.0
 11
11.0763125
 21
258.305
 31
0.0
  0
LINE
  5
49
330
1E
100
AcDbEntity
  8
0
100
AcDbLine
 10
9.9592825
 20
261.24
 30
0.0
 11
10.6093125
 21
260.1139999999999
 31
0.0
  0
LINE
  5
4A
330
1E
100
AcDbEntity
  8
0
100
AcDbLine
 10
10.84231249999999
 20
260.7099999999999
 30
0.0
 11
11.9423125
 21
258.8049999999999
 31
0.0
  0
LINE
  5
4B
330
1E
100
AcDbEntity
  8
0
100
AcDbLine
 10
10.6093125
 20
260.1139999999999
 30
0.0
 11
11.70931249999999
 21
258.2089999999999
 31
0.0
  0
LINE
  5
4C
330
1E
100
AcDbEntity
  8
0
100
AcDbLine
 10
11.9423125
 20
258.8049999999999
 30
0.0
 11
13.3923125
 21
256.2939999999999
 31
0.0
  0
LINE
  5
4D
330
1E
100
AcDbEntity
  8
0
100
AcDbLine
 10
11.70931249999999
 20
258.2089999999999
 30
0.0
 11
13.1093125
 21
255.7839999999999
 31
0.0
  0
LINE
  5
4E
330
1E
100
AcDbEntity
  8
0
100
AcDbLine
 10
13.3923125
 20
256.2939999999999
 30
0.0
 11
15.0923125
 21
253.3491
 31
0.0
  0
LINE
  5
4F
330
1E
100
AcDbEntity
  8
0
100
AcDbLine
 10
13.1093125
 20
255.7839999999999
 30
0.0
 11
14.7093125
 21
253.0124999999999
 31
0.0
  0
LINE
  5
50
330
1E
100
AcDbEntity
  8
0
100
AcDbLine
 10
15.0923125
 20
253.3491
 30
0.0
 11
16.89231249999999
 21
250.2314
 31
0.0
  0
LINE
  5
51
330
1E
100
AcDbEntity
  8
0
100
AcDbLine
 10
14.7093125
 20
253.0124999999999
 30
0.0
 11
16.4593125
 21
249.9814
 31
0.0
  0
LINE
  5
52
330
1E
100
AcDbEntity
  8
0
100
AcDbLine
 10
16.89231249999999
 20
250.2314
 30
0.0
 11
18.6923125
 21
247.1137
 31
0.0
  0
LINE
  5
53
330
1E
100
AcDbEntity
  8
0
100
AcDbLine
 10
9.7092825
 20
261.6729999999999
 30
0.0
 11
9.892292499999999
 21
262.3559999999999
 31
0.0
  0
LINE
  5
54
330
1E
100
AcDbEntity
  8
0
100
AcDbLine
 10
9.7092825
 20
261.6729999999999
 30
0.0
 11
9.9592825
 21
261.24
 31
0.0
  0
LINE
  5
55
330
1E
100
AcDbEntity
  8
0
100
AcDbLine
 10
6.4999925
 20
244.2314
 30
0.0
 11
8.1499825
 21
241.3735
 31
0.0
  0
LINE
  5
56
330
1E
100
AcDbEntity
  8
0
100
AcDbLine
 10
20.9763125
 20
241.1577999999999
 30
0.0
 11
22.07631249999999
 21
239.2525
 31
0.0
  0
LINE
  5
57
330
1E
100
AcDbEntity
  8
0
100
AcDbLine
 10
19.52631249999998
 20
243.6691999999999
 30
0.0
 11
20.9763125
 21
241.1577999999999
 31
0.0
  0
LINE
  5
58
330
1E
100
AcDbEntity
  8
0
100
AcDbLine
 10
21.20931249999999
 20
241.7542
 30
0.0
 11
22.3093125
 21
239.8489
 31
0.0
  0
LINE
  5
59
330
1E
100
AcDbEntity
  8
0
100
AcDbLine
 10
22.7763125
 20
238.0400999999999
 30
0.0
 11
23.0263125
 21
237.6071
 31
0.0
  0
LINE
  5
5A
330
1E
100
AcDbEntity
  8
0
100
AcDbLine
 10
22.07631249999999
 20
239.2525
 30
0.0
 11
22.7763125
 21
238.0400999999999
 31
0.0
  0
LINE
  5
5B
330
1E
100
AcDbEntity
  8
0
100
AcDbLine
 10
22.9593125
 20
238.7230999999999
 30
0.0
 11
23.2093125
 21
238.2900999999999
 31
0.0
  0
LINE
  5
5C
330
1E
100
AcDbEntity
  8
0
100
AcDbLine
 10
22.3093125
 20
239.8489
 30
0.0
 11
22.9593125
 21
238.7230999999999
 31
0.0
  0
LINE
  5
5D
330
1E
100
AcDbEntity
  8
0
100
AcDbLine
 10
22.9423125
 20
239.7524999999999
 30
0.0
 11
23.6423125
 21
238.5400999999999
 31
0.0
  0
LINE
  5
5E
330
1E
100
AcDbEntity
  8
0
100
AcDbLine
 10
21.84231249999999
 20
241.6577999999999
 30
0.0
 11
22.9423125
 21
239.7524999999999
 31
0.0
  0
LINE
  5
5F
330
1E
100
AcDbEntity
  8
0
100
AcDbLine
 10
17.8263125
 20
246.6136999999999
 30
0.0
 11
19.52631249999998
 21
243.6691999999999
 31
0.0
  0
LINE
  5
60
330
1E
100
AcDbEntity
  8
0
100
AcDbLine
 10
19.8093125
 20
244.179
 30
0.0
 11
21.20931249999999
 21
241.7542
 31
0.0
  0
LINE
  5
61
330
1E
100
AcDbEntity
  8
0
100
AcDbLine
 10
20.39231249999998
 20
244.1692
 30
0.0
 11
21.84231249999999
 21
241.6577999999999
 31
0.0
  0
LINE
  5
62
330
1E
100
AcDbEntity
  8
0
100
AcDbLine
 10
23.89231249999999
 20
238.1070999999999
 30
0.0
 11
91.6300125
 21
277.3899999999998
 31
0.0
  0
LINE
  5
63
330
1E
100
AcDbEntity
  8
0
100
AcDbLine
 10
23.6423125
 20
238.5400999999999
 30
0.0
 11
23.89231249999999
 21
238.1070999999999
 31
0.0
  0
LINE
  5
64
330
1E
100
AcDbEntity
  8
0
100
AcDbLine
 10
23.2093125
 20
238.2900999999999
 30
0.0
 11
23.89231249999999
 21
238.1070999999999
 31
0.0
  0
LINE
  5
65
330
1E
100
AcDbEntity
  8
0
100
AcDbLine
 10
23.0263125
 20
237.6071
 30
0.0
 11
23.2093125
 21
238.2900999999999
 31
0.0
  0
LINE
  5
66
330
1E
100
AcDbEntity
  8
0
100
AcDbLine
 10
18.2093125
 20
246.9503
 30
0.0
 11
19.8093125
 21
244.179
 31
0.0
  0
LINE
  5
67
330
1E
100
AcDbEntity
  8
0
100
AcDbLine
 10
18.6923125
 20
247.1137
 30
0.0
 11
20.39231249999998
 21
244.1692
 31
0.0
  0
LINE
  5
68
330
1E
100
AcDbEntity
  8
0
100
AcDbLine
 10
9.892292499999991
 20
262.3559999999999
 30
0.0
 11
96.59401250000001
 21
312.616
 31
0.0
  0
LINE
  5
69
330
1E
100
AcDbEntity
  8
0
100
AcDbLine
 10
10.14231249999999
 20
261.9229999999999
 30
0.0
 11
10.84231249999999
 21
260.7099999999999
 31
0.0
  0
LINE
  5
6A
330
1E
100
AcDbEntity
  8
0
100
AcDbLine
 10
9.892292499999999
 20
262.3559999999999
 30
0.0
 11
96.59401250000001
 21
312.616
 31
0.0
  0
LINE
  5
6B
330
1E
100
AcDbEntity
  8
0
100
AcDbLine
 10
9.892292499999999
 20
262.3559999999999
 30
0.0
 11
10.14231249999999
 21
261.9229999999999
 31
0.0
  0
LINE
  5
6C
330
1E
100
AcDbEntity
  8
0
100
AcDbLine
 10
9.026262499999999
 20
261.8559999999999
 30
0.0
 11
9.7092825
 21
261.6729999999999
 31
0.0
  0
LINE
  5
6D
330
1E
100
AcDbEntity
  8
0
100
AcDbLine
 10
9.026262499999999
 20
261.8559999999999
 30
0.0
 11
9.276262499999999
 21
261.4229999999998
 31
0.0
  0
LINE
  5
6E
330
1E
100
AcDbEntity
  8
0
100
AcDbLine
 10
4.849992499999999
 20
247.0892999999999
 30
0.0
 11
6.4999925
 21
244.2314
 31
0.0
  0
LINE
  5
6F
330
1E
100
AcDbEntity
  8
0
100
AcDbLine
 10
91.6300125
 20
277.3899999999998
 30
0.0
 11
94.1300125
 21
278.06
 31
0.0
  0
LINE
  5
70
330
1E
100
AcDbEntity
  8
0
100
AcDbLine
 10
94.1300125
 20
278.06
 30
0.0
 11
96.6300125
 21
277.3899999999998
 31
0.0
  0
LINE
  5
71
330
1E
100
AcDbEntity
  8
0
100
AcDbLine
 10
95.0000125
 20
4.24999999999999
 30
0.0
 11
97.5000125
 21
4.74999999999999
 31
0.0
  0
LINE
  5
72
330
1E
100
AcDbEntity
  8
0
100
AcDbLine
 10
95.0000125
 20
4.24999999999999
 30
0.0
 11
95.0000125
 21
0.249999999999994
 31
0.0
  0
LINE
  5
73
330
1E
100
AcDbEntity
  8
0
100
AcDbLine
 10
95.0000125
 20
4.24999999999999
 30
0.0
 11
95.8000125
 21
4.24999999999999
 31
0.0
  0
LINE
  5
74
330
1E
100
AcDbEntity
  8
0
100
AcDbLine
 10
95.8000125
 20
4.24999999999999
 30
0.0
 11
98.1000125
 21
4.24999999999999
 31
0.0
  0
LINE
  5
75
330
1E
100
AcDbEntity
  8
0
100
AcDbLine
 10
98.1000125
 20
4.24999999999999
 30
0.0
 11
101.8000124999999
 21
4.24999999999999
 31
0.0
  0
LINE
  5
76
330
1E
100
AcDbEntity
  8
0
100
AcDbLine
 10
101.8000124999999
 20
4.24999999999999
 30
0.0
 11
106.6000124999999
 21
4.24999999999999
 31
0.0
  0
LINE
  5
77
330
1E
100
AcDbEntity
  8
0
100
AcDbLine
 10
96.6300125
 20
277.3899999999998
 30
0.0
 11
98.4530125
 21
275.56
 31
0.0
  0
LINE
  5
78
330
1E
100
AcDbEntity
  8
0
100
AcDbLine
 10
99.0000125
 20
5.75
 30
0.0
 11
99.0000125
 21
273.0699999999999
 31
0.0
  0
LINE
  5
79
330
1E
100
AcDbEntity
  8
0
100
AcDbLine
 10
99.0000125
 20
5.75
 30
0.0
 11
99.0000125
 21
273.0699999999999
 31
0.0
  0
LINE
  5
7A
330
1E
100
AcDbEntity
  8
0
100
AcDbLine
 10
99.0000125
 20
5.74999999999999
 30
0.0
 11
99.70001250000001
 21
5.74999999999999
 31
0.0
  0
LINE
  5
7B
330
1E
100
AcDbEntity
  8
0
100
AcDbLine
 10
98.4530125
 20
275.56
 30
0.0
 11
99.0000125
 21
273.0699999999999
 31
0.0
  0
LINE
  5
7C
330
1E
100
AcDbEntity
  8
0
100
AcDbLine
 10
99.0000125
 20
323.2499999999999
 30
0.0
 11
99.50001249999999
 21
323.75
 31
0.0
  0
LINE
  5
7D
330
1E
100
AcDbEntity
  8
0
100
AcDbLine
 10
99.0000125
 20
323.2499999999999
 30
0.0
 11
99.0000125
 21
316.9499999999999
 31
0.0
  0
LINE
  5
7E
330
1E
100
AcDbEntity
  8
0
100
AcDbLine
 10
99.0000125
 20
323.2499999999999
 30
0.0
 11
99.70001250000001
 21
323.2499999999999
 31
0.0
  0
LINE
  5
7F
330
1E
100
AcDbEntity
  8
0
100
AcDbLine
 10
99.0000125
 20
316.9499999999999
 30
0.0
 11
99.0000125
 21
323.2499999999999
 31
0.0
  0
LINE
  5
80
330
1E
100
AcDbEntity
  8
0
100
AcDbLine
 10
98.4200125
 20
314.43
 30
0.0
 11
99.0000125
 21
316.9499999999999
 31
0.0
  0
LINE
  5
81
330
1E
100
AcDbEntity
  8
0
100
AcDbLine
 10
96.59401250000001
 20
312.616
 30
0.0
 11
98.4200125
 21
314.43
 31
0.0
  0
LINE
  5
82
330
1E
100
AcDbEntity
  8
0
100
AcDbLine
 10
96.30001249999999
 20
408.6659999999999
 30
0.0
 11
113.8250125
 21
341.7499999999999
 31
0.0
  0
LINE
  5
83
330
1E
100
AcDbEntity
  8
0
100
AcDbLine
 10
96.30001249999999
 20
408.6659999999999
 30
0.0
 11
96.39511249999999
 21
408.692
 31
0.0
  0
LINE
  5
84
330
1E
100
AcDbEntity
  8
0
100
AcDbLine
 10
96.7755125
 20
408.7959999999999
 30
0.0
 11
97.4414125
 21
408.9789999999998
 31
0.0
  0
LINE
  5
85
330
1E
100
AcDbEntity
  8
0
100
AcDbLine
 10
96.39511249999999
 20
408.692
 30
0.0
 11
96.7755125
 21
408.7959999999999
 31
0.0
  0
LINE
  5
86
330
1E
100
AcDbEntity
  8
0
100
AcDbLine
 10
97.4414125
 20
408.9789999999998
 30
0.0
 11
98.2024125
 21
409.187
 31
0.0
  0
LINE
  5
87
330
1E
100
AcDbEntity
  8
0
100
AcDbLine
 10
98.2024125
 20
409.187
 30
0.0
 11
99.05851250000001
 21
409.421
 31
0.0
  0
LINE
  5
88
330
1E
100
AcDbEntity
  8
0
100
AcDbLine
 10
99.0000125
 20
339.7499999999999
 30
0.0
 11
99.50001249999999
 21
340.2499999999999
 31
0.0
  0
LINE
  5
89
330
1E
100
AcDbEntity
  8
0
100
AcDbLine
 10
99.0000125
 20
339.7499999999999
 30
0.0
 11
99.0000125
 21
324.25
 31
0.0
  0
LINE
  5
8A
330
1E
100
AcDbEntity
  8
0
100
AcDbLine
 10
99.0000125
 20
339.7499999999999
 30
0.0
 11
99.70001250000001
 21
339.7499999999999
 31
0.0
  0
LINE
  5
8B
330
1E
100
AcDbEntity
  8
0
100
AcDbLine
 10
99.70001250000001
 20
5.74999999999999
 30
0.0
 11
101.5000125
 21
5.74999999999999
 31
0.0
  0
LINE
  5
8C
330
1E
100
AcDbEntity
  8
0
100
AcDbLine
 10
99.50001249999999
 20
323.75
 30
0.0
 11
100.2000124999999
 21
323.75
 31
0.0
  0
LINE
  5
8D
330
1E
100
AcDbEntity
  8
0
100
AcDbLine
 10
99.50001249999999
 20
340.2499999999999
 30
0.0
 11
100.2000124999999
 21
340.2499999999999
 31
0.0
  0
LINE
  5
8E
330
1E
100
AcDbEntity
  8
0
100
AcDbLine
 10
99.70001250000001
 20
339.7499999999999
 30
0.0
 11
101.5000125
 21
339.7499999999999
 31
0.0
  0
LINE
  5
8F
330
1E
100
AcDbEntity
  8
0
100
AcDbLine
 10
99.70001250000001
 20
324.25
 30
0.0
 11
101.5000125
 21
324.25
 31
0.0
  0
LINE
  5
90
330
1E
100
AcDbEntity
  8
0
100
AcDbLine
 10
101.5000125
 20
5.74999999999999
 30
0.0
 11
104.6000125
 21
5.74999999999999
 31
0.0
  0
LINE
  5
91
330
1E
100
AcDbEntity
  8
0
100
AcDbLine
 10
100.2000124999999
 20
340.2499999999999
 30
0.0
 11
102.0000124999999
 21
340.2499999999999
 31
0.0
  0
LINE
  5
92
330
1E
100
AcDbEntity
  8
0
100
AcDbLine
 10
101.5000125
 20
339.7499999999999
 30
0.0
 11
104.6000125
 21
339.7499999999999
 31
0.0
  0
LINE
  5
93
330
1E
100
AcDbEntity
  8
0
100
AcDbLine
 10
100.2000124999999
 20
323.75
 30
0.0
 11
102.0000124999999
 21
323.75
 31
0.0
  0
LINE
  5
94
330
1E
100
AcDbEntity
  8
0
100
AcDbLine
 10
101.5000125
 20
324.25
 30
0.0
 11
104.6000125
 21
324.25
 31
0.0
  0
LINE
  5
95
330
1E
100
AcDbEntity
  8
0
100
AcDbLine
 10
101.5000125
 20
323.2499999999999
 30
0.0
 11
104.6000125
 21
323.2499999999999
 31
0.0
  0
LINE
  5
96
330
1E
100
AcDbEntity
  8
0
100
AcDbLine
 10
99.70001250000001
 20
323.2499999999999
 30
0.0
 11
101.5000125
 21
323.2499999999999
 31
0.0
  0
LINE
  5
97
330
1E
100
AcDbEntity
  8
0
100
AcDbLine
 10
101.1510125
 20
409.994
 30
0.0
 11
102.0070124999999
 21
410.229
 31
0.0
  0
LINE
  5
98
330
1E
100
AcDbEntity
  8
0
100
AcDbLine
 10
100.1050125
 20
409.708
 30
0.0
 11
101.1510125
 21
409.994
 31
0.0
  0
LINE
  5
99
330
1E
100
AcDbEntity
  8
0
100
AcDbLine
 10
99.05851250000001
 20
409.421
 30
0.0
 11
100.1050125
 21
409.708
 31
0.0
  0
LINE
  5
9A
330
1E
100
AcDbEntity
  8
0
100
AcDbLine
 10
99.0000125
 20
324.25
 30
0.0
 11
99.50001249999999
 21
323.75
 31
0.0
  0
LINE
  5
9B
330
1E
100
AcDbEntity
  8
0
100
AcDbLine
 10
99.0000125
 20
324.25
 30
0.0
 11
99.0000125
 21
339.7499999999999
 31
0.0
  0
LINE
  5
9C
330
1E
100
AcDbEntity
  8
0
100
AcDbLine
 10
99.0000125
 20
324.25
 30
0.0
 11
99.70001250000001
 21
324.25
 31
0.0
  0
LINE
  5
9D
330
1E
100
AcDbEntity
  8
0
100
AcDbLine
 10
97.5000125
 20
4.74999999999999
 30
0.0
 11
99.0000125
 21
5.74999999999999
 31
0.0
  0
LINE
  5
9E
330
1E
100
AcDbEntity
  8
0
100
AcDbLine
 10
95.0000125
 20
0.249999999999994
 30
0.0
 11
95.0000125
 21
4.24999999999999
 31
0.0
  0
LINE
  5
9F
330
1E
100
AcDbEntity
  8
0
100
AcDbLine
 10
95.0000125
 20
0.249999999999994
 30
0.0
 11
95.8000125
 21
0.249999999999994
 31
0.0
  0
LINE
  5
A0
330
1E
100
AcDbEntity
  8
0
100
AcDbLine
 10
95.8000125
 20
0.249999999999994
 30
0.0
 11
98.1000125
 21
0.249999999999994
 31
0.0
  0
LINE
  5
A1
330
1E
100
AcDbEntity
  8
0
100
AcDbLine
 10
106.6000124999999
 20
4.24999999999999
 30
0.0
 11
112.1000125
 21
4.24999999999999
 31
0.0
  0
LINE
  5
A2
330
1E
100
AcDbEntity
  8
0
100
AcDbLine
 10
104.6000125
 20
5.74999999999999
 30
0.0
 11
108.5000125
 21
5.74999999999999
 31
0.0
  0
LINE
  5
A3
330
1E
100
AcDbEntity
  8
0
100
AcDbLine
 10
102.0000124999999
 20
340.2499999999999
 30
0.0
 11
104.9000125
 21
340.2499999999999
 31
0.0
  0
LINE
  5
A4
330
1E
100
AcDbEntity
  8
0
100
AcDbLine
 10
102.0000124999999
 20
323.75
 30
0.0
 11
104.9000125
 21
323.75
 31
0.0
  0
LINE
  5
A5
330
1E
100
AcDbEntity
  8
0
100
AcDbLine
 10
104.9000125
 20
340.2499999999999
 30
0.0
 11
108.8000124999999
 21
340.2499999999999
 31
0.0
  0
LINE
  5
A6
330
1E
100
AcDbEntity
  8
0
100
AcDbLine
 10
104.6000125
 20
339.7499999999999
 30
0.0
 11
108.5000125
 21
339.7499999999999
 31
0.0
  0
LINE
  5
A7
330
1E
100
AcDbEntity
  8
0
100
AcDbLine
 10
104.9000125
 20
323.75
 30
0.0
 11
108.8000124999999
 21
323.75
 31
0.0
  0
LINE
  5
A8
330
1E
100
AcDbEntity
  8
0
100
AcDbLine
 10
104.6000125
 20
324.25
 30
0.0
 11
108.5000125
 21
324.25
 31
0.0
  0
LINE
  5
A9
330
1E
100
AcDbEntity
  8
0
100
AcDbLine
 10
104.6000125
 20
323.2499999999999
 30
0.0
 11
108.5000125
 21
323.2499999999999
 31
0.0
  0
LINE
  5
AA
330
1E
100
AcDbEntity
  8
0
100
AcDbLine
 10
108.5000125
 20
5.74999999999999
 30
0.0
 11
113.1000125
 21
5.74999999999999
 31
0.0
  0
LINE
  5
AB
330
1E
100
AcDbEntity
  8
0
100
AcDbLine
 10
108.5000125
 20
323.2499999999999
 30
0.0
 11
113.1000125
 21
323.2499999999999
 31
0.0
  0
LINE
  5
AC
330
1E
100
AcDbEntity
  8
0
100
AcDbLine
 10
112.1000125
 20
4.24999999999999
 30
0.0
 11
118.0000125
 21
4.24999999999999
 31
0.0
  0
LINE
  5
AD
330
1E
100
AcDbEntity
  8
0
100
AcDbLine
 10
108.8000124999999
 20
323.75
 30
0.0
 11
113.2000125
 21
323.75
 31
0.0
  0
LINE
  5
AE
330
1E
100
AcDbEntity
  8
0
100
AcDbLine
 10
108.8000124999999
 20
340.2499999999999
 30
0.0
 11
113.2000125
 21
340.2499999999999
 31
0.0
  0
LINE
  5
AF
330
1E
100
AcDbEntity
  8
0
100
AcDbLine
 10
108.5000125
 20
339.7499999999999
 30
0.0
 11
113.1000125
 21
339.7499999999999
 31
0.0
  0
LINE
  5
B0
330
1E
100
AcDbEntity
  8
0
100
AcDbLine
 10
108.5000125
 20
324.25
 30
0.0
 11
113.1000125
 21
324.25
 31
0.0
  0
LINE
  5
B1
330
1E
100
AcDbEntity
  8
0
100
AcDbLine
 10
107.0000124999999
 20
340.2499999999999
 30
0.0
 11
110.0000124999999
 21
341.25
 31
0.0
  0
LINE
  5
B2
330
1E
100
AcDbEntity
  8
0
100
AcDbLine
 10
103.4340124999999
 20
410.62
 30
0.0
 11
103.8150125
 21
410.724
 31
0.0
  0
LINE
  5
B3
330
1E
100
AcDbEntity
  8
0
100
AcDbLine
 10
103.8150125
 20
410.724
 30
0.0
 11
103.9100125
 21
410.7499999999999
 31
0.0
  0
LINE
  5
B4
330
1E
100
AcDbEntity
  8
0
100
AcDbLine
 10
103.9100125
 20
410.7499999999999
 30
0.0
 11
121.9470124999999
 21
341.7499999999999
 31
0.0
  0
LINE
  5
B5
330
1E
100
AcDbEntity
  8
0
100
AcDbLine
 10
102.7680125
 20
410.437
 30
0.0
 11
103.4340124999999
 21
410.62
 31
0.0
  0
LINE
  5
B6
330
1E
100
AcDbEntity
  8
0
100
AcDbLine
 10
102.0070124999999
 20
410.229
 30
0.0
 11
102.7680125
 21
410.437
 31
0.0
  0
LINE
  5
B7
330
1E
100
AcDbEntity
  8
0
100
AcDbLine
 10
110.0000124999999
 20
341.25
 30
0.0
 11
113.0000125
 21
341.7499999999999
 31
0.0
  0
LINE
  5
B8
330
1E
100
AcDbEntity
  8
0
100
AcDbLine
 10
101.8000124999999
 20
0.249999999999994
 30
0.0
 11
106.6000124999999
 21
0.249999999999993
 31
0.0
  0
LINE
  5
B9
330
1E
100
AcDbEntity
  8
0
100
AcDbLine
 10
106.6000124999999
 20
0.249999999999993
 30
0.0
 11
112.1000125
 21
0.249999999999993
 31
0.0
  0
LINE
  5
BA
330
1E
100
AcDbEntity
  8
0
100
AcDbLine
 10
134.2000125
 20
0.249999999999992
 30
0.0
 11
137.9000125
 21
0.249999999999992
 31
0.0
  0
LINE
  5
BB
330
1E
100
AcDbEntity
  8
0
100
AcDbLine
 10
129.4000124999999
 20
0.249999999999992
 30
0.0
 11
134.2000125
 21
0.249999999999992
 31
0.0
  0
LINE
  5
BC
330
1E
100
AcDbEntity
  8
0
100
AcDbLine
 10
118.0000125
 20
4.24999999999999
 30
0.0
 11
123.9000125
 21
4.24999999999999
 31
0.0
  0
LINE
  5
BD
330
1E
100
AcDbEntity
  8
0
100
AcDbLine
 10
118.0000125
 20
0.249999999999993
 30
0.0
 11
123.9000125
 21
0.249999999999992
 31
0.0
  0
LINE
  5
BE
330
1E
100
AcDbEntity
  8
0
100
AcDbLine
 10
113.1000125
 20
5.74999999999999
 30
0.0
 11
118.0000125
 21
5.74999999999999
 31
0.0
  0
LINE
  5
BF
330
1E
100
AcDbEntity
  8
0
100
AcDbLine
 10
129.4000124999999
 20
4.24999999999999
 30
0.0
 11
134.2000125
 21
4.24999999999999
 31
0.0
  0
LINE
  5
C0
330
1E
100
AcDbEntity
  8
0
100
AcDbLine
 10
123.9000125
 20
4.24999999999999
 30
0.0
 11
129.4000124999999
 21
4.24999999999999
 31
0.0
  0
LINE
  5
C1
330
1E
100
AcDbEntity
  8
0
100
AcDbLine
 10
134.2000125
 20
4.24999999999999
 30
0.0
 11
137.9000125
 21
4.24999999999999
 31
0.0
  0
LINE
  5
C2
330
1E
100
AcDbEntity
  8
0
100
AcDbLine
 10
136.3000125
 20
5.74999999999999
 30
0.0
 11
137.0000125
 21
5.74999999999999
 31
0.0
  0
LINE
  5
C3
330
1E
100
AcDbEntity
  8
0
100
AcDbLine
 10
134.5000125
 20
5.74999999999999
 30
0.0
 11
136.3000125
 21
5.74999999999999
 31
0.0
  0
LINE
  5
C4
330
1E
100
AcDbEntity
  8
0
100
AcDbLine
 10
131.4000124999999
 20
5.74999999999999
 30
0.0
 11
134.5000125
 21
5.74999999999999
 31
0.0
  0
LINE
  5
C5
330
1E
100
AcDbEntity
  8
0
100
AcDbLine
 10
127.5000125
 20
5.74999999999999
 30
0.0
 11
131.4000124999999
 21
5.74999999999999
 31
0.0
  0
LINE
  5
C6
330
1E
100
AcDbEntity
  8
0
100
AcDbLine
 10
122.9000124999999
 20
5.74999999999999
 30
0.0
 11
127.5000125
 21
5.74999999999999
 31
0.0
  0
LINE
  5
C7
330
1E
100
AcDbEntity
  8
0
100
AcDbLine
 10
137.0000125
 20
43.4302026516061
 30
0.0
 11
144.9980124999999
 21
57.269
 31
0.0
  0
LINE
  5
C8
330
1E
100
AcDbEntity
  8
0
100
AcDbLine
 10
118.0000125
 20
5.74999999999999
 30
0.0
 11
122.9000124999999
 21
5.74999999999999
 31
0.0
  0
LINE
  5
C9
330
1E
100
AcDbEntity
  8
0
100
AcDbLine
 10
137.0000125
 20
5.74999999999999
 30
0.0
 11
138.5000124999999
 21
4.74999999999999
 31
0.0
  0
LINE
  5
CA
330
1E
100
AcDbEntity
  8
0
100
AcDbLine
 10
137.0000125
 20
5.75
 30
0.0
 11
137.0000125
 21
208.4436912280702
 31
0.0
  0
LINE
  5
CB
330
1E
100
AcDbEntity
  8
0
100
AcDbLine
 10
123.9000125
 20
0.249999999999992
 30
0.0
 11
129.4000124999999
 21
0.249999999999992
 31
0.0
  0
LINE
  5
CC
330
1E
100
AcDbEntity
  8
0
100
AcDbLine
 10
141.0000125
 20
0.249999999999991
 30
0.0
 11
141.0000125
 21
4.24999999999999
 31
0.0
  0
LINE
  5
CD
330
1E
100
AcDbEntity
  8
0
100
AcDbLine
 10
137.9000125
 20
4.24999999999999
 30
0.0
 11
140.2000125
 21
4.24999999999999
 31
0.0
  0
LINE
  5
CE
330
1E
100
AcDbEntity
  8
0
100
AcDbLine
 10
140.2000125
 20
4.24999999999999
 30
0.0
 11
141.0000125
 21
4.24999999999999
 31
0.0
  0
LINE
  5
CF
330
1E
100
AcDbEntity
  8
0
100
AcDbLine
 10
137.9000125
 20
0.249999999999992
 30
0.0
 11
140.2000125
 21
0.249999999999991
 31
0.0
  0
LINE
  5
D0
330
1E
100
AcDbEntity
  8
0
100
AcDbLine
 10
138.5000124999999
 20
4.74999999999999
 30
0.0
 11
141.0000125
 21
4.24999999999999
 31
0.0
  0
LINE
  5
D1
330
1E
100
AcDbEntity
  8
0
100
AcDbLine
 10
141.0000125
 20
4.24999999999999
 30
0.0
 11
141.0000125
 21
0.249999999999992
 31
0.0
  0
LINE
  5
D2
330
1E
100
AcDbEntity
  8
0
100
AcDbLine
 10
140.2000125
 20
0.249999999999991
 30
0.0
 11
141.0000125
 21
0.249999999999991
 31
0.0
  0
LINE
  5
D3
330
1E
100
AcDbEntity
  8
0
100
AcDbLine
 10
137.0000125
 20
5.75
 30
0.0
 11
137.0000125
 21
208.4436912280702
 31
0.0
  0
LINE
  5
D4
330
1E
100
AcDbEntity
  8
0
100
AcDbLine
 10
113.1000125
 20
323.2499999999999
 30
0.0
 11
118.0000125
 21
323.2499999999999
 31
0.0
  0
LINE
  5
D5
330
1E
100
AcDbEntity
  8
0
100
AcDbLine
 10
113.2000125
 20
323.75
 30
0.0
 11
118.0000125
 21
323.75
 31
0.0
  0
LINE
  5
D6
330
1E
100
AcDbEntity
  8
0
100
AcDbLine
 10
118.0000125
 20
323.2499999999999
 30
0.0
 11
122.9000124999999
 21
323.2499999999999
 31
0.0
  0
LINE
  5
D7
330
1E
100
AcDbEntity
  8
0
100
AcDbLine
 10
113.1000125
 20
339.7499999999999
 30
0.0
 11
118.0000125
 21
339.7499999999999
 31
0.0
  0
LINE
  5
D8
330
1E
100
AcDbEntity
  8
0
100
AcDbLine
 10
113.2000125
 20
340.2499999999999
 30
0.0
 11
118.0000125
 21
340.2499999999999
 31
0.0
  0
LINE
  5
D9
330
1E
100
AcDbEntity
  8
0
100
AcDbLine
 10
113.1000125
 20
324.25
 30
0.0
 11
118.0000125
 21
324.25
 31
0.0
  0
LINE
  5
DA
330
1E
100
AcDbEntity
  8
0
100
AcDbLine
 10
118.0000125
 20
340.2499999999999
 30
0.0
 11
122.8000124999999
 21
340.2499999999999
 31
0.0
  0
LINE
  5
DB
330
1E
100
AcDbEntity
  8
0
100
AcDbLine
 10
118.0000125
 20
339.7499999999999
 30
0.0
 11
122.9000124999999
 21
339.7499999999999
 31
0.0
  0
LINE
  5
DC
330
1E
100
AcDbEntity
  8
0
100
AcDbLine
 10
118.0000125
 20
323.75
 30
0.0
 11
122.8000124999999
 21
323.75
 31
0.0
  0
LINE
  5
DD
330
1E
100
AcDbEntity
  8
0
100
AcDbLine
 10
122.9000124999999
 20
323.2499999999999
 30
0.0
 11
127.5000125
 21
323.2499999999999
 31
0.0
  0
LINE
  5
DE
330
1E
100
AcDbEntity
  8
0
100
AcDbLine
 10
127.5000125
 20
323.2499999999999
 30
0.0
 11
131.4000124999999
 21
323.2499999999999
 31
0.0
  0
LINE
  5
DF
330
1E
100
AcDbEntity
  8
0
100
AcDbLine
 10
131.4000124999999
 20
323.2499999999999
 30
0.0
 11
134.5000125
 21
323.2499999999999
 31
0.0
  0
LINE
  5
E0
330
1E
100
AcDbEntity
  8
0
100
AcDbLine
 10
134.5000125
 20
323.2499999999999
 30
0.0
 11
136.3000125
 21
323.2499999999999
 31
0.0
  0
LINE
  5
E1
330
1E
100
AcDbEntity
  8
0
100
AcDbLine
 10
136.3000125
 20
323.2499999999999
 30
0.0
 11
137.0000125
 21
323.2499999999999
 31
0.0
  0
LINE
  5
E2
330
1E
100
AcDbEntity
  8
0
100
AcDbLine
 10
135.8000125
 20
323.75
 30
0.0
 11
136.5000124999999
 21
323.75
 31
0.0
  0
LINE
  5
E3
330
1E
100
AcDbEntity
  8
0
100
AcDbLine
 10
136.3000125
 20
324.25
 30
0.0
 11
137.0000125
 21
324.25
 31
0.0
  0
LINE
  5
E4
330
1E
100
AcDbEntity
  8
0
100
AcDbLine
 10
134.0000124999999
 20
323.75
 30
0.0
 11
135.8000125
 21
323.75
 31
0.0
  0
LINE
  5
E5
330
1E
100
AcDbEntity
  8
0
100
AcDbLine
 10
134.5000125
 20
324.25
 30
0.0
 11
136.3000125
 21
324.25
 31
0.0
  0
LINE
  5
E6
330
1E
100
AcDbEntity
  8
0
100
AcDbLine
 10
131.1000124999999
 20
323.75
 30
0.0
 11
134.0000124999999
 21
323.75
 31
0.0
  0
LINE
  5
E7
330
1E
100
AcDbEntity
  8
0
100
AcDbLine
 10
131.4000124999999
 20
324.25
 30
0.0
 11
134.5000125
 21
324.25
 31
0.0
  0
LINE
  5
E8
330
1E
100
AcDbEntity
  8
0
100
AcDbLine
 10
127.2000124999999
 20
323.75
 30
0.0
 11
131.1000124999999
 21
323.75
 31
0.0
  0
LINE
  5
E9
330
1E
100
AcDbEntity
  8
0
100
AcDbLine
 10
127.5000125
 20
324.25
 30
0.0
 11
131.4000124999999
 21
324.25
 31
0.0
  0
LINE
  5
EA
330
1E
100
AcDbEntity
  8
0
100
AcDbLine
 10
122.8000124999999
 20
323.75
 30
0.0
 11
127.2000124999999
 21
323.75
 31
0.0
  0
LINE
  5
EB
330
1E
100
AcDbEntity
  8
0
100
AcDbLine
 10
122.8000124999999
 20
340.2499999999999
 30
0.0
 11
127.2000124999999
 21
340.2499999999999
 31
0.0
  0
LINE
  5
EC
330
1E
100
AcDbEntity
  8
0
100
AcDbLine
 10
136.3000125
 20
339.7499999999999
 30
0.0
 11
137.0000125
 21
339.7499999999999
 31
0.0
  0
LINE
  5
ED
330
1E
100
AcDbEntity
  8
0
100
AcDbLine
 10
134.5000125
 20
339.7499999999999
 30
0.0
 11
136.3000125
 21
339.7499999999999
 31
0.0
  0
LINE
  5
EE
330
1E
100
AcDbEntity
  8
0
100
AcDbLine
 10
131.4000124999999
 20
339.7499999999999
 30
0.0
 11
134.5000125
 21
339.7499999999999
 31
0.0
  0
LINE
  5
EF
330
1E
100
AcDbEntity
  8
0
100
AcDbLine
 10
135.8000125
 20
340.2499999999999
 30
0.0
 11
136.5000124999999
 21
340.2499999999999
 31
0.0
  0
LINE
  5
F0
330
1E
100
AcDbEntity
  8
0
100
AcDbLine
 10
134.0000124999999
 20
340.2499999999999
 30
0.0
 11
135.8000125
 21
340.2499999999999
 31
0.0
  0
LINE
  5
F1
330
1E
100
AcDbEntity
  8
0
100
AcDbLine
 10
131.1000124999999
 20
340.2499999999999
 30
0.0
 11
134.0000124999999
 21
340.2499999999999
 31
0.0
  0
LINE
  5
F2
330
1E
100
AcDbEntity
  8
0
100
AcDbLine
 10
127.2000124999999
 20
340.2499999999999
 30
0.0
 11
131.1000124999999
 21
340.2499999999999
 31
0.0
  0
LINE
  5
F3
330
1E
100
AcDbEntity
  8
0
100
AcDbLine
 10
127.5000125
 20
339.7499999999999
 30
0.0
 11
131.4000124999999
 21
339.7499999999999
 31
0.0
  0
LINE
  5
F4
330
1E
100
AcDbEntity
  8
0
100
AcDbLine
 10
122.9000124999999
 20
339.7499999999999
 30
0.0
 11
127.5000125
 21
339.7499999999999
 31
0.0
  0
LINE
  5
F5
330
1E
100
AcDbEntity
  8
0
100
AcDbLine
 10
122.9000124999999
 20
324.25
 30
0.0
 11
127.5000125
 21
324.25
 31
0.0
  0
LINE
  5
F6
330
1E
100
AcDbEntity
  8
0
100
AcDbLine
 10
118.0000125
 20
324.25
 30
0.0
 11
122.9000124999999
 21
324.25
 31
0.0
  0
LINE
  5
F7
330
1E
100
AcDbEntity
  8
0
100
AcDbLine
 10
126.0000124999999
 20
341.25
 30
0.0
 11
129.0000124999999
 21
340.2499999999999
 31
0.0
  0
LINE
  5
F8
330
1E
100
AcDbEntity
  8
0
100
AcDbLine
 10
123.0000124999999
 20
341.7499999999999
 30
0.0
 11
126.0000124999999
 21
341.25
 31
0.0
  0
LINE
  5
F9
330
1E
100
AcDbEntity
  8
0
100
AcDbLine
 10
136.5000124999999
 20
340.2499999999999
 30
0.0
 11
137.0000125
 21
339.7499999999999
 31
0.0
  0
LINE
  5
FC
330
1E
100
AcDbEntity
  8
0
100
AcDbLine
 10
144.9980124999999
 20
57.269
 30
0.0
 11
159.9980124999999
 21
57.2689
 31
0.0
  0
LINE
  5
FD
330
1E
100
AcDbEntity
  8
0
100
AcDbLine
 10
159.9980124999999
 20
57.2689
 30
0.0
 11
159.9990124999998
 21
57.4576
 31
0.0
  0
LINE
  5
FF
330
1E
100
AcDbEntity
  8
0
100
AcDbLine
 10
159.9970125
 20
58.00399999999999
 30
0.0
 11
159.9970125
 21
57.4607
 31
0.0
  0
LINE
  5
100
330
1E
100
AcDbEntity
  8
0
100
AcDbLine
 10
160.0000125
 20
57.9983
 30
0.0
 11
160.0000125
 21
58.8085
 31
0.0
  0
LINE
  5
101
330
1E
100
AcDbEntity
  8
0
100
AcDbLine
 10
159.9970125
 20
57.4607
 30
0.0
 11
159.9980124999999
 21
57.2689
 31
0.0
  0
LINE
  5
102
330
1E
100
AcDbEntity
  8
0
100
AcDbLine
 10
159.9970125
 20
57.4607
 30
0.0
 11
159.9970125
 21
58.00399999999999
 31
0.0
  0
LINE
  5
103
330
1E
100
AcDbEntity
  8
0
100
AcDbLine
 10
159.9990124999998
 20
57.4576
 30
0.0
 11
160.0000125
 21
57.9983
 31
0.0
  0
LINE
  5
107
330
1E
100
AcDbEntity
  8
0
100
AcDbLine
 10
159.9960125
 20
58.8158
 30
0.0
 11
159.9970125
 21
58.00399999999999
 31
0.0
  0
LINE
  5
108
330
1E
100
AcDbEntity
  8
0
100
AcDbLine
 10
159.9960125
 20
58.8158
 30
0.0
 11
159.9960125
 21
59.77289999999999
 31
0.0
  0
LINE
  5
109
330
1E
100
AcDbEntity
  8
0
100
AcDbLine
 10
160.0000125
 20
58.8085
 30
0.0
 11
160.0000125
 21
57.9983
 31
0.0
  0
LINE
  5
10A
330
1E
100
AcDbEntity
  8
0
100
AcDbLine
 10
160.0000125
 20
58.8085
 30
0.0
 11
160.0000125
 21
59.7649
 31
0.0
  0
LINE
  5
10F
330
1E
100
AcDbEntity
  8
0
100
AcDbLine
 10
159.9960125
 20
60.7293
 30
0.0
 11
159.9970125
 21
61.5395
 31
0.0
  0
LINE
  5
110
330
1E
100
AcDbEntity
  8
0
100
AcDbLine
 10
159.9960125
 20
60.7293
 30
0.0
 11
159.9960125
 21
59.77289999999999
 31
0.0
  0
LINE
  5
111
330
1E
100
AcDbEntity
  8
0
100
AcDbLine
 10
159.9960125
 20
59.77289999999999
 30
0.0
 11
159.9960125
 21
60.7293
 31
0.0
  0
LINE
  5
112
330
1E
100
AcDbEntity
  8
0
100
AcDbLine
 10
159.9960125
 20
59.77289999999999
 30
0.0
 11
159.9960125
 21
58.8158
 31
0.0
  0
LINE
  5
113
330
1E
100
AcDbEntity
  8
0
100
AcDbLine
 10
160.0000125
 20
59.7649
 30
0.0
 11
160.0000125
 21
58.8085
 31
0.0
  0
LINE
  5
114
330
1E
100
AcDbEntity
  8
0
100
AcDbLine
 10
160.0000125
 20
59.7649
 30
0.0
 11
160.0000125
 21
60.722
 31
0.0
  0
LINE
  5
115
330
1E
100
AcDbEntity
  8
0
100
AcDbLine
 10
160.0000125
 20
60.722
 30
0.0
 11
160.0000125
 21
59.7649
 31
0.0
  0
LINE
  5
116
330
1E
100
AcDbEntity
  8
0
100
AcDbLine
 10
160.0000125
 20
60.722
 30
0.0
 11
160.0000125
 21
61.5338
 31
0.0
  0
LINE
  5
117
330
1E
100
AcDbEntity
  8
0
100
AcDbLine
 10
159.9970125
 20
61.5395
 30
0.0
 11
159.9970125
 21
62.0802
 31
0.0
  0
LINE
  5
118
330
1E
100
AcDbEntity
  8
0
100
AcDbLine
 10
160.0000125
 20
61.5338
 30
0.0
 11
160.0000125
 21
60.722
 31
0.0
  0
LINE
  5
119
330
1E
100
AcDbEntity
  8
0
100
AcDbLine
 10
159.9970125
 20
62.0802
 30
0.0
 11
159.9980124999999
 21
62.2689
 31
0.0
  0
LINE
  5
11A
330
1E
100
AcDbEntity
  8
0
100
AcDbLine
 10
159.9970125
 20
62.0802
 30
0.0
 11
159.9970125
 21
61.5395
 31
0.0
  0
LINE
  5
11B
330
1E
100
AcDbEntity
  8
0
100
AcDbLine
 10
159.9990124999998
 20
62.0771
 30
0.0
 11
160.0000125
 21
61.5338
 31
0.0
  0
LINE
  5
11C
330
1E
100
AcDbEntity
  8
0
100
AcDbLine
 10
159.9980124999999
 20
62.2689
 30
0.0
 11
159.9990124999998
 21
62.0771
 31
0.0
  0
LINE
  5
11D
330
1E
100
AcDbEntity
  8
0
100
AcDbLine
 10
144.9980124999999
 20
62.2689
 30
0.0
 11
159.9980124999999
 21
62.2689
 31
0.0
  0
LINE
  5
11E
330
1E
100
AcDbEntity
  8
0
100
AcDbLine
 10
144.0050124999999
 20
62.1693
 30
0.0
 11
144.9980124999999
 21
62.2689
 31
0.0
  0
LINE
  5
11F
330
1E
100
AcDbEntity
  8
0
100
AcDbLine
 10
143.0510125
 20
61.87429999999999
 30
0.0
 11
144.0050124999999
 21
62.1693
 31
0.0
  0
LINE
  5
120
330
1E
100
AcDbEntity
  8
0
100
AcDbLine
 10
142.1750125
 20
61.3956
 30
0.0
 11
143.0510125
 21
61.87429999999999
 31
0.0
  0
LINE
  5
121
330
1E
100
AcDbEntity
  8
0
100
AcDbLine
 10
141.4110125
 20
60.7525
 30
0.0
 11
142.1750125
 21
61.3956
 31
0.0
  0
LINE
  5
123
330
1E
100
AcDbEntity
  8
0
100
AcDbLine
 10
140.6680125
 20
59.769
 30
0.0
 11
141.4110125
 21
60.7525
 31
0.0
  0
LINE
  5
128
330
1E
100
AcDbEntity
  8
0
100
AcDbLine
 10
137.0000125
 20
324.25
 30
0.0
 11
137.0000125
 21
339.7499999999999
 31
0.0
  0
LINE
  5
129
330
1E
100
AcDbEntity
  8
0
100
AcDbLine
 10
137.0000125
 20
339.7499999999999
 30
0.0
 11
137.0000125
 21
324.25
 31
0.0
  0
LINE
  5
12A
330
1E
100
AcDbEntity
  8
0
100
AcDbLine
 10
136.5000124999999
 20
323.75
 30
0.0
 11
137.0000125
 21
323.2499999999999
 31
0.0
  0
LINE
  5
12B
330
1E
100
AcDbEntity
  8
0
100
AcDbLine
 10
136.5000124999999
 20
323.75
 30
0.0
 11
137.0000125
 21
324.25
 31
0.0
  0
LINE
  5
12C
330
1E
100
AcDbEntity
  8
0
100
AcDbLine
 10
137.0000125
 20
208.4436912280702
 30
0.0
 11
137.0000125
 21
323.2499999999999
 31
0.0
  0
LINE
  5
12D
330
1E
100
AcDbEntity
  8
0
100
AcDbLine
 10
137.0000125
 20
53.4436912280702
 30
0.0
 11
140.6680125
 21
59.769
 31
0.0
  0
LINE
  5
12E
330
1E
100
AcDbEntity
  8
0
100
AcDbLine
 10
112.1000125
 20
0.249999999999993
 30
0.0
 11
118.0000125
 21
0.249999999999993
 31
0.0
  0
LINE
  5
133
330
1E
100
AcDbEntity
  8
0
100
AcDbLine
 10
113.0000125
 20
341.7499999999999
 30
0.0
 11
123.0000124999999
 21
341.7499999999999
 31
0.0
  0
ENDSEC
  0
SECTION
  2
OBJECTS
  0
DICTIONARY
  5
C
330
0
100
AcDbDictionary
  3
ACAD_GROUP
350
D
  3
ACAD_LAYOUT
350
19
  3
ACAD_MLINESTYLE
350
16
  3
ACAD_PLOTSETTINGS
350
18
  3
ACAD_PLOTSTYLENAME
350
E
  3
ACDBHEADERROUNDTRIPXREC
350
187
  3
ACDBVARIABLEDICTIONARY
350
134
  0
DICTIONARY
  5
17E
330
1E
100
AcDbDictionary
280
     1
  3
ACAD_LAYOUTSELFREF
360
1A8
  0
DICTIONARY
  5
17C
330
1A
100
AcDbDictionary
280
     1
  3
ACAD_LAYOUTSELFREF
360
1A7
  0
DICTIONARY
  5
D
102
{ACAD_REACTORS
330
C
102
}
330
C
100
AcDbDictionary
  0
DICTIONARY
  5
19
102
{ACAD_REACTORS
330
C
102
}
330
C
100
AcDbDictionary
  0
DICTIONARY
  5
16
102
{ACAD_REACTORS
330
C
102
}
330
C
100
AcDbDictionary
  3
STANDARD
350
17
  0
DICTIONARY
  5
18
102
{ACAD_REACTORS
330
C
102
}
330
C
100
AcDbDictionary
  0
ACDBDICTIONARYWDFLT
  5
E
102
{ACAD_REACTORS
330
C
102
}
330
C
100
AcDbDictionary
281
     1
  3
Normal
350
F
100
AcDbDictionaryWithDefault
340
F
  0
DICTIONARY
  5
187
102
{ACAD_REACTORS
330
C
102
}
330
C
100
AcDbDictionary
  3
CEPSNTYPE
350
191
  3
FINGERPRINTGUID
350
192
  3
HYPERLINKBASE
350
18A
  3
INSUNITS
350
190
  3
LAYOUTDICT
350
18C
  3
LWETCUNION
350
18F
  3
PLOTSETDICT
350
18D
  3
PLOTSTYLNAMDICT
350
18E
  3
PSVPSCALE
350
194
  3
PUCSBASE
350
197
  3
PUCSORGBACK
350
19D
  3
PUCSORGBOTTOM
350
199
  3
PUCSORGFRONT
350
19C
  3
PUCSORGLEFT
350
19A
  3
PUCSORGRIGHT
350
19B
  3
PUCSORGTOP
350
198
  3
PUCSORTHOREF
350
195
  3
PUCSORTHOVIEW
350
196
  3
STYLESHEET
350
18B
  3
TSTACKALIGN
350
188
  3
TSTACKSIZE
350
189
  3
UCSBASE
350
1A0
  3
UCSORGBACK
350
1A6
  3
UCSORGBOTTOM
350
1A2
  3
UCSORGFRONT
350
1A5
  3
UCSORGLEFT
350
1A3
  3
UCSORGRIGHT
350
1A4
  3
UCSORGTOP
350
1A1
  3
UCSORTHOREF
350
19E
  3
UCSORTHOVIEW
350
19F
  3
VERSIONGUID
350
193
  0
DICTIONARY
  5
134
102
{ACAD_REACTORS
330
C
102
}
330
C
100
AcDbDictionary
  3
DIMASSOC
350
135
  0
XRECORD
  5
1A8
102
{ACAD_REACTORS
330
17E
102
}
330
17E
100
AcDbXrecord
340
1E
  0
XRECORD
  5
1A7
102
{ACAD_REACTORS
330
17C
102
}
330
17C
100
AcDbXrecord
340
1A
  0
MLINESTYLE
  5
17
102
{ACAD_REACTORS
330
16
102
}
330
16
100
AcDbMlineStyle
  2
STANDARD
 70
     0
  3

 62
   256
 51
90.0
 52
90.0
 71
     2
 49
0.5
 62
   256
  6
BYLAYER
 49
-0.5
 62
   256
  6
BYLAYER
  0
ACDBPLACEHOLDER
  5
F
102
{ACAD_REACTORS
330
E
102
}
330
E
100
AcDbPlaceHolder
280
     0
  0
XRECORD
  5
191
102
{ACAD_REACTORS
330
187
102
}
330
187
100
AcDbXrecord
 90
        0
  0
XRECORD
  5
192
102
{ACAD_REACTORS
330
187
102
}
330
187
100
AcDbXrecord
  1
{A1C26F79-20F1-4909-BEAD-9A7D2E05DBD3}
  0
XRECORD
  5
18A
102
{ACAD_REACTORS
330
187
102
}
330
187
100
AcDbXrecord
  1

  0
XRECORD
  5
190
102
{ACAD_REACTORS
330
187
102
}
330
187
100
AcDbXrecord
 90
        0
  0
XRECORD
  5
18C
102
{ACAD_REACTORS
330
187
102
}
330
187
100
AcDbXrecord
340
19
  0
XRECORD
  5
18F
102
{ACAD_REACTORS
330
187
102
}
330
187
100
AcDbXrecord
 90
    10781
  0
XRECORD
  5
18D
102
{ACAD_REACTORS
330
187
102
}
330
187
100
AcDbXrecord
340
18
  0
XRECORD
  5
18E
102
{ACAD_REACTORS
330
187
102
}
330
187
100
AcDbXrecord
340
E
  0
XRECORD
  5
194
102
{ACAD_REACTORS
330
187
102
}
330
187
100
AcDbXrecord
 40
0.0
  0
XRECORD
  5
197
102
{ACAD_REACTORS
330
187
102
}
330
187
100
AcDbXrecord
340
0
  0
XRECORD
  5
19D
102
{ACAD_REACTORS
330
187
102
}
330
187
100
AcDbXrecord
 10
0.0
 20
0.0
 30
0.0
  0
XRECORD
  5
199
102
{ACAD_REACTORS
330
187
102
}
330
187
100
AcDbXrecord
 10
0.0
 20
0.0
 30
0.0
  0
XRECORD
  5
19C
102
{ACAD_REACTORS
330
187
102
}
330
187
100
AcDbXrecord
 10
0.0
 20
0.0
 30
0.0
  0
XRECORD
  5
19A
102
{ACAD_REACTORS
330
187
102
}
330
187
100
AcDbXrecord
 10
0.0
 20
0.0
 30
0.0
  0
XRECORD
  5
19B
102
{ACAD_REACTORS
330
187
102
}
330
187
100
AcDbXrecord
 10
0.0
 20
0.0
 30
0.0
  0
XRECORD
  5
198
102
{ACAD_REACTORS
330
187
102
}
330
187
100
AcDbXrecord
 10
0.0
 20
0.0
 30
0.0
  0
XRECORD
  5
195
102
{ACAD_REACTORS
330
187
102
}
330
187
100
AcDbXrecord
340
0
  0
XRECORD
  5
196
102
{ACAD_REACTORS
330
187
102
}
330
187
100
AcDbXrecord
 70
     0
  0
XRECORD
  5
18B
102
{ACAD_REACTORS
330
187
102
}
330
187
100
AcDbXrecord
  1

  0
XRECORD
  5
188
102
{ACAD_REACTORS
330
187
102
}
330
187
100
AcDbXrecord
 90
        1
  0
XRECORD
  5
189
102
{ACAD_REACTORS
330
187
102
}
330
187
100
AcDbXrecord
 90
       70
  0
XRECORD
  5
1A0
102
{ACAD_REACTORS
330
187
102
}
330
187
100
AcDbXrecord
340
0
  0
XRECORD
  5
1A6
102
{ACAD_REACTORS
330
187
102
}
330
187
100
AcDbXrecord
 10
0.0
 20
0.0
 30
0.0
  0
XRECORD
  5
1A2
102
{ACAD_REACTORS
330
187
102
}
330
187
100
AcDbXrecord
 10
0.0
 20
0.0
 30
0.0
  0
XRECORD
  5
1A5
102
{ACAD_REACTORS
330
187
102
}
330
187
100
AcDbXrecord
 10
0.0
 20
0.0
 30
0.0
  0
XRECORD
  5
1A3
102
{ACAD_REACTORS
330
187
102
}
330
187
100
AcDbXrecord
 10
0.0
 20
0.0
 30
0.0
  0
XRECORD
  5
1A4
102
{ACAD_REACTORS
330
187
102
}
330
187
100
AcDbXrecord
 10
0.0
 20
0.0
 30
0.0
  0
XRECORD
  5
1A1
102
{ACAD_REACTORS
330
187
102
}
330
187
100
AcDbXrecord
 10
0.0
 20
0.0
 30
0.0
  0
XRECORD
  5
19E
102
{ACAD_REACTORS
330
187
102
}
330
187
100
AcDbXrecord
340
0
  0
XRECORD
  5
19F
102
{ACAD_REACTORS
330
187
102
}
330
187
100
AcDbXrecord
 70
     1
  0
XRECORD
  5
193
102
{ACAD_REACTORS
330
187
102
}
330
187
100
AcDbXrecord
  1
{17F63F2A-ECC2-4D6A-B774-4DB7009C4D23}
  0
DICTIONARYVAR
  5
135
102
{ACAD_REACTORS
330
134
102
}
330
134
100
DictionaryVariables
280
     0
  1
1
  0
ENDSEC
  0
EOF
