  0
SECTION
  2
HEADER
  9
$ACADVER
  1
AC1014
  9
$ACADMAINTVER
 70
     9
  9
$DWGCODEPAGE
  3
ANSI_1252
  9
$INSBASE
 10
0.0
 20
0.0
 30
0.0
  9
$EXTMIN
 10
0.0000000000000006
 20
0.249999999999991
 30
0.0
  9
$EXTMAX
 10
46.0
 20
255.75
 30
0.0
  9
$LIMMIN
 10
0.0
 20
0.0
  9
$LIMMAX
 10
12.0
 20
9.0
  9
$ORTHOMODE
 70
     0
  9
$REGENMODE
 70
     1
  9
$FILLMODE
 70
     1
  9
$QTEXTMODE
 70
     0
  9
$MIRRTEXT
 70
     1
  9
$DRAGMODE
 70
     2
  9
$LTSCALE
 40
1.0
  9
$OSMODE
 70
    37
  9
$ATTMODE
 70
     1
  9
$TEXTSIZE
 40
0.2
  9
$TRACEWID
 40
0.05
  9
$TEXTSTYLE
  7
STANDARD
  9
$CLAYER
  8
0
  9
$CELTYPE
  6
CONTINUOUS
  9
$CECOLOR
 62
   256
  9
$CELTSCALE
 40
1.0
  9
$DELOBJ
 70
     1
  9
$DISPSILH
 70
     0
  9
$DIMSCALE
 40
1.0
  9
$DIMASZ
 40
0.18
  9
$DIMEXO
 40
0.0625
  9
$DIMDLI
 40
0.38
  9
$DIMRND
 40
0.0
  9
$DIMDLE
 40
0.0
  9
$DIMEXE
 40
0.18
  9
$DIMTP
 40
0.0
  9
$DIMTM
 40
0.0
  9
$DIMTXT
 40
0.18
  9
$DIMCEN
 40
0.09
  9
$DIMTSZ
 40
0.0
  9
$DIMTOL
 70
     0
  9
$DIMLIM
 70
     0
  9
$DIMTIH
 70
     1
  9
$DIMTOH
 70
     1
  9
$DIMSE1
 70
     0
  9
$DIMSE2
 70
     0
  9
$DIMTAD
 70
     0
  9
$DIMZIN
 70
     0
  9
$DIMBLK
  1

  9
$DIMASO
 70
     1
  9
$DIMSHO
 70
     1
  9
$DIMPOST
  1

  9
$DIMAPOST
  1

  9
$DIMALT
 70
     0
  9
$DIMALTD
 70
     2
  9
$DIMALTF
 40
25.4
  9
$DIMLFAC
 40
1.0
  9
$DIMTOFL
 70
     0
  9
$DIMTVP
 40
0.0
  9
$DIMTIX
 70
     0
  9
$DIMSOXD
 70
     0
  9
$DIMSAH
 70
     0
  9
$DIMBLK1
  1

  9
$DIMBLK2
  1

  9
$DIMSTYLE
  2
STANDARD
  9
$DIMCLRD
 70
     0
  9
$DIMCLRE
 70
     0
  9
$DIMCLRT
 70
     0
  9
$DIMTFAC
 40
1.0
  9
$DIMGAP
 40
0.09
  9
$DIMJUST
 70
     0
  9
$DIMSD1
 70
     0
  9
$DIMSD2
 70
     0
  9
$DIMTOLJ
 70
     1
  9
$DIMTZIN
 70
     0
  9
$DIMALTZ
 70
     0
  9
$DIMALTTZ
 70
     0
  9
$DIMFIT
 70
     3
  9
$DIMUPT
 70
     0
  9
$DIMUNIT
 70
     2
  9
$DIMDEC
 70
     4
  9
$DIMTDEC
 70
     4
  9
$DIMALTU
 70
     2
  9
$DIMALTTD
 70
     2
  9
$DIMTXSTY
  7
STANDARD
  9
$DIMAUNIT
 70
     0
  9
$LUNITS
 70
     2
  9
$LUPREC
 70
     4
  9
$SKETCHINC
 40
0.1
  9
$FILLETRAD
 40
0.0
  9
$AUNITS
 70
     0
  9
$AUPREC
 70
     0
  9
$MENU
  1
.
  9
$ELEVATION
 40
0.0
  9
$PELEVATION
 40
0.0
  9
$THICKNESS
 40
0.0
  9
$LIMCHECK
 70
     0
  9
$BLIPMODE
 70
     0
  9
$CHAMFERA
 40
0.0
  9
$CHAMFERB
 40
0.0
  9
$CHAMFERC
 40
0.0
  9
$CHAMFERD
 40
0.0
  9
$SKPOLY
 70
     0
  9
$TDCREATE
 40
2454690.768267858
  9
$TDUPDATE
 40
2454690.770426423
  9
$TDINDWG
 40
0.0021585648
  9
$TDUSRTIMER
 40
0.0021585648
  9
$USRTIMER
 70
     1
  9
$ANGBASE
 50
0.0
  9
$ANGDIR
 70
     0
  9
$PDMODE
 70
     0
  9
$PDSIZE
 40
0.0
  9
$PLINEWID
 40
0.0
  9
$COORDS
 70
     1
  9
$SPLFRAME
 70
     0
  9
$SPLINETYPE
 70
     6
  9
$SPLINESEGS
 70
     8
  9
$ATTDIA
 70
     0
  9
$ATTREQ
 70
     1
  9
$HANDLING
 70
 22529
  9
$HANDSEED
  5
1A2
  9
$SURFTAB1
 70
     6
  9
$SURFTAB2
 70
     6
  9
$SURFTYPE
 70
     6
  9
$SURFU
 70
     6
  9
$SURFV
 70
     6
  9
$UCSNAME
  2

  9
$UCSORG
 10
0.0
 20
0.0
 30
0.0
  9
$UCSXDIR
 10
1.0
 20
0.0
 30
0.0
  9
$UCSYDIR
 10
0.0
 20
1.0
 30
0.0
  9
$PUCSNAME
  2

  9
$PUCSORG
 10
0.0
 20
0.0
 30
0.0
  9
$PUCSXDIR
 10
1.0
 20
0.0
 30
0.0
  9
$PUCSYDIR
 10
0.0
 20
1.0
 30
0.0
  9
$USERI1
 70
     0
  9
$USERI2
 70
     0
  9
$USERI3
 70
     0
  9
$USERI4
 70
     0
  9
$USERI5
 70
     0
  9
$USERR1
 40
0.0
  9
$USERR2
 40
0.0
  9
$USERR3
 40
0.0
  9
$USERR4
 40
0.0
  9
$USERR5
 40
0.0
  9
$WORLDVIEW
 70
     1
  9
$SHADEDGE
 70
     3
  9
$SHADEDIF
 70
    70
  9
$TILEMODE
 70
     1
  9
$MAXACTVP
 70
    64
  9
$PINSBASE
 10
0.0
 20
0.0
 30
0.0
  9
$PLIMCHECK
 70
     0
  9
$PEXTMIN
 10
1.000000000000000E+20
 20
1.000000000000000E+20
 30
1.000000000000000E+20
  9
$PEXTMAX
 10
-1.000000000000000E+20
 20
-1.000000000000000E+20
 30
-1.000000000000000E+20
  9
$PLIMMIN
 10
0.0
 20
0.0
  9
$PLIMMAX
 10
12.0
 20
9.0
  9
$UNITMODE
 70
     0
  9
$VISRETAIN
 70
     1
  9
$PLINEGEN
 70
     0
  9
$PSLTSCALE
 70
     1
  9
$TREEDEPTH
 70
  3020
  9
$PICKSTYLE
 70
     1
  9
$CMLSTYLE
  2
STANDARD
  9
$CMLJUST
 70
     0
  9
$CMLSCALE
 40
1.0
  9
$PROXYGRAPHICS
 70
     1
  9
$MEASUREMENT
 70
     0
  0
ENDSEC
  0
SECTION
  2
CLASSES
  0
CLASS
  1
ACDBDICTIONARYWDFLT
  2
AcDbDictionaryWithDefault
  3
AutoCAD 2000
 90
        0
280
     0
281
     0
  0
CLASS
  1
ACDBPLACEHOLDER
  2
AcDbPlaceHolder
  3
AutoCAD 2000
 90
        0
280
     0
281
     0
  0
CLASS
  1
LAYOUT
  2
AcDbLayout
  3
AutoCAD 2000
 90
        0
280
     0
281
     0
  0
CLASS
  1
DICTIONARYVAR
  2
AcDbDictionaryVar
  3
AutoCAD 2000
 90
        0
280
     0
281
     0
  0
CLASS
  1
LONG_TRANSACTION
  2
AcDbLongTransaction
  3
AutoCAD 2000
 90
        0
280
     0
281
     0
  0
CLASS
  1
LWPOLYLINE
  2
AcDbPolyline
  3
AutoCAD 2000
 90
        0
280
     0
281
     1
  0
CLASS
  1
HATCH
  2
AcDbHatch
  3
AutoCAD 2000
 90
        0
280
     0
281
     1
  0
CLASS
  1
XRECORD
  2
AcDbXrecord
  3
AutoCAD 2000
 90
        0
280
     0
281
     0
  0
ENDSEC
  0
SECTION
  2
TABLES
  0
TABLE
  2
VPORT
  5
8
330
0
100
AcDbSymbolTable
 70
     4
  0
VPORT
  5
17D
330
8
100
AcDbSymbolTableRecord
100
AcDbViewportTableRecord
  2
*ACTIVE
 70
     0
 10
0.0
 20
0.0
 11
1.0
 21
1.0
 12
23.0
 22
127.9999999999999
 13
0.0
 23
0.0
 14
1.0
 24
1.0
 15
0.0
 25
0.0
 16
0.0
 26
0.0
 36
1.0
 17
0.0
 27
0.0
 37
0.0
 40
257.4603580562659
 41
2.043533930857874
 42
50.0
 43
0.0
 44
0.0
 50
0.0
 51
0.0
 71
     0
 72
   100
 73
     1
 74
     3
 75
     0
 76
     0
 77
     0
 78
     0
  0
ENDTAB
  0
TABLE
  2
LTYPE
  5
5
330
0
100
AcDbSymbolTable
 70
     1
  0
LTYPE
  5
13
330
5
100
AcDbSymbolTableRecord
100
AcDbLinetypeTableRecord
  2
BYBLOCK
 70
     0
  3

 72
    65
 73
     0
 40
0.0
  0
LTYPE
  5
14
330
5
100
AcDbSymbolTableRecord
100
AcDbLinetypeTableRecord
  2
BYLAYER
 70
     0
  3

 72
    65
 73
     0
 40
0.0
  0
LTYPE
  5
15
330
5
100
AcDbSymbolTableRecord
100
AcDbLinetypeTableRecord
  2
CONTINUOUS
 70
     0
  3
Solid line
 72
    65
 73
     0
 40
0.0
  0
ENDTAB
  0
TABLE
  2
LAYER
  5
2
330
0
100
AcDbSymbolTable
 70
     1
  0
LAYER
  5
10
330
2
100
AcDbSymbolTableRecord
100
AcDbLayerTableRecord
  2
0
 70
     0
 62
     7
  6
CONTINUOUS
  0
ENDTAB
  0
TABLE
  2
STYLE
  5
3
330
0
100
AcDbSymbolTable
 70
     1
  0
STYLE
  5
11
330
3
100
AcDbSymbolTableRecord
100
AcDbTextStyleTableRecord
  2
STANDARD
 70
     0
 40
0.0
 41
1.0
 50
0.0
 71
     0
 42
0.2
  3
txt
  4

  0
ENDTAB
  0
TABLE
  2
VIEW
  5
6
330
0
100
AcDbSymbolTable
 70
     0
  0
ENDTAB
  0
TABLE
  2
UCS
  5
7
330
0
100
AcDbSymbolTable
 70
     0
  0
ENDTAB
  0
TABLE
  2
APPID
  5
9
330
0
100
AcDbSymbolTable
 70
     1
  0
APPID
  5
12
330
9
100
AcDbSymbolTableRecord
100
AcDbRegAppTableRecord
  2
ACAD
 70
     0
  0
ENDTAB
  0
TABLE
  2
DIMSTYLE
  5
A
330
0
100
AcDbSymbolTable
 70
     1
  0
DIMSTYLE
105
12B
330
A
100
AcDbSymbolTableRecord
100
AcDbDimStyleTableRecord
  2
STANDARD
 70
     0
  3

  4

  5

  6

  7

 40
1.0
 41
0.18
 42
0.0625
 43
0.38
 44
0.18
 45
0.0
 46
0.0
 47
0.0
 48
0.0
140
0.18
141
0.09
142
0.0
143
25.4
144
1.0
145
0.0
146
1.0
147
0.09
 71
     0
 72
     0
 73
     1
 74
     1
 75
     0
 76
     0
 77
     0
 78
     0
170
     0
171
     2
172
     0
173
     0
174
     0
175
     0
176
     0
177
     0
178
     0
270
     2
271
     4
272
     4
273
     2
274
     2
340
11
275
     0
280
     0
281
     0
282
     0
283
     1
284
     0
285
     0
286
     0
287
     3
288
     0
  0
ENDTAB
  0
TABLE
  2
BLOCK_RECORD
  5
1
330
0
100
AcDbSymbolTable
 70
     0
  0
BLOCK_RECORD
  5
1E
102
{ACAD_XDICTIONARY
360
1A0
102
}
330
1
100
AcDbSymbolTableRecord
100
AcDbBlockTableRecord
  2
*MODEL_SPACE
  0
BLOCK_RECORD
  5
1A
102
{ACAD_XDICTIONARY
360
19E
102
}
330
1
100
AcDbSymbolTableRecord
100
AcDbBlockTableRecord
  2
*PAPER_SPACE
  0
ENDTAB
  0
ENDSEC
  0
SECTION
  2
BLOCKS
  0
BLOCK
  5
1F
330
1E
100
AcDbEntity
  8
0
100
AcDbBlockBegin
  2
*MODEL_SPACE
 70
     0
 10
0.0
 20
0.0
 30
0.0
  3
*MODEL_SPACE
  1

  0
ENDBLK
  5
20
330
1E
100
AcDbEntity
  8
0
100
AcDbBlockEnd
  0
BLOCK
  5
1B
330
1A
100
AcDbEntity
 67
     1
  8
0
100
AcDbBlockBegin
  2
*PAPER_SPACE
 70
     0
 10
0.0
 20
0.0
 30
0.0
  3
*PAPER_SPACE
  1

  0
ENDBLK
  5
1C
330
1A
100
AcDbEntity
 67
     1
  8
0
100
AcDbBlockEnd
  0
ENDSEC
  0
SECTION
  2
ENTITIES
  0
LINE
  5
22
330
1E
100
AcDbEntity
  8
0
100
AcDbLine
 10
0.0000000000000006
 20
4.24999999999999
 30
0.0
 11
0.0000000000000006
 21
0.249999999999993
 31
0.0
  0
LINE
  5
23
330
1E
100
AcDbEntity
  8
0
100
AcDbLine
 10
0.0000000000000006
 20
4.24999999999999
 30
0.0
 11
0.800000000000001
 21
4.24999999999999
 31
0.0
  0
LINE
  5
24
330
1E
100
AcDbEntity
  8
0
100
AcDbLine
 10
0.0000000000000006
 20
4.24999999999999
 30
0.0
 11
2.5
 21
4.74999999999999
 31
0.0
  0
LINE
  5
25
330
1E
100
AcDbEntity
  8
0
100
AcDbLine
 10
0.8
 20
0.249999999999992
 30
0.0
 11
3.1
 21
0.249999999999992
 31
0.0
  0
LINE
  5
26
330
1E
100
AcDbEntity
  8
0
100
AcDbLine
 10
0.800000000000001
 20
0.249999999999992
 30
0.0
 11
3.1
 21
0.249999999999992
 31
0.0
  0
LINE
  5
27
330
1E
100
AcDbEntity
  8
0
100
AcDbLine
 10
23.0
 20
0.249999999999991
 30
0.0
 11
28.9
 21
0.249999999999991
 31
0.0
  0
LINE
  5
28
330
1E
100
AcDbEntity
  8
0
100
AcDbLine
 10
28.9
 20
0.249999999999991
 30
0.0
 11
34.39999999999999
 21
0.249999999999992
 31
0.0
  0
LINE
  5
29
330
1E
100
AcDbEntity
  8
0
100
AcDbLine
 10
34.39999999999999
 20
0.249999999999992
 30
0.0
 11
39.2
 21
0.249999999999992
 31
0.0
  0
LINE
  5
2A
330
1E
100
AcDbEntity
  8
0
100
AcDbLine
 10
17.1
 20
0.249999999999991
 30
0.0
 11
23.0
 21
0.249999999999991
 31
0.0
  0
LINE
  5
2B
330
1E
100
AcDbEntity
  8
0
100
AcDbLine
 10
39.2
 20
0.249999999999992
 30
0.0
 11
42.9
 21
0.249999999999992
 31
0.0
  0
LINE
  5
2C
330
1E
100
AcDbEntity
  8
0
100
AcDbLine
 10
42.9
 20
0.249999999999992
 30
0.0
 11
45.2
 21
0.249999999999992
 31
0.0
  0
LINE
  5
2D
330
1E
100
AcDbEntity
  8
0
100
AcDbLine
 10
11.59999999999999
 20
0.249999999999992
 30
0.0
 11
17.1
 21
0.249999999999991
 31
0.0
  0
LINE
  5
2E
330
1E
100
AcDbEntity
  8
0
100
AcDbLine
 10
6.799999999999999
 20
0.249999999999992
 30
0.0
 11
11.59999999999999
 21
0.249999999999992
 31
0.0
  0
LINE
  5
2F
330
1E
100
AcDbEntity
  8
0
100
AcDbLine
 10
45.2
 20
0.249999999999993
 30
0.0
 11
46.0
 21
0.249999999999993
 31
0.0
  0
LINE
  5
30
330
1E
100
AcDbEntity
  8
0
100
AcDbLine
 10
46.0
 20
0.249999999999993
 30
0.0
 11
46.0
 21
4.24999999999999
 31
0.0
  0
LINE
  5
31
330
1E
100
AcDbEntity
  8
0
100
AcDbLine
 10
45.2
 20
0.249999999999992
 30
0.0
 11
46.0
 21
0.249999999999993
 31
0.0
  0
LINE
  5
32
330
1E
100
AcDbEntity
  8
0
100
AcDbLine
 10
3.1
 20
0.249999999999992
 30
0.0
 11
6.799999999999999
 21
0.249999999999992
 31
0.0
  0
LINE
  5
33
330
1E
100
AcDbEntity
  8
0
100
AcDbLine
 10
0.800000000000001
 20
0.249999999999993
 30
0.0
 11
3.1
 21
0.249999999999993
 31
0.0
  0
LINE
  5
34
330
1E
100
AcDbEntity
  8
0
100
AcDbLine
 10
0.800000000000001
 20
4.24999999999999
 30
0.0
 11
3.1
 21
4.24999999999999
 31
0.0
  0
LINE
  5
35
330
1E
100
AcDbEntity
  8
0
100
AcDbLine
 10
2.5
 20
4.74999999999999
 30
0.0
 11
4.0
 21
5.74999999999999
 31
0.0
  0
LINE
  5
36
330
1E
100
AcDbEntity
  8
0
100
AcDbLine
 10
3.1
 20
4.24999999999999
 30
0.0
 11
6.799999999999999
 21
4.24999999999999
 31
0.0
  0
LINE
  5
37
330
1E
100
AcDbEntity
  8
0
100
AcDbLine
 10
0.8
 20
4.24999999999999
 30
0.0
 11
3.1
 21
4.24999999999999
 31
0.0
  0
LINE
  5
38
330
1E
100
AcDbEntity
  8
0
100
AcDbLine
 10
39.2
 20
0.249999999999994
 30
0.0
 11
42.9
 21
0.249999999999993
 31
0.0
  0
LINE
  5
39
330
1E
100
AcDbEntity
  8
0
100
AcDbLine
 10
42.9
 20
0.249999999999993
 30
0.0
 11
45.2
 21
0.249999999999993
 31
0.0
  0
LINE
  5
3A
330
1E
100
AcDbEntity
  8
0
100
AcDbLine
 10
11.59999999999999
 20
4.24999999999999
 30
0.0
 11
17.1
 21
4.24999999999999
 31
0.0
  0
LINE
  5
3B
330
1E
100
AcDbEntity
  8
0
100
AcDbLine
 10
4.0
 20
168.25
 30
0.0
 11
4.5
 21
168.75
 31
0.0
  0
LINE
  5
3C
330
1E
100
AcDbEntity
  8
0
100
AcDbLine
 10
4.0
 20
168.25
 30
0.0
 11
4.0
 21
5.75
 31
0.0
  0
LINE
  5
3D
330
1E
100
AcDbEntity
  8
0
100
AcDbLine
 10
4.0
 20
168.25
 30
0.0
 11
4.7
 21
168.25
 31
0.0
  0
LINE
  5
3E
330
1E
100
AcDbEntity
  8
0
100
AcDbLine
 10
4.0
 20
184.75
 30
0.0
 11
4.0
 21
169.25
 31
0.0
  0
LINE
  5
3F
330
1E
100
AcDbEntity
  8
0
100
AcDbLine
 10
4.0
 20
184.75
 30
0.0
 11
4.7
 21
184.75
 31
0.0
  0
LINE
  5
40
330
1E
100
AcDbEntity
  8
0
100
AcDbLine
 10
4.0
 20
184.75
 30
0.0
 11
4.5
 21
185.25
 31
0.0
  0
LINE
  5
41
330
1E
100
AcDbEntity
  8
0
100
AcDbLine
 10
4.0
 20
169.25
 30
0.0
 11
4.7
 21
169.25
 31
0.0
  0
LINE
  5
42
330
1E
100
AcDbEntity
  8
0
100
AcDbLine
 10
4.0
 20
169.25
 30
0.0
 11
4.5
 21
168.75
 31
0.0
  0
LINE
  5
43
330
1E
100
AcDbEntity
  8
0
100
AcDbLine
 10
4.0
 20
169.25
 30
0.0
 11
4.0
 21
184.75
 31
0.0
  0
LINE
  5
44
330
1E
100
AcDbEntity
  8
0
100
AcDbLine
 10
4.7
 20
168.25
 30
0.0
 11
6.5
 21
168.25
 31
0.0
  0
LINE
  5
45
330
1E
100
AcDbEntity
  8
0
100
AcDbLine
 10
6.5
 20
168.25
 30
0.0
 11
9.599999999999999
 21
168.25
 31
0.0
  0
LINE
  5
46
330
1E
100
AcDbEntity
  8
0
100
AcDbLine
 10
5.2
 20
168.75
 30
0.0
 11
7.0
 21
168.75
 31
0.0
  0
LINE
  5
47
330
1E
100
AcDbEntity
  8
0
100
AcDbLine
 10
4.5
 20
185.25
 30
0.0
 11
5.2
 21
185.25
 31
0.0
  0
LINE
  5
48
330
1E
100
AcDbEntity
  8
0
100
AcDbLine
 10
4.7
 20
184.75
 30
0.0
 11
6.5
 21
184.75
 31
0.0
  0
LINE
  5
49
330
1E
100
AcDbEntity
  8
0
100
AcDbLine
 10
5.2
 20
185.25
 30
0.0
 11
7.0
 21
185.25
 31
0.0
  0
LINE
  5
4A
330
1E
100
AcDbEntity
  8
0
100
AcDbLine
 10
6.5
 20
184.75
 30
0.0
 11
9.599999999999999
 21
184.75
 31
0.0
  0
LINE
  5
4B
330
1E
100
AcDbEntity
  8
0
100
AcDbLine
 10
6.5
 20
169.25
 30
0.0
 11
9.599999999999999
 21
169.25
 31
0.0
  0
LINE
  5
4C
330
1E
100
AcDbEntity
  8
0
100
AcDbLine
 10
4.7
 20
169.25
 30
0.0
 11
6.5
 21
169.25
 31
0.0
  0
LINE
  5
4D
330
1E
100
AcDbEntity
  8
0
100
AcDbLine
 10
4.5
 20
168.75
 30
0.0
 11
5.2
 21
168.75
 31
0.0
  0
LINE
  5
4E
330
1E
100
AcDbEntity
  8
0
100
AcDbLine
 10
7.0
 20
185.25
 30
0.0
 11
9.9
 21
185.25
 31
0.0
  0
LINE
  5
4F
330
1E
100
AcDbEntity
  8
0
100
AcDbLine
 10
8.84116
 20
145.221
 30
0.0
 11
9.0
 21
95.23139999999999
 31
0.0
  0
LINE
  5
50
330
1E
100
AcDbEntity
  8
0
100
AcDbLine
 10
9.0
 20
95.23139999999999
 30
0.0
 11
9.5
 21
98.3491
 31
0.0
  0
LINE
  5
51
330
1E
100
AcDbEntity
  8
0
100
AcDbLine
 10
9.0
 20
95.23139999999999
 30
0.0
 11
9.040093658786929
 21
94.98139999999999
 31
0.0
  0
LINE
  5
52
330
1E
100
AcDbEntity
  8
0
100
AcDbLine
 10
9.0
 20
94.73139999999999
 30
0.0
 11
9.0
 21
89.73139999999999
 31
0.0
  0
LINE
  5
53
330
1E
100
AcDbEntity
  8
0
100
AcDbLine
 10
9.0
 20
94.73139999999999
 30
0.0
 11
9.5
 21
97.84910000000001
 31
0.0
  0
LINE
  5
54
330
1E
100
AcDbEntity
  8
0
100
AcDbLine
 10
9.5
 20
86.61369999999999
 30
0.0
 11
10.9
 21
83.6692
 31
0.0
  0
LINE
  5
55
330
1E
100
AcDbEntity
  8
0
100
AcDbLine
 10
9.5
 20
98.3491
 30
0.0
 11
10.9
 21
101.2939999999999
 31
0.0
  0
LINE
  5
56
330
1E
100
AcDbEntity
  8
0
100
AcDbLine
 10
9.5
 20
97.84910000000001
 30
0.0
 11
10.9
 21
100.794
 31
0.0
  0
LINE
  5
57
330
1E
100
AcDbEntity
  8
0
100
AcDbLine
 10
9.5
 20
92.84910000000001
 30
0.0
 11
10.9
 21
95.79359999999999
 31
0.0
  0
LINE
  5
58
330
1E
100
AcDbEntity
  8
0
100
AcDbLine
 10
9.0
 20
89.73139999999999
 30
0.0
 11
9.5
 21
92.84910000000001
 31
0.0
  0
LINE
  5
59
330
1E
100
AcDbEntity
  8
0
100
AcDbLine
 10
9.0
 20
89.73139999999999
 30
0.0
 11
9.5
 21
86.61369999999999
 31
0.0
  0
LINE
  5
5A
330
1E
100
AcDbEntity
  8
0
100
AcDbLine
 10
9.0
 20
89.73139999999999
 30
0.0
 11
9.0
 21
94.73139999999999
 31
0.0
  0
LINE
  5
5B
330
1E
100
AcDbEntity
  8
0
100
AcDbLine
 10
9.599999999999999
 20
168.25
 30
0.0
 11
13.5
 21
168.25
 31
0.0
  0
LINE
  5
5C
330
1E
100
AcDbEntity
  8
0
100
AcDbLine
 10
10.9
 20
83.6692
 30
0.0
 11
13.1
 21
81.15779999999999
 31
0.0
  0
LINE
  5
5D
330
1E
100
AcDbEntity
  8
0
100
AcDbLine
 10
10.5
 20
86.37350000000001
 30
0.0
 11
11.69999999999999
 21
83.60219999999999
 31
0.0
  0
LINE
  5
5E
330
1E
100
AcDbEntity
  8
0
100
AcDbLine
 10
11.4
 20
92.0467
 30
0.0
 11
12.6
 21
89.5353
 31
0.0
  0
LINE
  5
5F
330
1E
100
AcDbEntity
  8
0
100
AcDbLine
 10
11.16487797217659
 20
93.6247802702441
 30
0.0
 11
11.4
 21
92.0467
 31
0.0
  0
LINE
  5
60
330
1E
100
AcDbEntity
  8
0
100
AcDbLine
 10
10.9
 20
101.2939999999999
 30
0.0
 11
13.1
 21
103.805
 31
0.0
  0
LINE
  5
61
330
1E
100
AcDbEntity
  8
0
100
AcDbLine
 10
10.9
 20
100.794
 30
0.0
 11
13.1
 21
103.305
 31
0.0
  0
LINE
  5
62
330
1E
100
AcDbEntity
  8
0
100
AcDbLine
 10
10.9
 20
95.79359999999999
 30
0.0
 11
13.1
 21
98.3051
 31
0.0
  0
LINE
  5
63
330
1E
100
AcDbEntity
  8
0
100
AcDbLine
 10
10.5
 20
92.0893
 30
0.0
 11
11.69999999999999
 21
94.8606
 31
0.0
  0
LINE
  5
64
330
1E
100
AcDbEntity
  8
0
100
AcDbLine
 10
10.0
 20
89.2314
 30
0.0
 11
10.5
 21
92.0893
 31
0.0
  0
LINE
  5
65
330
1E
100
AcDbEntity
  8
0
100
AcDbLine
 10
10.0
 20
89.2314
 30
0.0
 11
10.5
 21
86.37350000000001
 31
0.0
  0
LINE
  5
66
330
1E
100
AcDbEntity
  8
0
100
AcDbLine
 10
9.9
 20
168.75
 30
0.0
 11
13.8
 21
168.75
 31
0.0
  0
LINE
  5
67
330
1E
100
AcDbEntity
  8
0
100
AcDbLine
 10
9.9
 20
185.25
 30
0.0
 11
13.8
 21
185.25
 31
0.0
  0
LINE
  5
68
330
1E
100
AcDbEntity
  8
0
100
AcDbLine
 10
9.599999999999999
 20
184.75
 30
0.0
 11
13.5
 21
184.75
 31
0.0
  0
LINE
  5
69
330
1E
100
AcDbEntity
  8
0
100
AcDbLine
 10
9.599999999999999
 20
169.25
 30
0.0
 11
13.5
 21
169.25
 31
0.0
  0
LINE
  5
6A
330
1E
100
AcDbEntity
  8
0
100
AcDbLine
 10
7.0
 20
168.75
 30
0.0
 11
9.9
 21
168.75
 31
0.0
  0
LINE
  5
6B
330
1E
100
AcDbEntity
  8
0
100
AcDbLine
 10
9.599999999999999
 20
5.74999999999999
 30
0.0
 11
13.5
 21
5.74999999999999
 31
0.0
  0
LINE
  5
6C
330
1E
100
AcDbEntity
  8
0
100
AcDbLine
 10
6.5
 20
5.74999999999999
 30
0.0
 11
9.599999999999999
 21
5.74999999999999
 31
0.0
  0
LINE
  5
6D
330
1E
100
AcDbEntity
  8
0
100
AcDbLine
 10
4.7
 20
5.74999999999999
 30
0.0
 11
6.5
 21
5.74999999999999
 31
0.0
  0
LINE
  5
6E
330
1E
100
AcDbEntity
  8
0
100
AcDbLine
 10
4.0
 20
5.74999999999999
 30
0.0
 11
4.7
 21
5.74999999999999
 31
0.0
  0
LINE
  5
6F
330
1E
100
AcDbEntity
  8
0
100
AcDbLine
 10
4.0
 20
5.74999999999999
 30
0.0
 11
4.0
 21
168.25
 31
0.0
  0
LINE
  5
70
330
1E
100
AcDbEntity
  8
0
100
AcDbLine
 10
6.799999999999999
 20
4.24999999999999
 30
0.0
 11
11.59999999999999
 21
4.24999999999999
 31
0.0
  0
LINE
  5
71
330
1E
100
AcDbEntity
  8
0
100
AcDbLine
 10
28.9
 20
0.249999999999994
 30
0.0
 11
34.39999999999999
 21
0.249999999999994
 31
0.0
  0
LINE
  5
72
330
1E
100
AcDbEntity
  8
0
100
AcDbLine
 10
34.39999999999999
 20
0.249999999999994
 30
0.0
 11
39.2
 21
0.249999999999994
 31
0.0
  0
LINE
  5
73
330
1E
100
AcDbEntity
  8
0
100
AcDbLine
 10
11.69999999999999
 20
83.60219999999999
 30
0.0
 11
13.8
 21
81.264
 31
0.0
  0
LINE
  5
74
330
1E
100
AcDbEntity
  8
0
100
AcDbLine
 10
13.1
 20
81.15779999999999
 30
0.0
 11
16.0
 21
79.2525
 31
0.0
  0
LINE
  5
75
330
1E
100
AcDbEntity
  8
0
100
AcDbLine
 10
12.6
 20
89.5353
 30
0.0
 11
14.5
 21
87.37019999999999
 31
0.0
  0
LINE
  5
76
330
1E
100
AcDbEntity
  8
0
100
AcDbLine
 10
13.1
 20
103.805
 30
0.0
 11
16.0
 21
105.7099999999999
 31
0.0
  0
LINE
  5
77
330
1E
100
AcDbEntity
  8
0
100
AcDbLine
 10
13.1
 20
103.305
 30
0.0
 11
16.0
 21
105.21
 31
0.0
  0
LINE
  5
78
330
1E
100
AcDbEntity
  8
0
100
AcDbLine
 10
13.1
 20
98.3051
 30
0.0
 11
16.0
 21
100.2102999999999
 31
0.0
  0
LINE
  5
79
330
1E
100
AcDbEntity
  8
0
100
AcDbLine
 10
11.69999999999999
 20
94.8606
 30
0.0
 11
13.8
 21
97.19889999999999
 31
0.0
  0
LINE
  5
7A
330
1E
100
AcDbEntity
  8
0
100
AcDbLine
 10
13.5
 20
168.25
 30
0.0
 11
18.1
 21
168.25
 31
0.0
  0
LINE
  5
7B
330
1E
100
AcDbEntity
  8
0
100
AcDbLine
 10
12.0
 20
185.25
 30
0.0
 11
15.0
 21
186.25
 31
0.0
  0
LINE
  5
7C
330
1E
100
AcDbEntity
  8
0
100
AcDbLine
 10
13.5
 20
184.75
 30
0.0
 11
18.1
 21
184.75
 31
0.0
  0
LINE
  5
7D
330
1E
100
AcDbEntity
  8
0
100
AcDbLine
 10
13.8
 20
81.264
 30
0.0
 11
16.5
 21
79.4453
 31
0.0
  0
LINE
  5
7E
330
1E
100
AcDbEntity
  8
0
100
AcDbLine
 10
16.0
 20
79.2525
 30
0.0
 11
19.39999999999999
 21
78.04009999999999
 31
0.0
  0
LINE
  5
7F
330
1E
100
AcDbEntity
  8
0
100
AcDbLine
 10
16.5
 20
79.4453
 30
0.0
 11
19.69999999999999
 21
78.40609999999999
 31
0.0
  0
LINE
  5
80
330
1E
100
AcDbEntity
  8
0
100
AcDbLine
 10
17.0
 20
85.7248
 30
0.0
 11
19.9
 21
84.6855
 31
0.0
  0
LINE
  5
81
330
1E
100
AcDbEntity
  8
0
100
AcDbLine
 10
14.5
 20
87.37019999999999
 30
0.0
 11
17.0
 21
85.7248
 31
0.0
  0
LINE
  5
82
330
1E
100
AcDbEntity
  8
0
100
AcDbLine
 10
16.0
 20
105.7099999999999
 30
0.0
 11
19.39999999999999
 21
106.9229999999999
 31
0.0
  0
LINE
  5
83
330
1E
100
AcDbEntity
  8
0
100
AcDbLine
 10
16.0
 20
105.21
 30
0.0
 11
19.39999999999999
 21
106.4229999999999
 31
0.0
  0
LINE
  5
84
330
1E
100
AcDbEntity
  8
0
100
AcDbLine
 10
16.0
 20
100.2102999999999
 30
0.0
 11
19.39999999999999
 21
101.4229999999999
 31
0.0
  0
LINE
  5
85
330
1E
100
AcDbEntity
  8
0
100
AcDbLine
 10
16.5
 20
99.01749999999999
 30
0.0
 11
19.69999999999999
 21
100.0566999999999
 31
0.0
  0
LINE
  5
86
330
1E
100
AcDbEntity
  8
0
100
AcDbLine
 10
13.8
 20
97.19889999999999
 30
0.0
 11
16.5
 21
99.01749999999999
 31
0.0
  0
LINE
  5
87
330
1E
100
AcDbEntity
  8
0
100
AcDbLine
 10
15.0
 20
186.25
 30
0.0
 11
18.0
 21
186.7499999999999
 31
0.0
  0
LINE
  5
88
330
1E
100
AcDbEntity
  8
0
100
AcDbLine
 10
13.8
 20
185.25
 30
0.0
 11
18.2
 21
185.25
 31
0.0
  0
LINE
  5
89
330
1E
100
AcDbEntity
  8
0
100
AcDbLine
 10
13.8
 20
168.75
 30
0.0
 11
18.2
 21
168.75
 31
0.0
  0
LINE
  5
8A
330
1E
100
AcDbEntity
  8
0
100
AcDbLine
 10
13.5
 20
169.25
 30
0.0
 11
18.1
 21
169.25
 31
0.0
  0
LINE
  5
8B
330
1E
100
AcDbEntity
  8
0
100
AcDbLine
 10
13.5
 20
5.74999999999999
 30
0.0
 11
18.1
 21
5.74999999999999
 31
0.0
  0
LINE
  5
8C
330
1E
100
AcDbEntity
  8
0
100
AcDbLine
 10
23.0
 20
4.24999999999999
 30
0.0
 11
28.9
 21
4.24999999999999
 31
0.0
  0
LINE
  5
8D
330
1E
100
AcDbEntity
  8
0
100
AcDbLine
 10
23.0
 20
0.249999999999994
 30
0.0
 11
28.9
 21
0.249999999999994
 31
0.0
  0
LINE
  5
8E
330
1E
100
AcDbEntity
  8
0
100
AcDbLine
 10
23.0
 20
5.74999999999999
 30
0.0
 11
27.9
 21
5.74999999999999
 31
0.0
  0
LINE
  5
8F
330
1E
100
AcDbEntity
  8
0
100
AcDbLine
 10
28.9
 20
4.24999999999999
 30
0.0
 11
34.39999999999999
 21
4.24999999999999
 31
0.0
  0
LINE
  5
90
330
1E
100
AcDbEntity
  8
0
100
AcDbLine
 10
34.39999999999999
 20
4.24999999999999
 30
0.0
 11
39.2
 21
4.24999999999999
 31
0.0
  0
LINE
  5
91
330
1E
100
AcDbEntity
  8
0
100
AcDbLine
 10
27.9
 20
5.74999999999999
 30
0.0
 11
32.5
 21
5.74999999999999
 31
0.0
  0
LINE
  5
92
330
1E
100
AcDbEntity
  8
0
100
AcDbLine
 10
32.5
 20
5.74999999999999
 30
0.0
 11
36.4
 21
5.74999999999999
 31
0.0
  0
LINE
  5
93
330
1E
100
AcDbEntity
  8
0
100
AcDbLine
 10
39.2
 20
4.24999999999999
 30
0.0
 11
42.9
 21
4.24999999999999
 31
0.0
  0
LINE
  5
94
330
1E
100
AcDbEntity
  8
0
100
AcDbLine
 10
45.2
 20
4.24999999999999
 30
0.0
 11
46.0
 21
4.24999999999999
 31
0.0
  0
LINE
  5
95
330
1E
100
AcDbEntity
  8
0
100
AcDbLine
 10
42.9
 20
4.24999999999999
 30
0.0
 11
45.2
 21
4.24999999999999
 31
0.0
  0
LINE
  5
96
330
1E
100
AcDbEntity
  8
0
100
AcDbLine
 10
43.5
 20
4.74999999999999
 30
0.0
 11
46.0
 21
4.24999999999999
 31
0.0
  0
LINE
  5
97
330
1E
100
AcDbEntity
  8
0
100
AcDbLine
 10
46.0
 20
4.24999999999999
 30
0.0
 11
46.0
 21
0.249999999999993
 31
0.0
  0
LINE
  5
98
330
1E
100
AcDbEntity
  8
0
100
AcDbLine
 10
41.29999999999999
 20
5.74999999999999
 30
0.0
 11
42.0
 21
5.74999999999999
 31
0.0
  0
LINE
  5
99
330
1E
100
AcDbEntity
  8
0
100
AcDbLine
 10
39.5
 20
5.74999999999999
 30
0.0
 11
41.29999999999999
 21
5.74999999999999
 31
0.0
  0
LINE
  5
9A
330
1E
100
AcDbEntity
  8
0
100
AcDbLine
 10
42.0
 20
5.74999999999999
 30
0.0
 11
42.0
 21
168.25
 31
0.0
  0
LINE
  5
9B
330
1E
100
AcDbEntity
  8
0
100
AcDbLine
 10
42.0
 20
5.74999999999999
 30
0.0
 11
43.5
 21
4.74999999999999
 31
0.0
  0
LINE
  5
9C
330
1E
100
AcDbEntity
  8
0
100
AcDbLine
 10
36.4
 20
5.74999999999999
 30
0.0
 11
39.5
 21
5.74999999999999
 31
0.0
  0
LINE
  5
9D
330
1E
100
AcDbEntity
  8
0
100
AcDbLine
 10
18.1
 20
168.25
 30
0.0
 11
23.0
 21
168.25
 31
0.0
  0
LINE
  5
9E
330
1E
100
AcDbEntity
  8
0
100
AcDbLine
 10
18.1
 20
184.75
 30
0.0
 11
23.0
 21
184.75
 31
0.0
  0
LINE
  5
9F
330
1E
100
AcDbEntity
  8
0
100
AcDbLine
 10
19.39999999999999
 20
78.04009999999999
 30
0.0
 11
23.0
 21
77.6071
 31
0.0
  0
LINE
  5
A0
330
1E
100
AcDbEntity
  8
0
100
AcDbLine
 10
19.69999999999999
 20
78.40609999999999
 30
0.0
 11
23.0
 21
77.9731
 31
0.0
  0
LINE
  5
A1
330
1E
100
AcDbEntity
  8
0
100
AcDbLine
 10
19.39999999999999
 20
106.9229999999999
 30
0.0
 11
23.0
 21
107.356
 31
0.0
  0
LINE
  5
A2
330
1E
100
AcDbEntity
  8
0
100
AcDbLine
 10
19.39999999999999
 20
106.4229999999999
 30
0.0
 11
23.0
 21
106.856
 31
0.0
  0
LINE
  5
A3
330
1E
100
AcDbEntity
  8
0
100
AcDbLine
 10
19.39999999999999
 20
101.4229999999999
 30
0.0
 11
23.0
 21
101.856
 31
0.0
  0
LINE
  5
A4
330
1E
100
AcDbEntity
  8
0
100
AcDbLine
 10
23.0
 20
77.6071
 30
0.0
 11
26.6
 21
78.04009999999999
 31
0.0
  0
LINE
  5
A5
330
1E
100
AcDbEntity
  8
0
100
AcDbLine
 10
23.0
 20
77.9731
 30
0.0
 11
26.3
 21
78.40609999999999
 31
0.0
  0
LINE
  5
A6
330
1E
100
AcDbEntity
  8
0
100
AcDbLine
 10
23.0
 20
84.3391
 30
0.0
 11
26.1
 21
84.6855
 31
0.0
  0
LINE
  5
A7
330
1E
100
AcDbEntity
  8
0
100
AcDbLine
 10
26.6
 20
78.04009999999999
 30
0.0
 11
30.0
 21
79.2525
 31
0.0
  0
LINE
  5
A8
330
1E
100
AcDbEntity
  8
0
100
AcDbLine
 10
30.0
 20
79.2525
 30
0.0
 11
32.9
 21
81.15779999999999
 31
0.0
  0
LINE
  5
A9
330
1E
100
AcDbEntity
  8
0
100
AcDbLine
 10
26.3
 20
78.40609999999999
 30
0.0
 11
29.5
 21
79.4453
 31
0.0
  0
LINE
  5
AA
330
1E
100
AcDbEntity
  8
0
100
AcDbLine
 10
29.5
 20
79.4453
 30
0.0
 11
32.2
 21
81.264
 31
0.0
  0
LINE
  5
AB
330
1E
100
AcDbEntity
  8
0
100
AcDbLine
 10
32.9
 20
81.15779999999999
 30
0.0
 11
35.1
 21
83.6692
 31
0.0
  0
LINE
  5
AC
330
1E
100
AcDbEntity
  8
0
100
AcDbLine
 10
32.2
 20
81.264
 30
0.0
 11
34.29999999999999
 21
83.60219999999999
 31
0.0
  0
LINE
  5
AD
330
1E
100
AcDbEntity
  8
0
100
AcDbLine
 10
35.1
 20
83.6692
 30
0.0
 11
36.5
 21
86.61369999999999
 31
0.0
  0
LINE
  5
AE
330
1E
100
AcDbEntity
  8
0
100
AcDbLine
 10
34.29999999999999
 20
83.60219999999999
 30
0.0
 11
35.5
 21
86.37350000000001
 31
0.0
  0
LINE
  5
AF
330
1E
100
AcDbEntity
  8
0
100
AcDbLine
 10
26.1
 20
84.6855
 30
0.0
 11
29.0
 21
85.7248
 31
0.0
  0
LINE
  5
B0
330
1E
100
AcDbEntity
  8
0
100
AcDbLine
 10
29.0
 20
85.7248
 30
0.0
 11
31.5
 21
87.37019999999999
 31
0.0
  0
LINE
  5
B1
330
1E
100
AcDbEntity
  8
0
100
AcDbLine
 10
31.5
 20
87.37019999999999
 30
0.0
 11
33.39999999999999
 21
89.5353
 31
0.0
  0
LINE
  5
B2
330
1E
100
AcDbEntity
  8
0
100
AcDbLine
 10
34.29999999999999
 20
94.8606
 30
0.0
 11
35.5
 21
92.0893
 31
0.0
  0
LINE
  5
B3
330
1E
100
AcDbEntity
  8
0
100
AcDbLine
 10
33.39999999999999
 20
89.5353
 30
0.0
 11
34.6
 21
92.0467
 31
0.0
  0
LINE
  5
B4
330
1E
100
AcDbEntity
  8
0
100
AcDbLine
 10
36.5
 20
92.84910000000001
 30
0.0
 11
37.0
 21
89.73139999999999
 31
0.0
  0
LINE
  5
B5
330
1E
100
AcDbEntity
  8
0
100
AcDbLine
 10
35.5
 20
92.0893
 30
0.0
 11
36.0
 21
89.2314
 31
0.0
  0
LINE
  5
B6
330
1E
100
AcDbEntity
  8
0
100
AcDbLine
 10
37.0
 20
89.73139999999999
 30
0.0
 11
37.0
 21
94.73139999999999
 31
0.0
  0
LINE
  5
B7
330
1E
100
AcDbEntity
  8
0
100
AcDbLine
 10
37.0
 20
94.73139999999999
 30
0.0
 11
37.0
 21
89.73139999999999
 31
0.0
  0
LINE
  5
B8
330
1E
100
AcDbEntity
  8
0
100
AcDbLine
 10
36.5
 20
86.61369999999999
 30
0.0
 11
37.0
 21
89.73139999999999
 31
0.0
  0
LINE
  5
B9
330
1E
100
AcDbEntity
  8
0
100
AcDbLine
 10
35.5
 20
86.37350000000001
 30
0.0
 11
36.0
 21
89.2314
 31
0.0
  0
LINE
  5
BA
330
1E
100
AcDbEntity
  8
0
100
AcDbLine
 10
34.6
 20
92.0467
 30
0.0
 11
34.8351220278235
 21
93.62478027024399
 31
0.0
  0
LINE
  5
BB
330
1E
100
AcDbEntity
  8
0
100
AcDbLine
 10
23.0
 20
106.856
 30
0.0
 11
26.6
 21
106.4229999999999
 31
0.0
  0
LINE
  5
BC
330
1E
100
AcDbEntity
  8
0
100
AcDbLine
 10
23.0
 20
101.856
 30
0.0
 11
26.6
 21
101.4229999999999
 31
0.0
  0
LINE
  5
BD
330
1E
100
AcDbEntity
  8
0
100
AcDbLine
 10
23.0
 20
100.4899999999999
 30
0.0
 11
26.3
 21
100.0566999999999
 31
0.0
  0
LINE
  5
BE
330
1E
100
AcDbEntity
  8
0
100
AcDbLine
 10
26.6
 20
106.4229999999999
 30
0.0
 11
30.0
 21
105.21
 31
0.0
  0
LINE
  5
BF
330
1E
100
AcDbEntity
  8
0
100
AcDbLine
 10
26.6
 20
101.4229999999999
 30
0.0
 11
30.0
 21
100.2102999999999
 31
0.0
  0
LINE
  5
C0
330
1E
100
AcDbEntity
  8
0
100
AcDbLine
 10
26.3
 20
100.0566999999999
 30
0.0
 11
29.5
 21
99.01749999999999
 31
0.0
  0
LINE
  5
C1
330
1E
100
AcDbEntity
  8
0
100
AcDbLine
 10
23.0
 20
107.356
 30
0.0
 11
26.6
 21
106.9229999999999
 31
0.0
  0
LINE
  5
C2
330
1E
100
AcDbEntity
  8
0
100
AcDbLine
 10
26.6
 20
106.9229999999999
 30
0.0
 11
30.0
 21
105.7099999999999
 31
0.0
  0
LINE
  5
C3
330
1E
100
AcDbEntity
  8
0
100
AcDbLine
 10
30.0
 20
100.2102999999999
 30
0.0
 11
32.9
 21
98.3051
 31
0.0
  0
LINE
  5
C4
330
1E
100
AcDbEntity
  8
0
100
AcDbLine
 10
29.5
 20
99.01749999999999
 30
0.0
 11
32.2
 21
97.19889999999999
 31
0.0
  0
LINE
  5
C5
330
1E
100
AcDbEntity
  8
0
100
AcDbLine
 10
35.1
 20
100.794
 30
0.0
 11
36.5
 21
97.84910000000001
 31
0.0
  0
LINE
  5
C6
330
1E
100
AcDbEntity
  8
0
100
AcDbLine
 10
32.9
 20
98.3051
 30
0.0
 11
35.1
 21
95.79359999999999
 31
0.0
  0
LINE
  5
C7
330
1E
100
AcDbEntity
  8
0
100
AcDbLine
 10
35.1
 20
95.79359999999999
 30
0.0
 11
36.5
 21
92.84910000000001
 31
0.0
  0
LINE
  5
C8
330
1E
100
AcDbEntity
  8
0
100
AcDbLine
 10
32.2
 20
97.19889999999999
 30
0.0
 11
34.29999999999999
 21
94.8606
 31
0.0
  0
LINE
  5
C9
330
1E
100
AcDbEntity
  8
0
100
AcDbLine
 10
30.0
 20
105.21
 30
0.0
 11
32.9
 21
103.305
 31
0.0
  0
LINE
  5
CA
330
1E
100
AcDbEntity
  8
0
100
AcDbLine
 10
32.9
 20
103.305
 30
0.0
 11
35.1
 21
100.794
 31
0.0
  0
LINE
  5
CB
330
1E
100
AcDbEntity
  8
0
100
AcDbLine
 10
30.0
 20
105.7099999999999
 30
0.0
 11
32.9
 21
103.805
 31
0.0
  0
LINE
  5
CC
330
1E
100
AcDbEntity
  8
0
100
AcDbLine
 10
32.9
 20
103.805
 30
0.0
 11
35.1
 21
101.2939999999999
 31
0.0
  0
LINE
  5
CD
330
1E
100
AcDbEntity
  8
0
100
AcDbLine
 10
35.1
 20
101.2939999999999
 30
0.0
 11
36.5
 21
98.3491
 31
0.0
  0
LINE
  5
CE
330
1E
100
AcDbEntity
  8
0
100
AcDbLine
 10
36.5
 20
97.84910000000001
 30
0.0
 11
37.0
 21
94.73139999999999
 31
0.0
  0
LINE
  5
CF
330
1E
100
AcDbEntity
  8
0
100
AcDbLine
 10
36.5
 20
98.3491
 30
0.0
 11
37.0
 21
95.23139999999999
 31
0.0
  0
LINE
  5
D0
330
1E
100
AcDbEntity
  8
0
100
AcDbLine
 10
36.4
 20
168.25
 30
0.0
 11
39.5
 21
168.25
 31
0.0
  0
LINE
  5
D1
330
1E
100
AcDbEntity
  8
0
100
AcDbLine
 10
32.5
 20
168.25
 30
0.0
 11
36.4
 21
168.25
 31
0.0
  0
LINE
  5
D2
330
1E
100
AcDbEntity
  8
0
100
AcDbLine
 10
27.9
 20
168.25
 30
0.0
 11
32.5
 21
168.25
 31
0.0
  0
LINE
  5
D3
330
1E
100
AcDbEntity
  8
0
100
AcDbLine
 10
23.0
 20
168.75
 30
0.0
 11
27.8
 21
168.75
 31
0.0
  0
LINE
  5
D4
330
1E
100
AcDbEntity
  8
0
100
AcDbLine
 10
27.8
 20
168.75
 30
0.0
 11
32.2
 21
168.75
 31
0.0
  0
LINE
  5
D5
330
1E
100
AcDbEntity
  8
0
100
AcDbLine
 10
32.2
 20
168.75
 30
0.0
 11
36.1
 21
168.75
 31
0.0
  0
LINE
  5
D6
330
1E
100
AcDbEntity
  8
0
100
AcDbLine
 10
36.1
 20
168.75
 30
0.0
 11
39.0
 21
168.75
 31
0.0
  0
LINE
  5
D7
330
1E
100
AcDbEntity
  8
0
100
AcDbLine
 10
23.0
 20
168.25
 30
0.0
 11
27.9
 21
168.25
 31
0.0
  0
LINE
  5
D8
330
1E
100
AcDbEntity
  8
0
100
AcDbLine
 10
39.5
 20
168.25
 30
0.0
 11
41.29999999999999
 21
168.25
 31
0.0
  0
LINE
  5
D9
330
1E
100
AcDbEntity
  8
0
100
AcDbLine
 10
41.29999999999999
 20
168.25
 30
0.0
 11
42.0
 21
168.25
 31
0.0
  0
LINE
  5
DA
330
1E
100
AcDbEntity
  8
0
100
AcDbLine
 10
39.0
 20
168.75
 30
0.0
 11
40.8
 21
168.75
 31
0.0
  0
LINE
  5
DB
330
1E
100
AcDbEntity
  8
0
100
AcDbLine
 10
40.8
 20
168.75
 30
0.0
 11
41.5
 21
168.75
 31
0.0
  0
LINE
  5
DC
330
1E
100
AcDbEntity
  8
0
100
AcDbLine
 10
37.0
 20
95.23139999999999
 30
0.0
 11
37.1588
 21
145.221
 31
0.0
  0
LINE
  5
DD
330
1E
100
AcDbEntity
  8
0
100
AcDbLine
 10
36.9599063412131
 20
94.98139999999999
 30
0.0
 11
37.0
 21
95.23139999999999
 31
0.0
  0
LINE
  5
DE
330
1E
100
AcDbEntity
  8
0
100
AcDbLine
 10
42.0
 20
168.25
 30
0.0
 11
42.0
 21
5.75
 31
0.0
  0
LINE
  5
DF
330
1E
100
AcDbEntity
  8
0
100
AcDbLine
 10
41.5
 20
168.75
 30
0.0
 11
42.0
 21
169.25
 31
0.0
  0
LINE
  5
E0
330
1E
100
AcDbEntity
  8
0
100
AcDbLine
 10
41.5
 20
168.75
 30
0.0
 11
42.0
 21
168.25
 31
0.0
  0
LINE
  5
E1
330
1E
100
AcDbEntity
  8
0
100
AcDbLine
 10
19.9
 20
84.6855
 30
0.0
 11
23.0
 21
84.3391
 31
0.0
  0
LINE
  5
E2
330
1E
100
AcDbEntity
  8
0
100
AcDbLine
 10
19.69999999999999
 20
100.0566999999999
 30
0.0
 11
23.0
 21
100.4899999999999
 31
0.0
  0
LINE
  5
E3
330
1E
100
AcDbEntity
  8
0
100
AcDbLine
 10
19.0
 20
186.7499999999999
 30
0.0
 11
19.0
 21
254.708
 31
0.0
  0
LINE
  5
E4
330
1E
100
AcDbEntity
  8
0
100
AcDbLine
 10
23.0
 20
185.25
 30
0.0
 11
27.8
 21
185.25
 31
0.0
  0
LINE
  5
E5
330
1E
100
AcDbEntity
  8
0
100
AcDbLine
 10
23.0
 20
184.75
 30
0.0
 11
27.9
 21
184.75
 31
0.0
  0
LINE
  5
E6
330
1E
100
AcDbEntity
  8
0
100
AcDbLine
 10
23.0
 20
169.25
 30
0.0
 11
27.9
 21
169.25
 31
0.0
  0
LINE
  5
E9
330
1E
100
AcDbEntity
  8
0
100
AcDbLine
 10
27.8
 20
185.25
 30
0.0
 11
32.2
 21
185.25
 31
0.0
  0
LINE
  5
EA
330
1E
100
AcDbEntity
  8
0
100
AcDbLine
 10
27.0
 20
186.7499999999999
 30
0.0
 11
27.0
 21
254.708
 31
0.0
  0
LINE
  5
EB
330
1E
100
AcDbEntity
  8
0
100
AcDbLine
 10
18.0
 20
186.7499999999999
 30
0.0
 11
27.3
 21
186.7499999999999
 31
0.0
  0
LINE
  5
EC
330
1E
100
AcDbEntity
  8
0
100
AcDbLine
 10
27.3
 20
186.7499999999999
 30
0.0
 11
27.8
 21
186.7499999999999
 31
0.0
  0
LINE
  5
ED
330
1E
100
AcDbEntity
  8
0
100
AcDbLine
 10
27.9
 20
184.75
 30
0.0
 11
32.5
 21
184.75
 31
0.0
  0
LINE
  5
EE
330
1E
100
AcDbEntity
  8
0
100
AcDbLine
 10
27.9
 20
169.25
 30
0.0
 11
32.5
 21
169.25
 31
0.0
  0
LINE
  5
EF
330
1E
100
AcDbEntity
  8
0
100
AcDbLine
 10
32.5
 20
169.25
 30
0.0
 11
36.4
 21
169.25
 31
0.0
  0
LINE
  5
F0
330
1E
100
AcDbEntity
  8
0
100
AcDbLine
 10
36.4
 20
169.25
 30
0.0
 11
39.5
 21
169.25
 31
0.0
  0
LINE
  5
F1
330
1E
100
AcDbEntity
  8
0
100
AcDbLine
 10
32.5
 20
184.75
 30
0.0
 11
36.4
 21
184.75
 31
0.0
  0
LINE
  5
F2
330
1E
100
AcDbEntity
  8
0
100
AcDbLine
 10
36.4
 20
184.75
 30
0.0
 11
39.5
 21
184.75
 31
0.0
  0
LINE
  5
F3
330
1E
100
AcDbEntity
  8
0
100
AcDbLine
 10
39.5
 20
184.75
 30
0.0
 11
41.29999999999999
 21
184.75
 31
0.0
  0
LINE
  5
F4
330
1E
100
AcDbEntity
  8
0
100
AcDbLine
 10
41.29999999999999
 20
184.75
 30
0.0
 11
42.0
 21
184.75
 31
0.0
  0
LINE
  5
F5
330
1E
100
AcDbEntity
  8
0
100
AcDbLine
 10
39.5
 20
169.25
 30
0.0
 11
41.29999999999999
 21
169.25
 31
0.0
  0
LINE
  5
F6
330
1E
100
AcDbEntity
  8
0
100
AcDbLine
 10
42.0
 20
169.25
 30
0.0
 11
42.0
 21
184.75
 31
0.0
  0
LINE
  5
F7
330
1E
100
AcDbEntity
  8
0
100
AcDbLine
 10
41.29999999999999
 20
169.25
 30
0.0
 11
42.0
 21
169.25
 31
0.0
  0
LINE
  5
F8
330
1E
100
AcDbEntity
  8
0
100
AcDbLine
 10
32.2
 20
185.25
 30
0.0
 11
36.1
 21
185.25
 31
0.0
  0
LINE
  5
F9
330
1E
100
AcDbEntity
  8
0
100
AcDbLine
 10
36.1
 20
185.25
 30
0.0
 11
39.0
 21
185.25
 31
0.0
  0
LINE
  5
FA
330
1E
100
AcDbEntity
  8
0
100
AcDbLine
 10
39.0
 20
185.25
 30
0.0
 11
40.8
 21
185.25
 31
0.0
  0
LINE
  5
FB
330
1E
100
AcDbEntity
  8
0
100
AcDbLine
 10
40.8
 20
185.25
 30
0.0
 11
41.5
 21
185.25
 31
0.0
  0
LINE
  5
FC
330
1E
100
AcDbEntity
  8
0
100
AcDbLine
 10
41.5
 20
185.25
 30
0.0
 11
42.0
 21
184.75
 31
0.0
  0
LINE
  5
FD
330
1E
100
AcDbEntity
  8
0
100
AcDbLine
 10
42.0
 20
184.75
 30
0.0
 11
42.0
 21
169.25
 31
0.0
  0
LINE
  5
FE
330
1E
100
AcDbEntity
  8
0
100
AcDbLine
 10
31.0
 20
186.25
 30
0.0
 11
34.0
 21
185.25
 31
0.0
  0
LINE
  5
FF
330
1E
100
AcDbEntity
  8
0
100
AcDbLine
 10
28.0
 20
186.7499999999999
 30
0.0
 11
31.0
 21
186.25
 31
0.0
  0
LINE
  5
100
330
1E
100
AcDbEntity
  8
0
100
AcDbLine
 10
27.8
 20
186.7499999999999
 30
0.0
 11
28.0
 21
186.7499999999999
 31
0.0
  0
LINE
  5
103
330
1E
100
AcDbEntity
  8
0
100
AcDbLine
 10
23.0
 20
253.6659999999999
 30
0.0
 11
24.1
 21
253.692
 31
0.0
  0
LINE
  5
104
330
1E
100
AcDbEntity
  8
0
100
AcDbLine
 10
24.1
 20
253.692
 30
0.0
 11
25.0
 21
253.7959999999999
 31
0.0
  0
LINE
  5
105
330
1E
100
AcDbEntity
  8
0
100
AcDbLine
 10
25.0
 20
253.7959999999999
 30
0.0
 11
25.8
 21
253.9789999999999
 31
0.0
  0
LINE
  5
106
330
1E
100
AcDbEntity
  8
0
100
AcDbLine
 10
25.8
 20
253.9789999999999
 30
0.0
 11
26.5
 21
254.187
 31
0.0
  0
LINE
  5
107
330
1E
100
AcDbEntity
  8
0
100
AcDbLine
 10
21.89999999999999
 20
253.692
 30
0.0
 11
23.0
 21
253.6659999999999
 31
0.0
  0
LINE
  5
108
330
1E
100
AcDbEntity
  8
0
100
AcDbLine
 10
21.0
 20
253.7959999999999
 30
0.0
 11
21.89999999999999
 21
253.692
 31
0.0
  0
LINE
  5
109
330
1E
100
AcDbEntity
  8
0
100
AcDbLine
 10
26.5
 20
254.187
 30
0.0
 11
26.89999999999999
 21
254.421
 31
0.0
  0
LINE
  5
10A
330
1E
100
AcDbEntity
  8
0
100
AcDbLine
 10
26.89999999999999
 20
254.421
 30
0.0
 11
27.0
 21
254.708
 31
0.0
  0
LINE
  5
10B
330
1E
100
AcDbEntity
  8
0
100
AcDbLine
 10
20.2
 20
253.9789999999999
 30
0.0
 11
21.0
 21
253.7959999999999
 31
0.0
  0
LINE
  5
10C
330
1E
100
AcDbEntity
  8
0
100
AcDbLine
 10
19.5
 20
254.187
 30
0.0
 11
20.2
 21
253.9789999999999
 31
0.0
  0
LINE
  5
10D
330
1E
100
AcDbEntity
  8
0
100
AcDbLine
 10
26.5
 20
255.229
 30
0.0
 11
26.89999999999999
 21
254.994
 31
0.0
  0
LINE
  5
10E
330
1E
100
AcDbEntity
  8
0
100
AcDbLine
 10
26.89999999999999
 20
254.994
 30
0.0
 11
27.0
 21
254.708
 31
0.0
  0
LINE
  5
10F
330
1E
100
AcDbEntity
  8
0
100
AcDbLine
 10
27.0
 20
254.708
 30
0.0
 11
27.0
 21
186.7499999999999
 31
0.0
  0
LINE
  5
110
330
1E
100
AcDbEntity
  8
0
100
AcDbLine
 10
25.0
 20
255.62
 30
0.0
 11
25.8
 21
255.437
 31
0.0
  0
LINE
  5
111
330
1E
100
AcDbEntity
  8
0
100
AcDbLine
 10
25.8
 20
255.437
 30
0.0
 11
26.5
 21
255.229
 31
0.0
  0
LINE
  5
112
330
1E
100
AcDbEntity
  8
0
100
AcDbLine
 10
23.0
 20
255.75
 30
0.0
 11
24.1
 21
255.724
 31
0.0
  0
LINE
  5
113
330
1E
100
AcDbEntity
  8
0
100
AcDbLine
 10
24.1
 20
255.724
 30
0.0
 11
25.0
 21
255.62
 31
0.0
  0
LINE
  5
114
330
1E
100
AcDbEntity
  8
0
100
AcDbLine
 10
21.89999999999999
 20
255.724
 30
0.0
 11
23.0
 21
255.75
 31
0.0
  0
LINE
  5
115
330
1E
100
AcDbEntity
  8
0
100
AcDbLine
 10
21.0
 20
255.62
 30
0.0
 11
21.89999999999999
 21
255.724
 31
0.0
  0
LINE
  5
116
330
1E
100
AcDbEntity
  8
0
100
AcDbLine
 10
20.2
 20
255.437
 30
0.0
 11
21.0
 21
255.62
 31
0.0
  0
LINE
  5
117
330
1E
100
AcDbEntity
  8
0
100
AcDbLine
 10
19.5
 20
255.229
 30
0.0
 11
20.2
 21
255.437
 31
0.0
  0
LINE
  5
118
330
1E
100
AcDbEntity
  8
0
100
AcDbLine
 10
19.1
 20
254.994
 30
0.0
 11
19.5
 21
255.229
 31
0.0
  0
LINE
  5
119
330
1E
100
AcDbEntity
  8
0
100
AcDbLine
 10
19.1
 20
254.421
 30
0.0
 11
19.5
 21
254.187
 31
0.0
  0
LINE
  5
11A
330
1E
100
AcDbEntity
  8
0
100
AcDbLine
 10
19.0
 20
254.708
 30
0.0
 11
19.1
 21
254.421
 31
0.0
  0
LINE
  5
11B
330
1E
100
AcDbEntity
  8
0
100
AcDbLine
 10
19.0
 20
254.708
 30
0.0
 11
19.0
 21
186.7499999999999
 31
0.0
  0
LINE
  5
11C
330
1E
100
AcDbEntity
  8
0
100
AcDbLine
 10
19.0
 20
254.708
 30
0.0
 11
19.1
 21
254.994
 31
0.0
  0
LINE
  5
11E
330
1E
100
AcDbEntity
  8
0
100
AcDbLine
 10
18.2
 20
185.25
 30
0.0
 11
23.0
 21
185.25
 31
0.0
  0
LINE
  5
11F
330
1E
100
AcDbEntity
  8
0
100
AcDbLine
 10
18.2
 20
168.75
 30
0.0
 11
23.0
 21
168.75
 31
0.0
  0
LINE
  5
120
330
1E
100
AcDbEntity
  8
0
100
AcDbLine
 10
18.1
 20
169.25
 30
0.0
 11
23.0
 21
169.25
 31
0.0
  0
LINE
  5
121
330
1E
100
AcDbEntity
  8
0
100
AcDbLine
 10
18.1
 20
5.74999999999999
 30
0.0
 11
23.0
 21
5.74999999999999
 31
0.0
  0
LINE
  5
122
330
1E
100
AcDbEntity
  8
0
100
AcDbLine
 10
17.1
 20
4.24999999999999
 30
0.0
 11
23.0
 21
4.24999999999999
 31
0.0
  0
LINE
  5
123
330
1E
100
AcDbEntity
  8
0
100
AcDbLine
 10
17.1
 20
0.249999999999994
 30
0.0
 11
23.0
 21
0.249999999999994
 31
0.0
  0
LINE
  5
124
330
1E
100
AcDbEntity
  8
0
100
AcDbLine
 10
11.59999999999999
 20
0.249999999999994
 30
0.0
 11
17.1
 21
0.249999999999994
 31
0.0
  0
LINE
  5
125
330
1E
100
AcDbEntity
  8
0
100
AcDbLine
 10
6.799999999999999
 20
0.249999999999994
 30
0.0
 11
11.59999999999999
 21
0.249999999999994
 31
0.0
  0
LINE
  5
126
330
1E
100
AcDbEntity
  8
0
100
AcDbLine
 10
3.1
 20
0.249999999999993
 30
0.0
 11
6.799999999999999
 21
0.249999999999994
 31
0.0
  0
LINE
  5
127
330
1E
100
AcDbEntity
  8
0
100
AcDbLine
 10
0.8
 20
0.249999999999993
 30
0.0
 11
3.1
 21
0.249999999999993
 31
0.0
  0
LINE
  5
128
330
1E
100
AcDbEntity
  8
0
100
AcDbLine
 10
0.0000000000000006
 20
0.249999999999993
 30
0.0
 11
0.800000000000001
 21
0.249999999999993
 31
0.0
  0
LINE
  5
129
330
1E
100
AcDbEntity
  8
0
100
AcDbLine
 10
0.0000000000000006
 20
0.249999999999993
 30
0.0
 11
0.800000000000001
 21
0.249999999999992
 31
0.0
  0
LINE
  5
12A
330
1E
100
AcDbEntity
  8
0
100
AcDbLine
 10
0.0000000000000006
 20
0.249999999999993
 30
0.0
 11
0.0000000000000006
 21
4.24999999999999
 31
0.0
  0
LWPOLYLINE
  5
130
330
1E
100
AcDbEntity
  8
0
100
AcDbPolyline
 90
       18
 70
     0
 43
0.0
 10
8.841159999999998
 20
145.2209999999999
 10
9.170812557527142
 20
147.9365574848763
 10
10.2636697776038
 20
151.2662640024911
 10
11.96959381076749
 20
154.0099425230827
 10
13.35565716427481
 20
155.528288033326
 10
15.40809642332055
 20
157.046634143016
 10
17.64712118091483
 20
158.1654155185479
 10
20.31262725304759
 20
159.1243706407485
 10
23.11140850628794
 20
159.364109721022
 10
26.1767401217437
 20
159.0444578138062
 10
28.73562555899457
 20
158.0855026916055
 10
31.05461518025572
 20
156.7536198447809
 10
33.05374534684983
 20
155.2619113440717
 10
34.53666126907774
 20
153.4239133271661
 10
35.76279367026222
 20
151.6924657461834
 10
36.64241084556465
 20
149.5614540304893
 10
36.98892607144671
 20
146.9243265452675
 10
37.1588
 20
145.221
  0
ENDSEC
  0
SECTION
  2
OBJECTS
  0
DICTIONARY
  5
C
330
0
100
AcDbDictionary
  3
ACAD_GROUP
350
D
  3
ACAD_LAYOUT
350
19
  3
ACAD_MLINESTYLE
350
16
  3
ACAD_PLOTSETTINGS
350
18
  3
ACAD_PLOTSTYLENAME
350
E
  3
ACDBHEADERROUNDTRIPXREC
350
17E
  3
ACDBVARIABLEDICTIONARY
350
131
  0
DICTIONARY
  5
1A0
330
1E
100
AcDbDictionary
280
     1
  3
ACAD_LAYOUTSELFREF
360
1A1
  0
DICTIONARY
  5
19E
330
1A
100
AcDbDictionary
280
     1
  3
ACAD_LAYOUTSELFREF
360
19F
  0
DICTIONARY
  5
D
102
{ACAD_REACTORS
330
C
102
}
330
C
100
AcDbDictionary
  0
DICTIONARY
  5
19
102
{ACAD_REACTORS
330
C
102
}
330
C
100
AcDbDictionary
  0
DICTIONARY
  5
16
102
{ACAD_REACTORS
330
C
102
}
330
C
100
AcDbDictionary
  3
STANDARD
350
17
  0
DICTIONARY
  5
18
102
{ACAD_REACTORS
330
C
102
}
330
C
100
AcDbDictionary
  0
ACDBDICTIONARYWDFLT
  5
E
102
{ACAD_REACTORS
330
C
102
}
330
C
100
AcDbDictionary
281
     1
  3
Normal
350
F
100
AcDbDictionaryWithDefault
340
F
  0
DICTIONARY
  5
17E
102
{ACAD_REACTORS
330
C
102
}
330
C
100
AcDbDictionary
  3
CEPSNTYPE
350
188
  3
FINGERPRINTGUID
350
189
  3
HYPERLINKBASE
350
181
  3
INSUNITS
350
187
  3
LAYOUTDICT
350
183
  3
LWETCUNION
350
186
  3
PLOTSETDICT
350
184
  3
PLOTSTYLNAMDICT
350
185
  3
PSVPSCALE
350
18B
  3
PUCSBASE
350
18E
  3
PUCSORGBACK
350
194
  3
PUCSORGBOTTOM
350
190
  3
PUCSORGFRONT
350
193
  3
PUCSORGLEFT
350
191
  3
PUCSORGRIGHT
350
192
  3
PUCSORGTOP
350
18F
  3
PUCSORTHOREF
350
18C
  3
PUCSORTHOVIEW
350
18D
  3
STYLESHEET
350
182
  3
TSTACKALIGN
350
17F
  3
TSTACKSIZE
350
180
  3
UCSBASE
350
197
  3
UCSORGBACK
350
19D
  3
UCSORGBOTTOM
350
199
  3
UCSORGFRONT
350
19C
  3
UCSORGLEFT
350
19A
  3
UCSORGRIGHT
350
19B
  3
UCSORGTOP
350
198
  3
UCSORTHOREF
350
195
  3
UCSORTHOVIEW
350
196
  3
VERSIONGUID
350
18A
  0
DICTIONARY
  5
131
102
{ACAD_REACTORS
330
C
102
}
330
C
100
AcDbDictionary
  3
DIMASSOC
350
132
  0
XRECORD
  5
1A1
102
{ACAD_REACTORS
330
1A0
102
}
330
1A0
100
AcDbXrecord
340
1E
  0
XRECORD
  5
19F
102
{ACAD_REACTORS
330
19E
102
}
330
19E
100
AcDbXrecord
340
1A
  0
MLINESTYLE
  5
17
102
{ACAD_REACTORS
330
16
102
}
330
16
100
AcDbMlineStyle
  2
STANDARD
 70
     0
  3

 62
   256
 51
90.0
 52
90.0
 71
     2
 49
0.5
 62
   256
  6
BYLAYER
 49
-0.5
 62
   256
  6
BYLAYER
  0
ACDBPLACEHOLDER
  5
F
102
{ACAD_REACTORS
330
E
102
}
330
E
100
AcDbPlaceHolder
280
     0
  0
XRECORD
  5
188
102
{ACAD_REACTORS
330
17E
102
}
330
17E
100
AcDbXrecord
 90
        0
  0
XRECORD
  5
189
102
{ACAD_REACTORS
330
17E
102
}
330
17E
100
AcDbXrecord
  1
{76CAC6D7-BDAB-4048-BA22-7C5D3CAA9540}
  0
XRECORD
  5
181
102
{ACAD_REACTORS
330
17E
102
}
330
17E
100
AcDbXrecord
  1

  0
XRECORD
  5
187
102
{ACAD_REACTORS
330
17E
102
}
330
17E
100
AcDbXrecord
 90
        0
  0
XRECORD
  5
183
102
{ACAD_REACTORS
330
17E
102
}
330
17E
100
AcDbXrecord
340
19
  0
XRECORD
  5
186
102
{ACAD_REACTORS
330
17E
102
}
330
17E
100
AcDbXrecord
 90
    10781
  0
XRECORD
  5
184
102
{ACAD_REACTORS
330
17E
102
}
330
17E
100
AcDbXrecord
340
18
  0
XRECORD
  5
185
102
{ACAD_REACTORS
330
17E
102
}
330
17E
100
AcDbXrecord
340
E
  0
XRECORD
  5
18B
102
{ACAD_REACTORS
330
17E
102
}
330
17E
100
AcDbXrecord
 40
0.0
  0
XRECORD
  5
18E
102
{ACAD_REACTORS
330
17E
102
}
330
17E
100
AcDbXrecord
340
0
  0
XRECORD
  5
194
102
{ACAD_REACTORS
330
17E
102
}
330
17E
100
AcDbXrecord
 10
0.0
 20
0.0
 30
0.0
  0
XRECORD
  5
190
102
{ACAD_REACTORS
330
17E
102
}
330
17E
100
AcDbXrecord
 10
0.0
 20
0.0
 30
0.0
  0
XRECORD
  5
193
102
{ACAD_REACTORS
330
17E
102
}
330
17E
100
AcDbXrecord
 10
0.0
 20
0.0
 30
0.0
  0
XRECORD
  5
191
102
{ACAD_REACTORS
330
17E
102
}
330
17E
100
AcDbXrecord
 10
0.0
 20
0.0
 30
0.0
  0
XRECORD
  5
192
102
{ACAD_REACTORS
330
17E
102
}
330
17E
100
AcDbXrecord
 10
0.0
 20
0.0
 30
0.0
  0
XRECORD
  5
18F
102
{ACAD_REACTORS
330
17E
102
}
330
17E
100
AcDbXrecord
 10
0.0
 20
0.0
 30
0.0
  0
XRECORD
  5
18C
102
{ACAD_REACTORS
330
17E
102
}
330
17E
100
AcDbXrecord
340
0
  0
XRECORD
  5
18D
102
{ACAD_REACTORS
330
17E
102
}
330
17E
100
AcDbXrecord
 70
     0
  0
XRECORD
  5
182
102
{ACAD_REACTORS
330
17E
102
}
330
17E
100
AcDbXrecord
  1

  0
XRECORD
  5
17F
102
{ACAD_REACTORS
330
17E
102
}
330
17E
100
AcDbXrecord
 90
        1
  0
XRECORD
  5
180
102
{ACAD_REACTORS
330
17E
102
}
330
17E
100
AcDbXrecord
 90
       70
  0
XRECORD
  5
197
102
{ACAD_REACTORS
330
17E
102
}
330
17E
100
AcDbXrecord
340
0
  0
XRECORD
  5
19D
102
{ACAD_REACTORS
330
17E
102
}
330
17E
100
AcDbXrecord
 10
0.0
 20
0.0
 30
0.0
  0
XRECORD
  5
199
102
{ACAD_REACTORS
330
17E
102
}
330
17E
100
AcDbXrecord
 10
0.0
 20
0.0
 30
0.0
  0
XRECORD
  5
19C
102
{ACAD_REACTORS
330
17E
102
}
330
17E
100
AcDbXrecord
 10
0.0
 20
0.0
 30
0.0
  0
XRECORD
  5
19A
102
{ACAD_REACTORS
330
17E
102
}
330
17E
100
AcDbXrecord
 10
0.0
 20
0.0
 30
0.0
  0
XRECORD
  5
19B
102
{ACAD_REACTORS
330
17E
102
}
330
17E
100
AcDbXrecord
 10
0.0
 20
0.0
 30
0.0
  0
XRECORD
  5
198
102
{ACAD_REACTORS
330
17E
102
}
330
17E
100
AcDbXrecord
 10
0.0
 20
0.0
 30
0.0
  0
XRECORD
  5
195
102
{ACAD_REACTORS
330
17E
102
}
330
17E
100
AcDbXrecord
340
0
  0
XRECORD
  5
196
102
{ACAD_REACTORS
330
17E
102
}
330
17E
100
AcDbXrecord
 70
     1
  0
XRECORD
  5
18A
102
{ACAD_REACTORS
330
17E
102
}
330
17E
100
AcDbXrecord
  1
{096F1CD1-8935-4116-B69B-5B8489640363}
  0
DICTIONARYVAR
  5
132
102
{ACAD_REACTORS
330
131
102
}
330
131
100
DictionaryVariables
280
     0
  1
1
  0
ENDSEC
  0
EOF
