  0
SECTION
  2
HEADER
  9
$ACADVER
  1
AC1015
  9
$ACADMAINTVER
 70
    13
  9
$DWGCODEPAGE
  3
ANSI_1252
  9
$INSBASE
 10
0.0
 20
0.0
 30
0.0
  9
$EXTMIN
 10
0.0000000000000012
 20
-0.0000000000000041
 30
0.0
  9
$EXTMAX
 10
170.0
 20
170.0
 30
0.0
  9
$LIMMIN
 10
0.0
 20
0.0
  9
$LIMMAX
 10
12.0
 20
9.0
  9
$ORTHOMODE
 70
     0
  9
$REGENMODE
 70
     1
  9
$FILLMODE
 70
     1
  9
$QTEXTMODE
 70
     0
  9
$MIRRTEXT
 70
     1
  9
$LTSCALE
 40
1.0
  9
$ATTMODE
 70
     1
  9
$TEXTSIZE
 40
0.2
  9
$TRACEWID
 40
0.05
  9
$TEXTSTYLE
  7
Standard
  9
$CLAYER
  8
0
  9
$CELTYPE
  6
Continuous
  9
$CECOLOR
 62
   256
  9
$CELTSCALE
 40
1.0
  9
$DISPSILH
 70
     0
  9
$DIMSCALE
 40
1.0
  9
$DIMASZ
 40
0.18
  9
$DIMEXO
 40
0.0625
  9
$DIMDLI
 40
0.38
  9
$DIMRND
 40
0.0
  9
$DIMDLE
 40
0.0
  9
$DIMEXE
 40
0.18
  9
$DIMTP
 40
0.0
  9
$DIMTM
 40
0.0
  9
$DIMTXT
 40
0.18
  9
$DIMCEN
 40
0.09
  9
$DIMTSZ
 40
0.0
  9
$DIMTOL
 70
     0
  9
$DIMLIM
 70
     0
  9
$DIMTIH
 70
     1
  9
$DIMTOH
 70
     1
  9
$DIMSE1
 70
     0
  9
$DIMSE2
 70
     0
  9
$DIMTAD
 70
     0
  9
$DIMZIN
 70
     0
  9
$DIMBLK
  1

  9
$DIMASO
 70
     1
  9
$DIMSHO
 70
     1
  9
$DIMPOST
  1

  9
$DIMAPOST
  1

  9
$DIMALT
 70
     0
  9
$DIMALTD
 70
     2
  9
$DIMALTF
 40
25.4
  9
$DIMLFAC
 40
1.0
  9
$DIMTOFL
 70
     0
  9
$DIMTVP
 40
0.0
  9
$DIMTIX
 70
     0
  9
$DIMSOXD
 70
     0
  9
$DIMSAH
 70
     0
  9
$DIMBLK1
  1

  9
$DIMBLK2
  1

  9
$DIMSTYLE
  2
Standard
  9
$DIMCLRD
 70
     0
  9
$DIMCLRE
 70
     0
  9
$DIMCLRT
 70
     0
  9
$DIMTFAC
 40
1.0
  9
$DIMGAP
 40
0.09
  9
$DIMJUST
 70
     0
  9
$DIMSD1
 70
     0
  9
$DIMSD2
 70
     0
  9
$DIMTOLJ
 70
     1
  9
$DIMTZIN
 70
     0
  9
$DIMALTZ
 70
     0
  9
$DIMALTTZ
 70
     0
  9
$DIMUPT
 70
     0
  9
$DIMDEC
 70
     4
  9
$DIMTDEC
 70
     4
  9
$DIMALTU
 70
     2
  9
$DIMALTTD
 70
     2
  9
$DIMTXSTY
  7
Standard
  9
$DIMAUNIT
 70
     0
  9
$DIMADEC
 70
     0
  9
$DIMALTRND
 40
0.0
  9
$DIMAZIN
 70
     0
  9
$DIMDSEP
 70
    46
  9
$DIMATFIT
 70
     3
  9
$DIMFRAC
 70
     0
  9
$DIMLDRBLK
  1

  9
$DIMLUNIT
 70
     2
  9
$DIMLWD
 70
    -2
  9
$DIMLWE
 70
    -2
  9
$DIMTMOVE
 70
     0
  9
$LUNITS
 70
     2
  9
$LUPREC
 70
     4
  9
$SKETCHINC
 40
0.1
  9
$FILLETRAD
 40
0.0
  9
$AUNITS
 70
     0
  9
$AUPREC
 70
     0
  9
$MENU
  1
.
  9
$ELEVATION
 40
0.0
  9
$PELEVATION
 40
0.0
  9
$THICKNESS
 40
0.0
  9
$LIMCHECK
 70
     0
  9
$CHAMFERA
 40
0.0
  9
$CHAMFERB
 40
0.0
  9
$CHAMFERC
 40
0.0
  9
$CHAMFERD
 40
0.0
  9
$SKPOLY
 70
     0
  9
$TDCREATE
 40
2454637.805507777
  9
$TDUCREATE
 40
2454637.722174444
  9
$TDUPDATE
 40
2454637.813614699
  9
$TDUUPDATE
 40
2454637.730281365
  9
$TDINDWG
 40
0.0041440625
  9
$TDUSRTIMER
 40
0.0041440625
  9
$USRTIMER
 70
     1
  9
$ANGBASE
 50
0.0
  9
$ANGDIR
 70
     0
  9
$PDMODE
 70
     0
  9
$PDSIZE
 40
0.0
  9
$PLINEWID
 40
0.0
  9
$SPLFRAME
 70
     0
  9
$SPLINETYPE
 70
     6
  9
$SPLINESEGS
 70
     8
  9
$HANDSEED
  5
1B8
  9
$SURFTAB1
 70
     6
  9
$SURFTAB2
 70
     6
  9
$SURFTYPE
 70
     6
  9
$SURFU
 70
     6
  9
$SURFV
 70
     6
  9
$UCSBASE
  2

  9
$UCSNAME
  2

  9
$UCSORG
 10
0.0
 20
0.0
 30
0.0
  9
$UCSXDIR
 10
1.0
 20
0.0
 30
0.0
  9
$UCSYDIR
 10
0.0
 20
1.0
 30
0.0
  9
$UCSORTHOREF
  2

  9
$UCSORTHOVIEW
 70
     1
  9
$UCSORGTOP
 10
0.0
 20
0.0
 30
0.0
  9
$UCSORGBOTTOM
 10
0.0
 20
0.0
 30
0.0
  9
$UCSORGLEFT
 10
0.0
 20
0.0
 30
0.0
  9
$UCSORGRIGHT
 10
0.0
 20
0.0
 30
0.0
  9
$UCSORGFRONT
 10
0.0
 20
0.0
 30
0.0
  9
$UCSORGBACK
 10
0.0
 20
0.0
 30
0.0
  9
$PUCSBASE
  2

  9
$PUCSNAME
  2

  9
$PUCSORG
 10
0.0
 20
0.0
 30
0.0
  9
$PUCSXDIR
 10
1.0
 20
0.0
 30
0.0
  9
$PUCSYDIR
 10
0.0
 20
1.0
 30
0.0
  9
$PUCSORTHOREF
  2

  9
$PUCSORTHOVIEW
 70
     0
  9
$PUCSORGTOP
 10
0.0
 20
0.0
 30
0.0
  9
$PUCSORGBOTTOM
 10
0.0
 20
0.0
 30
0.0
  9
$PUCSORGLEFT
 10
0.0
 20
0.0
 30
0.0
  9
$PUCSORGRIGHT
 10
0.0
 20
0.0
 30
0.0
  9
$PUCSORGFRONT
 10
0.0
 20
0.0
 30
0.0
  9
$PUCSORGBACK
 10
0.0
 20
0.0
 30
0.0
  9
$USERI1
 70
     0
  9
$USERI2
 70
     0
  9
$USERI3
 70
     0
  9
$USERI4
 70
     0
  9
$USERI5
 70
     0
  9
$USERR1
 40
0.0
  9
$USERR2
 40
0.0
  9
$USERR3
 40
0.0
  9
$USERR4
 40
0.0
  9
$USERR5
 40
0.0
  9
$WORLDVIEW
 70
     1
  9
$SHADEDGE
 70
     3
  9
$SHADEDIF
 70
    70
  9
$TILEMODE
 70
     1
  9
$MAXACTVP
 70
    64
  9
$PINSBASE
 10
0.0
 20
0.0
 30
0.0
  9
$PLIMCHECK
 70
     0
  9
$PEXTMIN
 10
1.000000000000000E+20
 20
1.000000000000000E+20
 30
1.000000000000000E+20
  9
$PEXTMAX
 10
-1.000000000000000E+20
 20
-1.000000000000000E+20
 30
-1.000000000000000E+20
  9
$PLIMMIN
 10
0.0
 20
0.0
  9
$PLIMMAX
 10
12.0
 20
9.0
  9
$UNITMODE
 70
     0
  9
$VISRETAIN
 70
     1
  9
$PLINEGEN
 70
     0
  9
$PSLTSCALE
 70
     1
  9
$TREEDEPTH
 70
  3020
  9
$CMLSTYLE
  2
Standard
  9
$CMLJUST
 70
     0
  9
$CMLSCALE
 40
1.0
  9
$PROXYGRAPHICS
 70
     1
  9
$MEASUREMENT
 70
     0
  9
$CELWEIGHT
370
    -1
  9
$ENDCAPS
280
     0
  9
$JOINSTYLE
280
     0
  9
$LWDISPLAY
290
     0
  9
$INSUNITS
 70
     0
  9
$HYPERLINKBASE
  1

  9
$STYLESHEET
  1

  9
$XEDIT
290
     1
  9
$CEPSNTYPE
380
     0
  9
$PSTYLEMODE
290
     1
  9
$FINGERPRINTGUID
  2
{A381FB11-42EA-4422-88B2-764E5E6C2DC0}
  9
$VERSIONGUID
  2
{6FE16954-3D54-45D9-9E22-B128442DC17E}
  9
$EXTNAMES
290
     1
  9
$PSVPSCALE
 40
0.0
  9
$OLESTARTUP
290
     0
  0
ENDSEC
  0
SECTION
  2
CLASSES
  0
CLASS
  1
ACDBDICTIONARYWDFLT
  2
AcDbDictionaryWithDefault
  3
AutoCAD 2000
 90
        0
280
     0
281
     0
  0
CLASS
  1
ACDBPLACEHOLDER
  2
AcDbPlaceHolder
  3
AutoCAD 2000
 90
        0
280
     0
281
     0
  0
CLASS
  1
LAYOUT
  2
AcDbLayout
  3
AutoCAD 2000
 90
        0
280
     0
281
     0
  0
CLASS
  1
DICTIONARYVAR
  2
AcDbDictionaryVar
  3
AutoCAD 2000
 90
        0
280
     0
281
     0
  0
ENDSEC
  0
SECTION
  2
TABLES
  0
TABLE
  2
VPORT
  5
8
330
0
100
AcDbSymbolTable
 70
     2
  0
VPORT
  5
1B7
330
8
100
AcDbSymbolTableRecord
100
AcDbViewportTableRecord
  2
*Active
 70
     0
 10
0.0
 20
0.0
 11
1.0
 21
1.0
 12
85.00000000000003
 22
85.0
 13
0.0
 23
0.0
 14
1.0
 24
1.0
 15
0.0
 25
0.0
 16
0.0
 26
0.0
 36
1.0
 17
0.0
 27
0.0
 37
0.0
 40
171.3572702110066
 41
2.043533930857874
 42
50.0
 43
0.0
 44
0.0
 50
0.0
 51
0.0
 71
     0
 72
   100
 73
     1
 74
     3
 75
     0
 76
     0
 77
     0
 78
     0
281
     0
 65
     1
110
0.0
120
0.0
130
0.0
111
1.0
121
0.0
131
0.0
112
0.0
122
1.0
132
0.0
 79
     1
146
0.0
  0
ENDTAB
  0
TABLE
  2
LTYPE
  5
5
330
0
100
AcDbSymbolTable
 70
     1
  0
LTYPE
  5
13
330
5
100
AcDbSymbolTableRecord
100
AcDbLinetypeTableRecord
  2
ByBlock
 70
     0
  3

 72
    65
 73
     0
 40
0.0
  0
LTYPE
  5
14
330
5
100
AcDbSymbolTableRecord
100
AcDbLinetypeTableRecord
  2
ByLayer
 70
     0
  3

 72
    65
 73
     0
 40
0.0
  0
LTYPE
  5
15
330
5
100
AcDbSymbolTableRecord
100
AcDbLinetypeTableRecord
  2
Continuous
 70
     0
  3
Solid line
 72
    65
 73
     0
 40
0.0
  0
ENDTAB
  0
TABLE
  2
LAYER
  5
2
330
0
100
AcDbSymbolTable
 70
     1
  0
LAYER
  5
10
330
2
100
AcDbSymbolTableRecord
100
AcDbLayerTableRecord
  2
0
 70
     0
 62
     7
  6
Continuous
370
    -3
390
F
  0
ENDTAB
  0
TABLE
  2
STYLE
  5
3
330
0
100
AcDbSymbolTable
 70
     1
  0
STYLE
  5
11
330
3
100
AcDbSymbolTableRecord
100
AcDbTextStyleTableRecord
  2
Standard
 70
     0
 40
0.0
 41
1.0
 50
0.0
 71
     0
 42
0.2
  3
txt
  4

  0
ENDTAB
  0
TABLE
  2
VIEW
  5
6
330
0
100
AcDbSymbolTable
 70
     0
  0
ENDTAB
  0
TABLE
  2
UCS
  5
7
330
0
100
AcDbSymbolTable
 70
     0
  0
ENDTAB
  0
TABLE
  2
APPID
  5
9
330
0
100
AcDbSymbolTable
 70
     1
  0
APPID
  5
12
330
9
100
AcDbSymbolTableRecord
100
AcDbRegAppTableRecord
  2
ACAD
 70
     0
  0
ENDTAB
  0
TABLE
  2
DIMSTYLE
  5
A
330
0
100
AcDbSymbolTable
 70
     1
100
AcDbDimStyleTable
 71
     0
  0
DIMSTYLE
105
1A9
330
A
100
AcDbSymbolTableRecord
100
AcDbDimStyleTableRecord
  2
Standard
 70
     0
340
11
  0
ENDTAB
  0
TABLE
  2
BLOCK_RECORD
  5
1
330
0
100
AcDbSymbolTable
 70
     0
  0
BLOCK_RECORD
  5
1E
330
1
100
AcDbSymbolTableRecord
100
AcDbBlockTableRecord
  2
*Model_Space
340
21
  0
BLOCK_RECORD
  5
1A
330
1
100
AcDbSymbolTableRecord
100
AcDbBlockTableRecord
  2
*Paper_Space
340
1D
  0
ENDTAB
  0
ENDSEC
  0
SECTION
  2
BLOCKS
  0
BLOCK
  5
1F
330
1E
100
AcDbEntity
  8
0
100
AcDbBlockBegin
  2
*Model_Space
 70
     0
 10
0.0
 20
0.0
 30
0.0
  3
*Model_Space
  1

  0
ENDBLK
  5
20
330
1E
100
AcDbEntity
  8
0
100
AcDbBlockEnd
  0
BLOCK
  5
1B
330
1A
100
AcDbEntity
 67
     1
  8
0
100
AcDbBlockBegin
  2
*Paper_Space
 70
     0
 10
0.0
 20
0.0
 30
0.0
  3
*Paper_Space
  1

  0
ENDBLK
  5
1C
330
1A
100
AcDbEntity
 67
     1
  8
0
100
AcDbBlockEnd
  0
ENDSEC
  0
SECTION
  2
ENTITIES
  0
LINE
  5
22
330
1E
100
AcDbEntity
  8
0
100
AcDbLine
 10
0.0000000000000012
 20
12.0
 30
0.0
 11
0.4000000000000011
 21
8.9
 31
0.0
  0
LINE
  5
23
330
1E
100
AcDbEntity
  8
0
100
AcDbLine
 10
0.0000000000000012
 20
12.0
 30
0.0
 11
0.0000000000000012
 21
85.0
 31
0.0
  0
LINE
  5
24
330
1E
100
AcDbEntity
  8
0
100
AcDbLine
 10
0.0000000000000012
 20
158.0
 30
0.0
 11
0.4000000000000011
 21
161.0999999999999
 31
0.0
  0
LINE
  5
25
330
1E
100
AcDbEntity
  8
0
100
AcDbLine
 10
0.0000000000000012
 20
158.0
 30
0.0
 11
0.0000000000000012
 21
85.0
 31
0.0
  0
LINE
  5
26
330
1E
100
AcDbEntity
  8
0
100
AcDbLine
 10
0.0000000000000012
 20
158.0
 30
0.0
 11
0.4000000000000011
 21
161.0999999999999
 31
0.0
  0
LINE
  5
27
330
1E
100
AcDbEntity
  8
0
100
AcDbLine
 10
0.0000000000000012
 20
158.0
 30
0.0
 11
0.0000000000000012
 21
85.0
 31
0.0
  0
LINE
  5
28
330
1E
100
AcDbEntity
  8
0
100
AcDbLine
 10
0.0000000000000012
 20
85.0
 30
0.0
 11
0.0000000000000012
 21
12.0
 31
0.0
  0
LINE
  5
29
330
1E
100
AcDbEntity
  8
0
100
AcDbLine
 10
0.0000000000000012
 20
85.0
 30
0.0
 11
0.0000000000000012
 21
158.0
 31
0.0
  0
LINE
  5
2A
330
1E
100
AcDbEntity
  8
0
100
AcDbLine
 10
0.0000000000000012
 20
12.0
 30
0.0
 11
0.0000000000000012
 21
85.0
 31
0.0
  0
LINE
  5
2B
330
1E
100
AcDbEntity
  8
0
100
AcDbLine
 10
0.0000000000000012
 20
12.0
 30
0.0
 11
0.4000000000000011
 21
8.9
 31
0.0
  0
LINE
  5
2C
330
1E
100
AcDbEntity
  8
0
100
AcDbLine
 10
12.0
 20
-0.0000000000000041
 30
0.0
 11
85.0
 21
-0.0000000000000041
 31
0.0
  0
LINE
  5
2D
330
1E
100
AcDbEntity
  8
0
100
AcDbLine
 10
12.0
 20
0.2999999999999971
 30
0.0
 11
85.0
 21
0.2999999999999971
 31
0.0
  0
LINE
  5
2E
330
1E
100
AcDbEntity
  8
0
100
AcDbLine
 10
12.0
 20
0.2999999999999971
 30
0.0
 11
85.0
 21
0.2999999999999971
 31
0.0
  0
LINE
  5
2F
330
1E
100
AcDbEntity
  8
0
100
AcDbLine
 10
3.7
 20
3.7
 30
0.0
 11
6.15924
 21
1.859399999999999
 31
0.0
  0
LINE
  5
30
330
1E
100
AcDbEntity
  8
0
100
AcDbLine
 10
3.5
 20
3.5
 30
0.0
 11
6.0
 21
1.6
 31
0.0
  0
LINE
  5
31
330
1E
100
AcDbEntity
  8
0
100
AcDbLine
 10
6.15924
 20
1.859399999999999
 30
0.0
 11
8.976779999999997
 21
0.741103999999997
 31
0.0
  0
LINE
  5
32
330
1E
100
AcDbEntity
  8
0
100
AcDbLine
 10
8.976779999999997
 20
0.741103999999997
 30
0.0
 11
12.0
 21
0.2999999999999971
 31
0.0
  0
LINE
  5
33
330
1E
100
AcDbEntity
  8
0
100
AcDbLine
 10
8.976779999999997
 20
0.741103999999997
 30
0.0
 11
12.0
 21
0.2999999999999971
 31
0.0
  0
LINE
  5
34
330
1E
100
AcDbEntity
  8
0
100
AcDbLine
 10
6.0
 20
1.6
 30
0.0
 11
8.9
 21
0.399999999999996
 31
0.0
  0
LINE
  5
35
330
1E
100
AcDbEntity
  8
0
100
AcDbLine
 10
6.0
 20
1.6
 30
0.0
 11
8.9
 21
0.399999999999996
 31
0.0
  0
LINE
  5
36
330
1E
100
AcDbEntity
  8
0
100
AcDbLine
 10
8.9
 20
0.399999999999996
 30
0.0
 11
12.0
 21
-0.0000000000000041
 31
0.0
  0
LINE
  5
37
330
1E
100
AcDbEntity
  8
0
100
AcDbLine
 10
8.9
 20
0.399999999999996
 30
0.0
 11
12.0
 21
-0.0000000000000041
 31
0.0
  0
LINE
  5
38
330
1E
100
AcDbEntity
  8
0
100
AcDbLine
 10
158.0
 20
0.2999999999999971
 30
0.0
 11
161.023
 21
0.741103999999997
 31
0.0
  0
LINE
  5
39
330
1E
100
AcDbEntity
  8
0
100
AcDbLine
 10
161.023
 20
0.741103999999997
 30
0.0
 11
163.8409999999999
 21
1.859399999999999
 31
0.0
  0
LINE
  5
3A
330
1E
100
AcDbEntity
  8
0
100
AcDbLine
 10
158.0
 20
0.2999999999999971
 30
0.0
 11
161.023
 21
0.741103999999997
 31
0.0
  0
LINE
  5
3B
330
1E
100
AcDbEntity
  8
0
100
AcDbLine
 10
85.0
 20
0.2999999999999971
 30
0.0
 11
158.0
 21
0.2999999999999971
 31
0.0
  0
LINE
  5
3C
330
1E
100
AcDbEntity
  8
0
100
AcDbLine
 10
161.0999999999999
 20
0.399999999999996
 30
0.0
 11
164.0
 21
1.6
 31
0.0
  0
LINE
  5
3D
330
1E
100
AcDbEntity
  8
0
100
AcDbLine
 10
85.0
 20
-0.0000000000000041
 30
0.0
 11
158.0
 21
-0.0000000000000041
 31
0.0
  0
LINE
  5
3E
330
1E
100
AcDbEntity
  8
0
100
AcDbLine
 10
161.0999999999999
 20
0.399999999999996
 30
0.0
 11
164.0
 21
1.6
 31
0.0
  0
LINE
  5
3F
330
1E
100
AcDbEntity
  8
0
100
AcDbLine
 10
166.3
 20
3.7
 30
0.0
 11
168.1409999999999
 21
6.15924
 31
0.0
  0
LINE
  5
40
330
1E
100
AcDbEntity
  8
0
100
AcDbLine
 10
163.8409999999999
 20
1.859399999999999
 30
0.0
 11
166.3
 21
3.7
 31
0.0
  0
LINE
  5
41
330
1E
100
AcDbEntity
  8
0
100
AcDbLine
 10
164.0
 20
1.6
 30
0.0
 11
166.5
 21
3.5
 31
0.0
  0
LINE
  5
42
330
1E
100
AcDbEntity
  8
0
100
AcDbLine
 10
166.5
 20
3.5
 30
0.0
 11
168.4
 21
6.0
 31
0.0
  0
LINE
  5
43
330
1E
100
AcDbEntity
  8
0
100
AcDbLine
 10
168.1409999999999
 20
6.15924
 30
0.0
 11
169.259
 21
8.976779999999997
 31
0.0
  0
LINE
  5
44
330
1E
100
AcDbEntity
  8
0
100
AcDbLine
 10
168.4
 20
6.0
 30
0.0
 11
169.5999999999999
 21
8.9
 31
0.0
  0
LINE
  5
45
330
1E
100
AcDbEntity
  8
0
100
AcDbLine
 10
12.0
 20
-0.0000000000000041
 30
0.0
 11
85.0
 21
-0.0000000000000041
 31
0.0
  0
LINE
  5
46
330
1E
100
AcDbEntity
  8
0
100
AcDbLine
 10
169.5999999999999
 20
8.9
 30
0.0
 11
170.0
 21
12.0
 31
0.0
  0
LINE
  5
47
330
1E
100
AcDbEntity
  8
0
100
AcDbLine
 10
1.859399999999999
 20
6.15924
 30
0.0
 11
3.7
 21
3.7
 31
0.0
  0
LINE
  5
48
330
1E
100
AcDbEntity
  8
0
100
AcDbLine
 10
1.6
 20
6.0
 30
0.0
 11
3.5
 21
3.5
 31
0.0
  0
LINE
  5
49
330
1E
100
AcDbEntity
  8
0
100
AcDbLine
 10
0.3000000000000011
 20
158.0
 30
0.0
 11
0.7411040000000011
 21
161.023
 31
0.0
  0
LINE
  5
4A
330
1E
100
AcDbEntity
  8
0
100
AcDbLine
 10
0.3000000000000011
 20
158.0
 30
0.0
 11
0.3000000000000011
 21
85.0
 31
0.0
  0
LINE
  5
4B
330
1E
100
AcDbEntity
  8
0
100
AcDbLine
 10
0.3000000000000011
 20
85.0
 30
0.0
 11
0.3000000000000011
 21
12.0
 31
0.0
  0
LINE
  5
4C
330
1E
100
AcDbEntity
  8
0
100
AcDbLine
 10
0.3000000000000011
 20
85.0
 30
0.0
 11
0.3000000000000011
 21
158.0
 31
0.0
  0
LINE
  5
4D
330
1E
100
AcDbEntity
  8
0
100
AcDbLine
 10
169.6999999999999
 20
12.0
 30
0.0
 11
169.6999999999999
 21
85.0
 31
0.0
  0
LINE
  5
4E
330
1E
100
AcDbEntity
  8
0
100
AcDbLine
 10
169.259
 20
8.976779999999997
 30
0.0
 11
169.6999999999999
 21
12.0
 31
0.0
  0
LINE
  5
4F
330
1E
100
AcDbEntity
  8
0
100
AcDbLine
 10
170.0
 20
12.0
 30
0.0
 11
170.0
 21
85.0
 31
0.0
  0
LINE
  5
50
330
1E
100
AcDbEntity
  8
0
100
AcDbLine
 10
0.7411040000000011
 20
8.976779999999997
 30
0.0
 11
1.859399999999999
 21
6.15924
 31
0.0
  0
LINE
  5
51
330
1E
100
AcDbEntity
  8
0
100
AcDbLine
 10
0.3000000000000011
 20
158.0
 30
0.0
 11
0.7411040000000011
 21
161.023
 31
0.0
  0
LINE
  5
52
330
1E
100
AcDbEntity
  8
0
100
AcDbLine
 10
1.859399999999999
 20
163.8409999999999
 30
0.0
 11
3.7
 21
166.3
 31
0.0
  0
LINE
  5
53
330
1E
100
AcDbEntity
  8
0
100
AcDbLine
 10
0.4000000000000011
 20
161.0999999999999
 30
0.0
 11
1.6
 21
164.0
 31
0.0
  0
LINE
  5
54
330
1E
100
AcDbEntity
  8
0
100
AcDbLine
 10
0.7411040000000011
 20
161.023
 30
0.0
 11
1.859399999999999
 21
163.8409999999999
 31
0.0
  0
LINE
  5
55
330
1E
100
AcDbEntity
  8
0
100
AcDbLine
 10
0.4000000000000011
 20
161.0999999999999
 30
0.0
 11
1.6
 21
164.0
 31
0.0
  0
LINE
  5
56
330
1E
100
AcDbEntity
  8
0
100
AcDbLine
 10
3.7
 20
166.3
 30
0.0
 11
6.15924
 21
168.1409999999999
 31
0.0
  0
LINE
  5
57
330
1E
100
AcDbEntity
  8
0
100
AcDbLine
 10
6.15924
 20
168.1409999999999
 30
0.0
 11
8.976779999999997
 21
169.259
 31
0.0
  0
LINE
  5
58
330
1E
100
AcDbEntity
  8
0
100
AcDbLine
 10
8.976779999999997
 20
169.259
 30
0.0
 11
12.0
 21
169.6999999999999
 31
0.0
  0
LINE
  5
59
330
1E
100
AcDbEntity
  8
0
100
AcDbLine
 10
12.0
 20
169.6999999999999
 30
0.0
 11
85.0
 21
169.6999999999999
 31
0.0
  0
LINE
  5
5A
330
1E
100
AcDbEntity
  8
0
100
AcDbLine
 10
12.0
 20
170.0
 30
0.0
 11
85.0
 21
170.0
 31
0.0
  0
LINE
  5
5B
330
1E
100
AcDbEntity
  8
0
100
AcDbLine
 10
12.0
 20
169.6999999999999
 30
0.0
 11
85.0
 21
169.6999999999999
 31
0.0
  0
LINE
  5
5C
330
1E
100
AcDbEntity
  8
0
100
AcDbLine
 10
8.9
 20
169.5999999999999
 30
0.0
 11
12.0
 21
170.0
 31
0.0
  0
LINE
  5
5D
330
1E
100
AcDbEntity
  8
0
100
AcDbLine
 10
12.0
 20
170.0
 30
0.0
 11
85.0
 21
170.0
 31
0.0
  0
LINE
  5
5E
330
1E
100
AcDbEntity
  8
0
100
AcDbLine
 10
6.0
 20
168.4
 30
0.0
 11
8.9
 21
169.5999999999999
 31
0.0
  0
LINE
  5
5F
330
1E
100
AcDbEntity
  8
0
100
AcDbLine
 10
3.5
 20
166.5
 30
0.0
 11
6.0
 21
168.4
 31
0.0
  0
LINE
  5
60
330
1E
100
AcDbEntity
  8
0
100
AcDbLine
 10
1.6
 20
164.0
 30
0.0
 11
3.5
 21
166.5
 31
0.0
  0
LINE
  5
61
330
1E
100
AcDbEntity
  8
0
100
AcDbLine
 10
71.6
 20
24.6
 30
0.0
 11
78.09999999999998
 21
22.0
 31
0.0
  0
LINE
  5
62
330
1E
100
AcDbEntity
  8
0
100
AcDbLine
 10
71.6
 20
24.6
 30
0.0
 11
78.09999999999998
 21
22.0
 31
0.0
  0
LINE
  5
63
330
1E
100
AcDbEntity
  8
0
100
AcDbLine
 10
65.9
 20
28.9
 30
0.0
 11
71.6
 21
24.6
 31
0.0
  0
LINE
  5
64
330
1E
100
AcDbEntity
  8
0
100
AcDbLine
 10
60.4
 20
23.39999999999999
 30
0.0
 11
67.7
 21
17.9
 31
0.0
  0
LINE
  5
65
330
1E
100
AcDbEntity
  8
0
100
AcDbLine
 10
67.7
 20
17.9
 30
0.0
 11
76.0
 21
14.5
 31
0.0
  0
LINE
  5
68
330
1E
100
AcDbEntity
  8
0
100
AcDbLine
 10
60.1
 20
23.1
 30
0.0
 11
67.5
 21
17.5
 31
0.0
  0
LINE
  5
69
330
1E
100
AcDbEntity
  8
0
100
AcDbLine
 10
67.5
 20
17.5
 30
0.0
 11
75.9
 21
14.1
 31
0.0
  0
LINE
  5
6A
330
1E
100
AcDbEntity
  8
0
100
AcDbLine
 10
85.0
 20
13.2
 30
0.0
 11
94.0
 21
14.5
 31
0.0
  0
LINE
  5
6D
330
1E
100
AcDbEntity
  8
0
100
AcDbLine
 10
94.1
 20
14.1
 30
0.0
 11
102.4999999999999
 21
17.5
 31
0.0
  0
LINE
  5
6E
330
1E
100
AcDbEntity
  8
0
100
AcDbLine
 10
85.0
 20
12.8
 30
0.0
 11
94.1
 21
14.1
 31
0.0
  0
LINE
  5
6F
330
1E
100
AcDbEntity
  8
0
100
AcDbLine
 10
94.0
 20
14.5
 30
0.0
 11
102.2999999999999
 21
17.9
 31
0.0
  0
LINE
  5
70
330
1E
100
AcDbEntity
  8
0
100
AcDbLine
 10
102.2999999999999
 20
17.9
 30
0.0
 11
109.5999999999999
 21
23.39999999999999
 31
0.0
  0
LINE
  5
72
330
1E
100
AcDbEntity
  8
0
100
AcDbLine
 10
102.4999999999999
 20
17.5
 30
0.0
 11
109.8999999999999
 21
23.1
 31
0.0
  0
LINE
  5
73
330
1E
100
AcDbEntity
  8
0
100
AcDbLine
 10
85.0
 20
21.0
 30
0.0
 11
91.90000000000001
 21
22.0
 31
0.0
  0
LINE
  5
74
330
1E
100
AcDbEntity
  8
0
100
AcDbLine
 10
91.90000000000001
 20
22.0
 30
0.0
 11
98.40000000000001
 21
24.6
 31
0.0
  0
LINE
  5
75
330
1E
100
AcDbEntity
  8
0
100
AcDbLine
 10
91.90000000000001
 20
22.0
 30
0.0
 11
98.40000000000001
 21
24.6
 31
0.0
  0
LINE
  5
76
330
1E
100
AcDbEntity
  8
0
100
AcDbLine
 10
85.0
 20
21.0
 30
0.0
 11
91.90000000000001
 21
22.0
 31
0.0
  0
LINE
  5
77
330
1E
100
AcDbEntity
  8
0
100
AcDbLine
 10
78.09999999999998
 20
22.0
 30
0.0
 11
85.0
 21
21.0
 31
0.0
  0
LINE
  5
78
330
1E
100
AcDbEntity
  8
0
100
AcDbLine
 10
98.40000000000001
 20
24.6
 30
0.0
 11
104.0999999999999
 21
28.9
 31
0.0
  0
LINE
  5
79
330
1E
100
AcDbEntity
  8
0
100
AcDbLine
 10
109.5999999999999
 20
23.39999999999999
 30
0.0
 11
115.1
 21
30.7
 31
0.0
  0
LINE
  5
7B
330
1E
100
AcDbEntity
  8
0
100
AcDbLine
 10
109.8999999999999
 20
23.1
 30
0.0
 11
115.5
 21
30.5
 31
0.0
  0
LINE
  5
7D
330
1E
100
AcDbEntity
  8
0
100
AcDbLine
 10
115.5
 20
30.5
 30
0.0
 11
118.9
 21
38.9
 31
0.0
  0
LINE
  5
7E
330
1E
100
AcDbEntity
  8
0
100
AcDbLine
 10
104.0999999999999
 20
28.9
 30
0.0
 11
108.4
 21
34.6
 31
0.0
  0
LINE
  5
7F
330
1E
100
AcDbEntity
  8
0
100
AcDbLine
 10
78.09999999999998
 20
22.0
 30
0.0
 11
85.0
 21
21.0
 31
0.0
  0
LINE
  5
80
330
1E
100
AcDbEntity
  8
0
100
AcDbLine
 10
76.0
 20
14.5
 30
0.0
 11
85.0
 21
13.2
 31
0.0
  0
LINE
  5
82
330
1E
100
AcDbEntity
  8
0
100
AcDbLine
 10
75.9
 20
14.1
 30
0.0
 11
85.0
 21
12.8
 31
0.0
  0
LINE
  5
83
330
1E
100
AcDbEntity
  8
0
100
AcDbLine
 10
115.1
 20
30.7
 30
0.0
 11
118.5
 21
39.0
 31
0.0
  0
LINE
  5
84
330
1E
100
AcDbEntity
  8
0
100
AcDbLine
 10
118.9
 20
38.9
 30
0.0
 11
120.1999999999999
 21
48.0
 31
0.0
  0
LINE
  5
85
330
1E
100
AcDbEntity
  8
0
100
AcDbLine
 10
108.4
 20
34.6
 30
0.0
 11
111.0
 21
41.1
 31
0.0
  0
LINE
  5
86
330
1E
100
AcDbEntity
  8
0
100
AcDbLine
 10
61.6
 20
34.6
 30
0.0
 11
65.9
 21
28.9
 31
0.0
  0
LINE
  5
87
330
1E
100
AcDbEntity
  8
0
100
AcDbLine
 10
61.6
 20
34.6
 30
0.0
 11
65.9
 21
28.9
 31
0.0
  0
LINE
  5
88
330
1E
100
AcDbEntity
  8
0
100
AcDbLine
 10
54.9
 20
30.7
 30
0.0
 11
60.4
 21
23.39999999999999
 31
0.0
  0
LINE
  5
8A
330
1E
100
AcDbEntity
  8
0
100
AcDbLine
 10
54.5
 20
30.5
 30
0.0
 11
60.1
 21
23.1
 31
0.0
  0
LINE
  5
8B
330
1E
100
AcDbEntity
  8
0
100
AcDbLine
 10
118.5
 20
39.0
 30
0.0
 11
119.7999999999999
 21
48.0
 31
0.0
  0
LINE
  5
8D
330
1E
100
AcDbEntity
  8
0
100
AcDbLine
 10
51.5
 20
39.0
 30
0.0
 11
54.9
 21
30.7
 31
0.0
  0
LINE
  5
8E
330
1E
100
AcDbEntity
  8
0
100
AcDbLine
 10
111.0
 20
41.1
 30
0.0
 11
112.0
 21
48.0
 31
0.0
  0
LINE
  5
8F
330
1E
100
AcDbEntity
  8
0
100
AcDbLine
 10
59.0
 20
41.1
 30
0.0
 11
61.6
 21
34.6
 31
0.0
  0
LINE
  5
90
330
1E
100
AcDbEntity
  8
0
100
AcDbLine
 10
51.5
 20
57.0
 30
0.0
 11
54.9
 21
65.3
 31
0.0
  0
LINE
  5
92
330
1E
100
AcDbEntity
  8
0
100
AcDbLine
 10
54.9
 20
65.3
 30
0.0
 11
60.4
 21
72.59999999999998
 31
0.0
  0
LINE
  5
94
330
1E
100
AcDbEntity
  8
0
100
AcDbLine
 10
54.5
 20
65.5
 30
0.0
 11
60.1
 21
72.9
 31
0.0
  0
LINE
  5
95
330
1E
100
AcDbEntity
  8
0
100
AcDbLine
 10
51.1
 20
57.1
 30
0.0
 11
54.5
 21
65.5
 31
0.0
  0
LINE
  5
96
330
1E
100
AcDbEntity
  8
0
100
AcDbLine
 10
61.6
 20
61.4
 30
0.0
 11
65.9
 21
67.09999999999999
 31
0.0
  0
LINE
  5
97
330
1E
100
AcDbEntity
  8
0
100
AcDbLine
 10
59.0
 20
54.9
 30
0.0
 11
61.6
 21
61.4
 31
0.0
  0
LINE
  5
98
330
1E
100
AcDbEntity
  8
0
100
AcDbLine
 10
65.9
 20
67.09999999999999
 30
0.0
 11
71.6
 21
71.4
 31
0.0
  0
LINE
  5
99
330
1E
100
AcDbEntity
  8
0
100
AcDbLine
 10
60.4
 20
72.59999999999998
 30
0.0
 11
67.7
 21
78.09999999999998
 31
0.0
  0
LINE
  5
9A
330
1E
100
AcDbEntity
  8
0
100
AcDbLine
 10
67.7
 20
78.09999999999998
 30
0.0
 11
76.0
 21
81.5
 31
0.0
  0
LINE
  5
9D
330
1E
100
AcDbEntity
  8
0
100
AcDbLine
 10
60.1
 20
72.9
 30
0.0
 11
67.5
 21
78.5
 31
0.0
  0
LINE
  5
9E
330
1E
100
AcDbEntity
  8
0
100
AcDbLine
 10
67.5
 20
104.4999999999999
 30
0.0
 11
72.7
 21
100.5
 31
0.0
  0
LINE
  5
A0
330
1E
100
AcDbEntity
  8
0
100
AcDbLine
 10
67.2
 20
104.2
 30
0.0
 11
72.5
 21
100.2
 31
0.0
  0
LINE
  5
A1
330
1E
100
AcDbEntity
  8
0
100
AcDbLine
 10
72.7
 20
100.5
 30
0.0
 11
78.59999999999998
 21
98.1
 31
0.0
  0
LINE
  5
A3
330
1E
100
AcDbEntity
  8
0
100
AcDbLine
 10
72.5
 20
100.2
 30
0.0
 11
78.5
 21
97.70000000000001
 31
0.0
  0
LINE
  5
A5
330
1E
100
AcDbEntity
  8
0
100
AcDbLine
 10
74.40000000000002
 20
111.4
 30
0.0
 11
77.40000000000001
 21
109.0
 31
0.0
  0
LINE
  5
A6
330
1E
100
AcDbEntity
  8
0
100
AcDbLine
 10
72.0
 20
114.4
 30
0.0
 11
74.40000000000002
 21
111.4
 31
0.0
  0
LINE
  5
A8
330
1E
100
AcDbEntity
  8
0
100
AcDbLine
 10
63.5
 20
109.6999999999999
 30
0.0
 11
67.5
 21
104.4999999999999
 31
0.0
  0
LINE
  5
AA
330
1E
100
AcDbEntity
  8
0
100
AcDbLine
 10
63.2
 20
109.4999999999999
 30
0.0
 11
67.2
 21
104.2
 31
0.0
  0
LINE
  5
AB
330
1E
100
AcDbEntity
  8
0
100
AcDbLine
 10
61.1
 20
115.5999999999999
 30
0.0
 11
63.5
 21
109.6999999999999
 31
0.0
  0
LINE
  5
AC
330
1E
100
AcDbEntity
  8
0
100
AcDbLine
 10
70.0
 20
122.0
 30
0.0
 11
70.5
 21
118.1
 31
0.0
  0
LINE
  5
AD
330
1E
100
AcDbEntity
  8
0
100
AcDbLine
 10
70.0
 20
122.0
 30
0.0
 11
70.5
 21
125.9
 31
0.0
  0
LINE
  5
B1
330
1E
100
AcDbEntity
  8
0
100
AcDbLine
 10
70.5
 20
118.1
 30
0.0
 11
72.0
 21
114.4
 31
0.0
  0
LINE
  5
B4
330
1E
100
AcDbEntity
  8
0
100
AcDbLine
 10
61.1
 20
128.4
 30
0.0
 11
63.5
 21
134.3
 31
0.0
  0
LINE
  5
B6
330
1E
100
AcDbEntity
  8
0
100
AcDbLine
 10
63.5
 20
134.3
 30
0.0
 11
67.5
 21
139.5
 31
0.0
  0
LINE
  5
B8
330
1E
100
AcDbEntity
  8
0
100
AcDbLine
 10
63.2
 20
134.4999999999999
 30
0.0
 11
67.2
 21
139.8
 31
0.0
  0
LINE
  5
B9
330
1E
100
AcDbEntity
  8
0
100
AcDbLine
 10
60.7
 20
128.4999999999999
 30
0.0
 11
63.2
 21
134.4999999999999
 31
0.0
  0
LINE
  5
BC
330
1E
100
AcDbEntity
  8
0
100
AcDbLine
 10
67.5
 20
139.5
 30
0.0
 11
72.7
 21
143.5
 31
0.0
  0
LINE
  5
BE
330
1E
100
AcDbEntity
  8
0
100
AcDbLine
 10
67.2
 20
139.8
 30
0.0
 11
72.5
 21
143.8
 31
0.0
  0
LINE
  5
C0
330
1E
100
AcDbEntity
  8
0
100
AcDbLine
 10
72.7
 20
143.5
 30
0.0
 11
78.59999999999998
 21
145.9
 31
0.0
  0
LINE
  5
C2
330
1E
100
AcDbEntity
  8
0
100
AcDbLine
 10
72.5
 20
143.8
 30
0.0
 11
78.5
 21
146.3
 31
0.0
  0
LINE
  5
C3
330
1E
100
AcDbEntity
  8
0
100
AcDbLine
 10
72.0
 20
129.6
 30
0.0
 11
74.40000000000002
 21
132.6
 31
0.0
  0
LINE
  5
C4
330
1E
100
AcDbEntity
  8
0
100
AcDbLine
 10
70.5
 20
125.9
 30
0.0
 11
72.0
 21
129.6
 31
0.0
  0
LINE
  5
C5
330
1E
100
AcDbEntity
  8
0
100
AcDbLine
 10
74.40000000000002
 20
132.6
 30
0.0
 11
77.40000000000001
 21
135.0
 31
0.0
  0
LINE
  5
C8
330
1E
100
AcDbEntity
  8
0
100
AcDbLine
 10
60.2
 20
122.0
 30
0.0
 11
61.1
 21
115.5999999999999
 31
0.0
  0
LINE
  5
C9
330
1E
100
AcDbEntity
  8
0
100
AcDbLine
 10
60.2
 20
122.0
 30
0.0
 11
61.1
 21
128.4
 31
0.0
  0
LINE
  5
CD
330
1E
100
AcDbEntity
  8
0
100
AcDbLine
 10
60.7
 20
115.5
 30
0.0
 11
63.2
 21
109.4999999999999
 31
0.0
  0
LINE
  5
CE
330
1E
100
AcDbEntity
  8
0
100
AcDbLine
 10
59.8
 20
122.0
 30
0.0
 11
60.7
 21
115.5
 31
0.0
  0
LINE
  5
CF
330
1E
100
AcDbEntity
  8
0
100
AcDbLine
 10
59.8
 20
122.0
 30
0.0
 11
60.7
 21
128.4999999999999
 31
0.0
  0
LINE
  5
D0
330
1E
100
AcDbEntity
  8
0
100
AcDbLine
 10
67.5
 20
78.5
 30
0.0
 11
75.9
 21
81.90000000000003
 31
0.0
  0
LINE
  5
D1
330
1E
100
AcDbEntity
  8
0
100
AcDbLine
 10
76.0
 20
81.5
 30
0.0
 11
85.0
 21
82.79999999999999
 31
0.0
  0
LINE
  5
D3
330
1E
100
AcDbEntity
  8
0
100
AcDbLine
 10
77.40000000000001
 20
135.0
 30
0.0
 11
81.09999999999997
 21
136.4999999999999
 31
0.0
  0
LINE
  5
D7
330
1E
100
AcDbEntity
  8
0
100
AcDbLine
 10
77.40000000000001
 20
109.0
 30
0.0
 11
81.09999999999997
 21
107.4999999999999
 31
0.0
  0
LINE
  5
D9
330
1E
100
AcDbEntity
  8
0
100
AcDbLine
 10
75.9
 20
81.90000000000003
 30
0.0
 11
85.0
 21
83.2
 31
0.0
  0
LINE
  5
DA
330
1E
100
AcDbEntity
  8
0
100
AcDbLine
 10
71.6
 20
71.4
 30
0.0
 11
78.09999999999998
 21
74.0
 31
0.0
  0
LINE
  5
DB
330
1E
100
AcDbEntity
  8
0
100
AcDbLine
 10
104.0999999999999
 20
67.09999999999999
 30
0.0
 11
108.4
 21
61.4
 31
0.0
  0
LINE
  5
DC
330
1E
100
AcDbEntity
  8
0
100
AcDbLine
 10
118.5
 20
57.0
 30
0.0
 11
119.7999999999999
 21
48.0
 31
0.0
  0
LINE
  5
DE
330
1E
100
AcDbEntity
  8
0
100
AcDbLine
 10
109.5999999999999
 20
72.59999999999998
 30
0.0
 11
115.1
 21
65.3
 31
0.0
  0
LINE
  5
DF
330
1E
100
AcDbEntity
  8
0
100
AcDbLine
 10
115.1
 20
65.3
 30
0.0
 11
118.5
 21
57.0
 31
0.0
  0
LINE
  5
E2
330
1E
100
AcDbEntity
  8
0
100
AcDbLine
 10
109.8999999999999
 20
72.9
 30
0.0
 11
115.5
 21
65.5
 31
0.0
  0
LINE
  5
E3
330
1E
100
AcDbEntity
  8
0
100
AcDbLine
 10
115.5
 20
65.5
 30
0.0
 11
118.9
 21
57.1
 31
0.0
  0
LINE
  5
E4
330
1E
100
AcDbEntity
  8
0
100
AcDbLine
 10
118.9
 20
57.1
 30
0.0
 11
120.1999999999999
 21
48.0
 31
0.0
  0
LINE
  5
E5
330
1E
100
AcDbEntity
  8
0
100
AcDbLine
 10
108.4
 20
61.4
 30
0.0
 11
111.0
 21
54.9
 31
0.0
  0
LINE
  5
E6
330
1E
100
AcDbEntity
  8
0
100
AcDbLine
 10
111.0
 20
54.9
 30
0.0
 11
112.0
 21
48.0
 31
0.0
  0
LINE
  5
E7
330
1E
100
AcDbEntity
  8
0
100
AcDbLine
 10
98.40000000000001
 20
71.4
 30
0.0
 11
104.0999999999999
 21
67.09999999999999
 31
0.0
  0
LINE
  5
E8
330
1E
100
AcDbEntity
  8
0
100
AcDbLine
 10
91.90000000000001
 20
74.0
 30
0.0
 11
98.40000000000001
 21
71.4
 31
0.0
  0
LINE
  5
E9
330
1E
100
AcDbEntity
  8
0
100
AcDbLine
 10
90.0
 20
74.27536231884059
 30
0.0
 11
90.0
 21
80.7
 31
0.0
  0
LINE
  5
EA
330
1E
100
AcDbEntity
  8
0
100
AcDbLine
 10
78.59999999999998
 20
145.9
 30
0.0
 11
85.0
 21
146.8
 31
0.0
  0
LINE
  5
EC
330
1E
100
AcDbEntity
  8
0
100
AcDbLine
 10
78.5
 20
146.3
 30
0.0
 11
85.0
 21
147.1999999999999
 31
0.0
  0
LINE
  5
ED
330
1E
100
AcDbEntity
  8
0
100
AcDbLine
 10
78.59999999999998
 20
98.1
 30
0.0
 11
85.0
 21
97.2
 31
0.0
  0
LINE
  5
EF
330
1E
100
AcDbEntity
  8
0
100
AcDbLine
 10
78.5
 20
97.70000000000001
 30
0.0
 11
85.0
 21
96.79999999999999
 31
0.0
  0
LINE
  5
F0
330
1E
100
AcDbEntity
  8
0
100
AcDbLine
 10
81.46300000000001
 20
80.7
 30
0.0
 11
82.51850000000002
 21
80.7
 31
0.0
  0
LINE
  5
F1
330
1E
100
AcDbEntity
  8
0
100
AcDbLine
 10
85.0
 20
75.0
 30
0.0
 11
91.90000000000001
 21
74.0
 31
0.0
  0
LINE
  5
F2
330
1E
100
AcDbEntity
  8
0
100
AcDbLine
 10
88.53700000000001
 20
80.7
 30
0.0
 11
89.33329999999997
 21
80.7
 31
0.0
  0
LINE
  5
F3
330
1E
100
AcDbEntity
  8
0
100
AcDbLine
 10
89.33329999999997
 20
80.7
 30
0.0
 11
89.81480000000003
 21
80.7
 31
0.0
  0
LINE
  5
F4
330
1E
100
AcDbEntity
  8
0
100
AcDbLine
 10
89.81480000000003
 20
80.7
 30
0.0
 11
90.0
 21
80.7
 31
0.0
  0
LINE
  5
F5
330
1E
100
AcDbEntity
  8
0
100
AcDbLine
 10
102.2999999999999
 20
78.09999999999998
 30
0.0
 11
109.5999999999999
 21
72.59999999999998
 31
0.0
  0
LINE
  5
F7
330
1E
100
AcDbEntity
  8
0
100
AcDbLine
 10
102.4999999999999
 20
78.5
 30
0.0
 11
109.8999999999999
 21
72.9
 31
0.0
  0
LINE
  5
F8
330
1E
100
AcDbEntity
  8
0
100
AcDbLine
 10
90.0
 20
80.7
 30
0.0
 11
90.0
 21
74.27536231884059
 31
0.0
  0
LINE
  5
F9
330
1E
100
AcDbEntity
  8
0
100
AcDbLine
 10
87.4815
 20
80.7
 30
0.0
 11
88.53700000000001
 21
80.7
 31
0.0
  0
LINE
  5
FA
330
1E
100
AcDbEntity
  8
0
100
AcDbLine
 10
86.27779999999999
 20
80.7
 30
0.0
 11
87.4815
 21
80.7
 31
0.0
  0
LINE
  5
FB
330
1E
100
AcDbEntity
  8
0
100
AcDbLine
 10
85.0
 20
80.7
 30
0.0
 11
86.27779999999999
 21
80.7
 31
0.0
  0
LINE
  5
FC
330
1E
100
AcDbEntity
  8
0
100
AcDbLine
 10
82.51850000000002
 20
80.7
 30
0.0
 11
83.7222
 21
80.7
 31
0.0
  0
LINE
  5
FD
330
1E
100
AcDbEntity
  8
0
100
AcDbLine
 10
83.7222
 20
80.7
 30
0.0
 11
85.0
 21
80.7
 31
0.0
  0
LINE
  5
FE
330
1E
100
AcDbEntity
  8
0
100
AcDbLine
 10
80.6667
 20
80.7
 30
0.0
 11
81.46300000000001
 21
80.7
 31
0.0
  0
LINE
  5
FF
330
1E
100
AcDbEntity
  8
0
100
AcDbLine
 10
89.6296
 20
80.90000000000001
 30
0.0
 11
89.9074
 21
80.8
 31
0.0
  0
LINE
  5
100
330
1E
100
AcDbEntity
  8
0
100
AcDbLine
 10
89.9074
 20
80.8
 30
0.0
 11
90.0
 21
80.7
 31
0.0
  0
LINE
  5
102
330
1E
100
AcDbEntity
  8
0
100
AcDbLine
 10
81.09999999999997
 20
136.4999999999999
 30
0.0
 11
85.0
 21
137.0
 31
0.0
  0
LINE
  5
105
330
1E
100
AcDbEntity
  8
0
100
AcDbLine
 10
81.09999999999997
 20
136.4999999999999
 30
0.0
 11
83.0
 21
136.7435897435898
 31
0.0
  0
LINE
  5
107
330
1E
100
AcDbEntity
  8
0
100
AcDbLine
 10
81.09999999999997
 20
107.4999999999999
 30
0.0
 11
85.0
 21
107.0
 31
0.0
  0
LINE
  5
108
330
1E
100
AcDbEntity
  8
0
100
AcDbLine
 10
82.2222
 20
81.0
 30
0.0
 11
82.31480000000003
 21
81.0
 31
0.0
  0
LINE
  5
109
330
1E
100
AcDbEntity
  8
0
100
AcDbLine
 10
83.037
 20
81.0
 30
0.0
 11
83.5926
 21
81.0
 31
0.0
  0
LINE
  5
10A
330
1E
100
AcDbEntity
  8
0
100
AcDbLine
 10
83.5926
 20
81.0
 30
0.0
 11
84.2778
 21
81.0
 31
0.0
  0
LINE
  5
10B
330
1E
100
AcDbEntity
  8
0
100
AcDbLine
 10
86.96299999999999
 20
81.0
 30
0.0
 11
87.77779999999998
 21
81.0
 31
0.0
  0
LINE
  5
10C
330
1E
100
AcDbEntity
  8
0
100
AcDbLine
 10
87.6852
 20
81.0
 30
0.0
 11
87.77779999999998
 21
81.0
 31
0.0
  0
LINE
  5
10D
330
1E
100
AcDbEntity
  8
0
100
AcDbLine
 10
87.77779999999998
 20
81.0
 30
0.0
 11
89.6296
 21
80.90000000000001
 31
0.0
  0
LINE
  5
10E
330
1E
100
AcDbEntity
  8
0
100
AcDbLine
 10
86.40739999999999
 20
81.0
 30
0.0
 11
86.96299999999999
 21
81.0
 31
0.0
  0
LINE
  5
10F
330
1E
100
AcDbEntity
  8
0
100
AcDbLine
 10
85.72219999999999
 20
81.0
 30
0.0
 11
86.40739999999999
 21
81.0
 31
0.0
  0
LINE
  5
110
330
1E
100
AcDbEntity
  8
0
100
AcDbLine
 10
85.0
 20
81.0
 30
0.0
 11
85.72219999999999
 21
81.0
 31
0.0
  0
LINE
  5
111
330
1E
100
AcDbEntity
  8
0
100
AcDbLine
 10
84.2778
 20
81.0
 30
0.0
 11
85.0
 21
81.0
 31
0.0
  0
LINE
  5
112
330
1E
100
AcDbEntity
  8
0
100
AcDbLine
 10
83.0
 20
140.8499999999999
 30
0.0
 11
83.0741
 21
140.8499999999999
 31
0.0
  0
LINE
  5
113
330
1E
100
AcDbEntity
  8
0
100
AcDbLine
 10
83.0
 20
140.8499999999999
 30
0.0
 11
83.037
 21
140.8999999999998
 31
0.0
  0
LINE
  5
114
330
1E
100
AcDbEntity
  8
0
100
AcDbLine
 10
83.0
 20
140.8499999999999
 30
0.0
 11
83.0
 21
136.7435897435898
 31
0.0
  0
LINE
  5
115
330
1E
100
AcDbEntity
  8
0
100
AcDbLine
 10
83.5852
 20
140.8499999999999
 30
0.0
 11
84.0074
 21
140.8499999999999
 31
0.0
  0
LINE
  5
116
330
1E
100
AcDbEntity
  8
0
100
AcDbLine
 10
85.0
 20
82.79999999999999
 30
0.0
 11
94.0
 21
81.5
 31
0.0
  0
LINE
  5
118
330
1E
100
AcDbEntity
  8
0
100
AcDbLine
 10
85.0
 20
97.2
 30
0.0
 11
91.4
 21
98.1
 31
0.0
  0
LINE
  5
11A
330
1E
100
AcDbEntity
  8
0
100
AcDbLine
 10
85.0
 20
96.79999999999999
 30
0.0
 11
91.5
 21
97.70000000000001
 31
0.0
  0
LINE
  5
11D
330
1E
100
AcDbEntity
  8
0
100
AcDbLine
 10
85.0
 20
137.0
 30
0.0
 11
88.9
 21
136.4999999999999
 31
0.0
  0
LINE
  5
11F
330
1E
100
AcDbEntity
  8
0
100
AcDbLine
 10
85.0
 20
83.2
 30
0.0
 11
94.1
 21
81.90000000000003
 31
0.0
  0
LINE
  5
120
330
1E
100
AcDbEntity
  8
0
100
AcDbLine
 10
86.41479999999999
 20
140.8499999999999
 30
0.0
 11
86.73329999999998
 21
140.8499999999999
 31
0.0
  0
LINE
  5
122
330
1E
100
AcDbEntity
  8
0
100
AcDbLine
 10
87.0
 20
136.7435897435898
 30
0.0
 11
87.0
 21
140.8499999999999
 31
0.0
  0
LINE
  5
123
330
1E
100
AcDbEntity
  8
0
100
AcDbLine
 10
86.73329999999998
 20
140.8499999999999
 30
0.0
 11
86.9259
 21
140.8499999999999
 31
0.0
  0
LINE
  5
124
330
1E
100
AcDbEntity
  8
0
100
AcDbLine
 10
86.9259
 20
140.8499999999999
 30
0.0
 11
87.0
 21
140.8499999999999
 31
0.0
  0
LINE
  5
125
330
1E
100
AcDbEntity
  8
0
100
AcDbLine
 10
94.0
 20
81.5
 30
0.0
 11
102.2999999999999
 21
78.09999999999998
 31
0.0
  0
LINE
  5
127
330
1E
100
AcDbEntity
  8
0
100
AcDbLine
 10
94.1
 20
81.90000000000003
 30
0.0
 11
102.4999999999999
 21
78.5
 31
0.0
  0
LINE
  5
128
330
1E
100
AcDbEntity
  8
0
100
AcDbLine
 10
169.6999999999999
 20
85.0
 30
0.0
 11
169.6999999999999
 21
158.0
 31
0.0
  0
LINE
  5
129
330
1E
100
AcDbEntity
  8
0
100
AcDbLine
 10
169.6999999999999
 20
85.0
 30
0.0
 11
169.6999999999999
 21
12.0
 31
0.0
  0
LINE
  5
12B
330
1E
100
AcDbEntity
  8
0
100
AcDbLine
 10
91.4
 20
98.1
 30
0.0
 11
97.3
 21
100.5
 31
0.0
  0
LINE
  5
12D
330
1E
100
AcDbEntity
  8
0
100
AcDbLine
 10
97.3
 20
100.5
 30
0.0
 11
102.4999999999999
 21
104.4999999999999
 31
0.0
  0
LINE
  5
12F
330
1E
100
AcDbEntity
  8
0
100
AcDbLine
 10
97.5
 20
100.2
 30
0.0
 11
102.8
 21
104.2
 31
0.0
  0
LINE
  5
130
330
1E
100
AcDbEntity
  8
0
100
AcDbLine
 10
91.5
 20
97.70000000000001
 30
0.0
 11
97.5
 21
100.2
 31
0.0
  0
LINE
  5
134
330
1E
100
AcDbEntity
  8
0
100
AcDbLine
 10
92.59999999999999
 20
109.0
 30
0.0
 11
95.6
 21
111.4
 31
0.0
  0
LINE
  5
135
330
1E
100
AcDbEntity
  8
0
100
AcDbLine
 10
88.9
 20
107.4999999999999
 30
0.0
 11
92.59999999999999
 21
109.0
 31
0.0
  0
LINE
  5
13A
330
1E
100
AcDbEntity
  8
0
100
AcDbLine
 10
95.6
 20
132.6
 30
0.0
 11
98.0
 21
129.6
 31
0.0
  0
LINE
  5
13D
330
1E
100
AcDbEntity
  8
0
100
AcDbLine
 10
98.0
 20
129.6
 30
0.0
 11
99.50000000000001
 21
125.9
 31
0.0
  0
LINE
  5
140
330
1E
100
AcDbEntity
  8
0
100
AcDbLine
 10
92.59999999999999
 20
135.0
 30
0.0
 11
95.6
 21
132.6
 31
0.0
  0
LINE
  5
141
330
1E
100
AcDbEntity
  8
0
100
AcDbLine
 10
88.9
 20
136.4999999999999
 30
0.0
 11
92.59999999999999
 21
135.0
 31
0.0
  0
LINE
  5
143
330
1E
100
AcDbEntity
  8
0
100
AcDbLine
 10
99.50000000000001
 20
125.9
 30
0.0
 11
100.0
 21
122.0
 31
0.0
  0
LINE
  5
145
330
1E
100
AcDbEntity
  8
0
100
AcDbLine
 10
95.6
 20
111.4
 30
0.0
 11
98.0
 21
114.4
 31
0.0
  0
LINE
  5
146
330
1E
100
AcDbEntity
  8
0
100
AcDbLine
 10
102.4999999999999
 20
104.4999999999999
 30
0.0
 11
106.4999999999999
 21
109.6999999999999
 31
0.0
  0
LINE
  5
148
330
1E
100
AcDbEntity
  8
0
100
AcDbLine
 10
102.8
 20
104.2
 30
0.0
 11
106.8
 21
109.4999999999999
 31
0.0
  0
LINE
  5
149
330
1E
100
AcDbEntity
  8
0
100
AcDbLine
 10
106.4999999999999
 20
109.6999999999999
 30
0.0
 11
108.9
 21
115.5999999999999
 31
0.0
  0
LINE
  5
14A
330
1E
100
AcDbEntity
  8
0
100
AcDbLine
 10
108.9
 20
115.5999999999999
 30
0.0
 11
109.8
 21
122.0
 31
0.0
  0
LINE
  5
14D
330
1E
100
AcDbEntity
  8
0
100
AcDbLine
 10
106.8
 20
109.4999999999999
 30
0.0
 11
109.2999999999999
 21
115.5
 31
0.0
  0
LINE
  5
14E
330
1E
100
AcDbEntity
  8
0
100
AcDbLine
 10
109.2999999999999
 20
115.5
 30
0.0
 11
110.2
 21
122.0
 31
0.0
  0
LINE
  5
14F
330
1E
100
AcDbEntity
  8
0
100
AcDbLine
 10
108.9
 20
128.4
 30
0.0
 11
109.8
 21
122.0
 31
0.0
  0
LINE
  5
151
330
1E
100
AcDbEntity
  8
0
100
AcDbLine
 10
102.4999999999999
 20
139.5
 30
0.0
 11
106.4999999999999
 21
134.3
 31
0.0
  0
LINE
  5
152
330
1E
100
AcDbEntity
  8
0
100
AcDbLine
 10
106.4999999999999
 20
134.3
 30
0.0
 11
108.9
 21
128.4
 31
0.0
  0
LINE
  5
155
330
1E
100
AcDbEntity
  8
0
100
AcDbLine
 10
102.8
 20
139.8
 30
0.0
 11
106.8
 21
134.4999999999999
 31
0.0
  0
LINE
  5
156
330
1E
100
AcDbEntity
  8
0
100
AcDbLine
 10
106.8
 20
134.4999999999999
 30
0.0
 11
109.2999999999999
 21
128.4999999999999
 31
0.0
  0
LINE
  5
157
330
1E
100
AcDbEntity
  8
0
100
AcDbLine
 10
109.2999999999999
 20
128.4999999999999
 30
0.0
 11
110.2
 21
122.0
 31
0.0
  0
LINE
  5
15A
330
1E
100
AcDbEntity
  8
0
100
AcDbLine
 10
99.50000000000001
 20
118.1
 30
0.0
 11
100.0
 21
122.0
 31
0.0
  0
LINE
  5
15B
330
1E
100
AcDbEntity
  8
0
100
AcDbLine
 10
170.0
 20
85.0
 30
0.0
 11
170.0
 21
158.0
 31
0.0
  0
LINE
  5
15C
330
1E
100
AcDbEntity
  8
0
100
AcDbLine
 10
170.0
 20
85.0
 30
0.0
 11
170.0
 21
12.0
 31
0.0
  0
LINE
  5
15D
330
1E
100
AcDbEntity
  8
0
100
AcDbLine
 10
87.0
 20
140.8499999999999
 30
0.0
 11
87.0
 21
136.7435897435898
 31
0.0
  0
LINE
  5
15E
330
1E
100
AcDbEntity
  8
0
100
AcDbLine
 10
85.99259999999999
 20
140.8499999999999
 30
0.0
 11
86.41479999999999
 21
140.8499999999999
 31
0.0
  0
LINE
  5
15F
330
1E
100
AcDbEntity
  8
0
100
AcDbLine
 10
85.51109999999999
 20
140.8499999999999
 30
0.0
 11
85.99259999999999
 21
140.8499999999999
 31
0.0
  0
LINE
  5
160
330
1E
100
AcDbEntity
  8
0
100
AcDbLine
 10
85.0
 20
140.8499999999999
 30
0.0
 11
85.51109999999999
 21
140.8499999999999
 31
0.0
  0
LINE
  5
161
330
1E
100
AcDbEntity
  8
0
100
AcDbLine
 10
84.0074
 20
140.8499999999999
 30
0.0
 11
84.4889
 21
140.8499999999999
 31
0.0
  0
LINE
  5
162
330
1E
100
AcDbEntity
  8
0
100
AcDbLine
 10
84.4889
 20
140.8499999999999
 30
0.0
 11
85.0
 21
140.8499999999999
 31
0.0
  0
LINE
  5
163
330
1E
100
AcDbEntity
  8
0
100
AcDbLine
 10
83.2667
 20
140.8499999999999
 30
0.0
 11
83.5852
 21
140.8499999999999
 31
0.0
  0
LINE
  5
164
330
1E
100
AcDbEntity
  8
0
100
AcDbLine
 10
84.2148
 20
141.0
 30
0.0
 11
84.43700000000003
 21
141.0
 31
0.0
  0
LINE
  5
165
330
1E
100
AcDbEntity
  8
0
100
AcDbLine
 10
85.78520000000002
 20
141.0
 30
0.0
 11
85.96299999999997
 21
141.0
 31
0.0
  0
LINE
  5
166
330
1E
100
AcDbEntity
  8
0
100
AcDbLine
 10
85.96299999999997
 20
141.0
 30
0.0
 11
86.07409999999999
 21
141.0
 31
0.0
  0
LINE
  5
167
330
1E
100
AcDbEntity
  8
0
100
AcDbLine
 10
86.1111
 20
141.0
 30
0.0
 11
86.8519
 21
140.9499999999999
 31
0.0
  0
LINE
  5
168
330
1E
100
AcDbEntity
  8
0
100
AcDbLine
 10
86.8519
 20
140.9499999999999
 30
0.0
 11
86.96299999999999
 21
140.8999999999998
 31
0.0
  0
LINE
  5
169
330
1E
100
AcDbEntity
  8
0
100
AcDbLine
 10
86.96299999999999
 20
140.8999999999998
 30
0.0
 11
87.0
 21
140.8499999999999
 31
0.0
  0
LINE
  5
16A
330
1E
100
AcDbEntity
  8
0
100
AcDbLine
 10
85.56299999999998
 20
141.0
 30
0.0
 11
85.78520000000002
 21
141.0
 31
0.0
  0
LINE
  5
16B
330
1E
100
AcDbEntity
  8
0
100
AcDbLine
 10
85.2889
 20
141.0
 30
0.0
 11
85.56299999999998
 21
141.0
 31
0.0
  0
LINE
  5
16C
330
1E
100
AcDbEntity
  8
0
100
AcDbLine
 10
85.0
 20
141.0
 30
0.0
 11
85.2889
 21
141.0
 31
0.0
  0
LINE
  5
16D
330
1E
100
AcDbEntity
  8
0
100
AcDbLine
 10
84.43700000000003
 20
141.0
 30
0.0
 11
84.71110000000001
 21
141.0
 31
0.0
  0
LINE
  5
16E
330
1E
100
AcDbEntity
  8
0
100
AcDbLine
 10
84.71110000000001
 20
141.0
 30
0.0
 11
85.0
 21
141.0
 31
0.0
  0
LINE
  5
16F
330
1E
100
AcDbEntity
  8
0
100
AcDbLine
 10
84.037
 20
141.0
 30
0.0
 11
84.2148
 21
141.0
 31
0.0
  0
LINE
  5
170
330
1E
100
AcDbEntity
  8
0
100
AcDbLine
 10
83.9259
 20
141.0
 30
0.0
 11
84.037
 21
141.0
 31
0.0
  0
LINE
  5
171
330
1E
100
AcDbEntity
  8
0
100
AcDbLine
 10
83.14809999999999
 20
140.9499999999999
 30
0.0
 11
83.88890000000001
 21
141.0
 31
0.0
  0
LINE
  5
172
330
1E
100
AcDbEntity
  8
0
100
AcDbLine
 10
91.4
 20
145.9
 30
0.0
 11
97.3
 21
143.5
 31
0.0
  0
LINE
  5
173
330
1E
100
AcDbEntity
  8
0
100
AcDbLine
 10
85.0
 20
146.8
 30
0.0
 11
91.4
 21
145.9
 31
0.0
  0
LINE
  5
176
330
1E
100
AcDbEntity
  8
0
100
AcDbLine
 10
97.3
 20
143.5
 30
0.0
 11
102.4999999999999
 21
139.5
 31
0.0
  0
LINE
  5
178
330
1E
100
AcDbEntity
  8
0
100
AcDbLine
 10
97.5
 20
143.8
 30
0.0
 11
102.8
 21
139.8
 31
0.0
  0
LINE
  5
179
330
1E
100
AcDbEntity
  8
0
100
AcDbLine
 10
91.5
 20
146.3
 30
0.0
 11
97.5
 21
143.8
 31
0.0
  0
LINE
  5
17A
330
1E
100
AcDbEntity
  8
0
100
AcDbLine
 10
85.0
 20
147.1999999999999
 30
0.0
 11
91.5
 21
146.3
 31
0.0
  0
LINE
  5
17B
330
1E
100
AcDbEntity
  8
0
100
AcDbLine
 10
163.8409999999999
 20
168.1409999999999
 30
0.0
 11
166.3
 21
166.3
 31
0.0
  0
LINE
  5
17C
330
1E
100
AcDbEntity
  8
0
100
AcDbLine
 10
161.023
 20
169.259
 30
0.0
 11
163.8409999999999
 21
168.1409999999999
 31
0.0
  0
LINE
  5
17D
330
1E
100
AcDbEntity
  8
0
100
AcDbLine
 10
166.3
 20
166.3
 30
0.0
 11
168.1409999999999
 21
163.8409999999999
 31
0.0
  0
LINE
  5
17E
330
1E
100
AcDbEntity
  8
0
100
AcDbLine
 10
168.1409999999999
 20
163.8409999999999
 30
0.0
 11
169.259
 21
161.023
 31
0.0
  0
LINE
  5
17F
330
1E
100
AcDbEntity
  8
0
100
AcDbLine
 10
166.5
 20
166.5
 30
0.0
 11
168.4
 21
164.0
 31
0.0
  0
LINE
  5
180
330
1E
100
AcDbEntity
  8
0
100
AcDbLine
 10
164.0
 20
168.4
 30
0.0
 11
166.5
 21
166.5
 31
0.0
  0
LINE
  5
181
330
1E
100
AcDbEntity
  8
0
100
AcDbLine
 10
85.0
 20
169.6999999999999
 30
0.0
 11
158.0
 21
169.6999999999999
 31
0.0
  0
LINE
  5
182
330
1E
100
AcDbEntity
  8
0
100
AcDbLine
 10
158.0
 20
169.6999999999999
 30
0.0
 11
161.023
 21
169.259
 31
0.0
  0
LINE
  5
183
330
1E
100
AcDbEntity
  8
0
100
AcDbLine
 10
158.0
 20
170.0
 30
0.0
 11
161.0999999999999
 21
169.5999999999999
 31
0.0
  0
LINE
  5
184
330
1E
100
AcDbEntity
  8
0
100
AcDbLine
 10
85.0
 20
170.0
 30
0.0
 11
158.0
 21
170.0
 31
0.0
  0
LINE
  5
185
330
1E
100
AcDbEntity
  8
0
100
AcDbLine
 10
161.0999999999999
 20
169.5999999999999
 30
0.0
 11
164.0
 21
168.4
 31
0.0
  0
LINE
  5
186
330
1E
100
AcDbEntity
  8
0
100
AcDbLine
 10
169.6999999999999
 20
158.0
 30
0.0
 11
169.6999999999999
 21
85.0
 31
0.0
  0
LINE
  5
187
330
1E
100
AcDbEntity
  8
0
100
AcDbLine
 10
169.259
 20
161.023
 30
0.0
 11
169.6999999999999
 21
158.0
 31
0.0
  0
LINE
  5
188
330
1E
100
AcDbEntity
  8
0
100
AcDbLine
 10
169.5999999999999
 20
161.0999999999999
 30
0.0
 11
170.0
 21
158.0
 31
0.0
  0
LINE
  5
189
330
1E
100
AcDbEntity
  8
0
100
AcDbLine
 10
170.0
 20
158.0
 30
0.0
 11
170.0
 21
85.0
 31
0.0
  0
LINE
  5
18A
330
1E
100
AcDbEntity
  8
0
100
AcDbLine
 10
168.4
 20
164.0
 30
0.0
 11
169.5999999999999
 21
161.0999999999999
 31
0.0
  0
LINE
  5
18B
330
1E
100
AcDbEntity
  8
0
100
AcDbLine
 10
83.037
 20
140.8999999999998
 30
0.0
 11
83.14809999999999
 21
140.9499999999999
 31
0.0
  0
LINE
  5
18C
330
1E
100
AcDbEntity
  8
0
100
AcDbLine
 10
83.0741
 20
140.8499999999999
 30
0.0
 11
83.2667
 21
140.8499999999999
 31
0.0
  0
LINE
  5
18D
330
1E
100
AcDbEntity
  8
0
100
AcDbLine
 10
83.0
 20
136.7435897435898
 30
0.0
 11
83.0
 21
140.8499999999999
 31
0.0
  0
LINE
  5
18E
330
1E
100
AcDbEntity
  8
0
100
AcDbLine
 10
82.59260000000002
 20
81.0
 30
0.0
 11
83.037
 21
81.0
 31
0.0
  0
LINE
  5
18F
330
1E
100
AcDbEntity
  8
0
100
AcDbLine
 10
82.31480000000003
 20
81.0
 30
0.0
 11
82.59260000000002
 21
81.0
 31
0.0
  0
LINE
  5
190
330
1E
100
AcDbEntity
  8
0
100
AcDbLine
 10
80.37040000000002
 20
80.90000000000001
 30
0.0
 11
82.2222
 21
81.0
 31
0.0
  0
LINE
  5
191
330
1E
100
AcDbEntity
  8
0
100
AcDbLine
 10
80.09260000000002
 20
80.8
 30
0.0
 11
80.37040000000002
 21
80.90000000000001
 31
0.0
  0
LINE
  5
192
330
1E
100
AcDbEntity
  8
0
100
AcDbLine
 10
80.1852
 20
80.7
 30
0.0
 11
80.6667
 21
80.7
 31
0.0
  0
LINE
  5
193
330
1E
100
AcDbEntity
  8
0
100
AcDbLine
 10
80.0
 20
80.7
 30
0.0
 11
80.1852
 21
80.7
 31
0.0
  0
LINE
  5
194
330
1E
100
AcDbEntity
  8
0
100
AcDbLine
 10
80.0
 20
80.7
 30
0.0
 11
80.09260000000002
 21
80.8
 31
0.0
  0
LINE
  5
195
330
1E
100
AcDbEntity
  8
0
100
AcDbLine
 10
80.0
 20
80.7
 30
0.0
 11
80.0
 21
74.27536231884059
 31
0.0
  0
LINE
  5
196
330
1E
100
AcDbEntity
  8
0
100
AcDbLine
 10
80.0
 20
74.27536231884059
 30
0.0
 11
80.0
 21
80.7
 31
0.0
  0
LINE
  5
197
330
1E
100
AcDbEntity
  8
0
100
AcDbLine
 10
78.09999999999998
 20
74.0
 30
0.0
 11
85.0
 21
75.0
 31
0.0
  0
LINE
  5
198
330
1E
100
AcDbEntity
  8
0
100
AcDbLine
 10
78.09999999999998
 20
74.0
 30
0.0
 11
80.0
 21
74.27536231884059
 31
0.0
  0
LINE
  5
199
330
1E
100
AcDbEntity
  8
0
100
AcDbLine
 10
58.0
 20
48.0
 30
0.0
 11
59.0
 21
41.1
 31
0.0
  0
LINE
  5
19A
330
1E
100
AcDbEntity
  8
0
100
AcDbLine
 10
58.0
 20
48.0
 30
0.0
 11
59.0
 21
54.9
 31
0.0
  0
LINE
  5
19B
330
1E
100
AcDbEntity
  8
0
100
AcDbLine
 10
50.2
 20
48.0
 30
0.0
 11
51.5
 21
39.0
 31
0.0
  0
LINE
  5
19C
330
1E
100
AcDbEntity
  8
0
100
AcDbLine
 10
50.2
 20
48.0
 30
0.0
 11
51.5
 21
57.0
 31
0.0
  0
LINE
  5
1A0
330
1E
100
AcDbEntity
  8
0
100
AcDbLine
 10
51.1
 20
38.9
 30
0.0
 11
54.5
 21
30.5
 31
0.0
  0
LINE
  5
1A1
330
1E
100
AcDbEntity
  8
0
100
AcDbLine
 10
49.8
 20
48.0
 30
0.0
 11
51.1
 21
38.9
 31
0.0
  0
LINE
  5
1A2
330
1E
100
AcDbEntity
  8
0
100
AcDbLine
 10
49.8
 20
48.0
 30
0.0
 11
51.1
 21
57.1
 31
0.0
  0
LINE
  5
1A3
330
1E
100
AcDbEntity
  8
0
100
AcDbLine
 10
0.3000000000000011
 20
12.0
 30
0.0
 11
0.7411040000000011
 21
8.976779999999997
 31
0.0
  0
LINE
  5
1A4
330
1E
100
AcDbEntity
  8
0
100
AcDbLine
 10
0.3000000000000011
 20
12.0
 30
0.0
 11
0.3000000000000011
 21
85.0
 31
0.0
  0
LINE
  5
1A5
330
1E
100
AcDbEntity
  8
0
100
AcDbLine
 10
0.3000000000000011
 20
12.0
 30
0.0
 11
0.7411040000000011
 21
8.976779999999997
 31
0.0
  0
LINE
  5
1A6
330
1E
100
AcDbEntity
  8
0
100
AcDbLine
 10
0.4000000000000011
 20
8.9
 30
0.0
 11
1.6
 21
6.0
 31
0.0
  0
LINE
  5
1A7
330
1E
100
AcDbEntity
  8
0
100
AcDbLine
 10
0.0000000000000012
 20
85.0
 30
0.0
 11
0.0000000000000012
 21
12.0
 31
0.0
  0
LINE
  5
1A8
330
1E
100
AcDbEntity
  8
0
100
AcDbLine
 10
0.0000000000000012
 20
85.0
 30
0.0
 11
0.0000000000000012
 21
158.0
 31
0.0
  0
LINE
  5
1AD
330
1E
100
AcDbEntity
  8
0
100
AcDbLine
 10
158.0
 20
-0.0000000000000041
 30
0.0
 11
161.0999999999999
 21
0.399999999999996
 31
0.0
  0
LINE
  5
1AE
330
1E
100
AcDbEntity
  8
0
100
AcDbLine
 10
85.0
 20
107.0
 30
0.0
 11
88.9
 21
107.4999999999999
 31
0.0
  0
LINE
  5
1AF
330
1E
100
AcDbEntity
  8
0
100
AcDbLine
 10
98.0
 20
114.4
 30
0.0
 11
99.50000000000001
 21
118.1
 31
0.0
  0
ENDSEC
  0
SECTION
  2
OBJECTS
  0
DICTIONARY
  5
C
330
0
100
AcDbDictionary
281
     1
  3
ACAD_GROUP
350
D
  3
ACAD_LAYOUT
350
19
  3
ACAD_MLINESTYLE
350
16
  3
ACAD_PLOTSETTINGS
350
18
  3
ACAD_PLOTSTYLENAME
350
E
  3
AcDbVariableDictionary
350
1B0
  0
DICTIONARY
  5
D
102
{ACAD_REACTORS
330
C
102
}
330
C
100
AcDbDictionary
281
     1
  0
DICTIONARY
  5
19
102
{ACAD_REACTORS
330
C
102
}
330
C
100
AcDbDictionary
281
     1
  3
Layout1
350
1D
  3
Model
350
21
  0
DICTIONARY
  5
16
102
{ACAD_REACTORS
330
C
102
}
330
C
100
AcDbDictionary
281
     1
  3
Standard
350
17
  0
DICTIONARY
  5
18
102
{ACAD_REACTORS
330
C
102
}
330
C
100
AcDbDictionary
281
     1
  0
ACDBDICTIONARYWDFLT
  5
E
102
{ACAD_REACTORS
330
C
102
}
330
C
100
AcDbDictionary
281
     1
  3
Normal
350
F
100
AcDbDictionaryWithDefault
340
F
  0
DICTIONARY
  5
1B0
102
{ACAD_REACTORS
330
C
102
}
330
C
100
AcDbDictionary
281
     1
  3
DIMASSOC
350
1B1
  0
LAYOUT
  5
1D
102
{ACAD_REACTORS
330
19
102
}
330
19
100
AcDbPlotSettings
  1

  2
hp deskjet 980c series
  4

  6

 40
0.0
 41
0.0
 42
0.0
 43
0.0
 44
0.0
 45
0.0
 46
0.0
 47
0.0
 48
0.0
 49
0.0
140
0.0
141
0.0
142
1.0
143
1.0
 70
   688
 72
     0
 73
     0
 74
     5
  7

 75
    16
147
1.0
148
0.0
149
0.0
100
AcDbLayout
  1
Layout1
 70
     1
 71
     1
 10
0.0
 20
0.0
 11
12.0
 21
9.0
 12
0.0
 22
0.0
 32
0.0
 14
1.000000000000000E+20
 24
1.000000000000000E+20
 34
1.000000000000000E+20
 15
-1.000000000000000E+20
 25
-1.000000000000000E+20
 35
-1.000000000000000E+20
146
0.0
 13
0.0
 23
0.0
 33
0.0
 16
1.0
 26
0.0
 36
0.0
 17
0.0
 27
1.0
 37
0.0
 76
     0
330
1A
  0
LAYOUT
  5
21
102
{ACAD_REACTORS
330
19
102
}
330
19
100
AcDbPlotSettings
  1

  2
hp deskjet 980c series
  4

  6

 40
0.0
 41
0.0
 42
0.0
 43
0.0
 44
0.0
 45
0.0
 46
0.0
 47
0.0
 48
0.0
 49
0.0
140
0.0
141
0.0
142
1.0
143
1.0
 70
  1712
 72
     0
 73
     0
 74
     0
  7

 75
     0
147
1.0
148
0.0
149
0.0
100
AcDbLayout
  1
Model
 70
     1
 71
     0
 10
0.0
 20
0.0
 11
12.0
 21
9.0
 12
0.0
 22
0.0
 32
0.0
 14
0.0
 24
0.0
 34
0.0
 15
0.0
 25
0.0
 35
0.0
146
0.0
 13
0.0
 23
0.0
 33
0.0
 16
1.0
 26
0.0
 36
0.0
 17
0.0
 27
1.0
 37
0.0
 76
     0
330
1E
  0
MLINESTYLE
  5
17
102
{ACAD_REACTORS
330
16
102
}
330
16
100
AcDbMlineStyle
  2
STANDARD
 70
     0
  3

 62
   256
 51
90.0
 52
90.0
 71
     2
 49
0.5
 62
   256
  6
BYLAYER
 49
-0.5
 62
   256
  6
BYLAYER
  0
ACDBPLACEHOLDER
  5
F
102
{ACAD_REACTORS
330
E
102
}
330
E
  0
DICTIONARYVAR
  5
1B1
102
{ACAD_REACTORS
330
1B0
102
}
330
1B0
100
DictionaryVariables
280
     0
  1
1
  0
ENDSEC
  0
EOF
