  0
SECTION
  2
HEADER
  9
$ACADVER
  1
AC1014
  9
$ACADMAINTVER
 70
     9
  9
$DWGCODEPAGE
  3
ANSI_1252
  9
$INSBASE
 10
0.0
 20
0.0
 30
0.0
  9
$EXTMIN
 10
0.0000000000000074
 20
0.0000000000000029
 30
0.0
  9
$EXTMAX
 10
266.0
 20
148.0
 30
0.0
  9
$LIMMIN
 10
0.0
 20
0.0
  9
$LIMMAX
 10
12.0
 20
9.0
  9
$ORTHOMODE
 70
     0
  9
$REGENMODE
 70
     1
  9
$FILLMODE
 70
     1
  9
$QTEXTMODE
 70
     0
  9
$MIRRTEXT
 70
     1
  9
$DRAGMODE
 70
     2
  9
$LTSCALE
 40
1.0
  9
$OSMODE
 70
    37
  9
$ATTMODE
 70
     1
  9
$TEXTSIZE
 40
0.2
  9
$TRACEWID
 40
0.05
  9
$TEXTSTYLE
  7
STANDARD
  9
$CLAYER
  8
0
  9
$CELTYPE
  6
CONTINUOUS
  9
$CECOLOR
 62
   256
  9
$CELTSCALE
 40
1.0
  9
$DELOBJ
 70
     1
  9
$DISPSILH
 70
     0
  9
$DIMSCALE
 40
1.0
  9
$DIMASZ
 40
0.18
  9
$DIMEXO
 40
0.0625
  9
$DIMDLI
 40
0.38
  9
$DIMRND
 40
0.0
  9
$DIMDLE
 40
0.0
  9
$DIMEXE
 40
0.18
  9
$DIMTP
 40
0.0
  9
$DIMTM
 40
0.0
  9
$DIMTXT
 40
0.18
  9
$DIMCEN
 40
0.09
  9
$DIMTSZ
 40
0.0
  9
$DIMTOL
 70
     0
  9
$DIMLIM
 70
     0
  9
$DIMTIH
 70
     1
  9
$DIMTOH
 70
     1
  9
$DIMSE1
 70
     0
  9
$DIMSE2
 70
     0
  9
$DIMTAD
 70
     0
  9
$DIMZIN
 70
     0
  9
$DIMBLK
  1

  9
$DIMASO
 70
     1
  9
$DIMSHO
 70
     1
  9
$DIMPOST
  1

  9
$DIMAPOST
  1

  9
$DIMALT
 70
     0
  9
$DIMALTD
 70
     2
  9
$DIMALTF
 40
25.4
  9
$DIMLFAC
 40
1.0
  9
$DIMTOFL
 70
     0
  9
$DIMTVP
 40
0.0
  9
$DIMTIX
 70
     0
  9
$DIMSOXD
 70
     0
  9
$DIMSAH
 70
     0
  9
$DIMBLK1
  1

  9
$DIMBLK2
  1

  9
$DIMSTYLE
  2
STANDARD
  9
$DIMCLRD
 70
     0
  9
$DIMCLRE
 70
     0
  9
$DIMCLRT
 70
     0
  9
$DIMTFAC
 40
1.0
  9
$DIMGAP
 40
0.09
  9
$DIMJUST
 70
     0
  9
$DIMSD1
 70
     0
  9
$DIMSD2
 70
     0
  9
$DIMTOLJ
 70
     1
  9
$DIMTZIN
 70
     0
  9
$DIMALTZ
 70
     0
  9
$DIMALTTZ
 70
     0
  9
$DIMFIT
 70
     3
  9
$DIMUPT
 70
     0
  9
$DIMUNIT
 70
     2
  9
$DIMDEC
 70
     4
  9
$DIMTDEC
 70
     4
  9
$DIMALTU
 70
     2
  9
$DIMALTTD
 70
     2
  9
$DIMTXSTY
  7
STANDARD
  9
$DIMAUNIT
 70
     0
  9
$LUNITS
 70
     2
  9
$LUPREC
 70
     4
  9
$SKETCHINC
 40
0.1
  9
$FILLETRAD
 40
0.0
  9
$AUNITS
 70
     0
  9
$AUPREC
 70
     0
  9
$MENU
  1
.
  9
$ELEVATION
 40
0.0
  9
$PELEVATION
 40
0.0
  9
$THICKNESS
 40
0.0
  9
$LIMCHECK
 70
     0
  9
$BLIPMODE
 70
     0
  9
$CHAMFERA
 40
0.0
  9
$CHAMFERB
 40
0.0
  9
$CHAMFERC
 40
0.0
  9
$CHAMFERD
 40
0.0
  9
$SKPOLY
 70
     0
  9
$TDCREATE
 40
2454687.471535370
  9
$TDUPDATE
 40
2454687.518058448
  9
$TDINDWG
 40
0.0465232523
  9
$TDUSRTIMER
 40
0.0465232523
  9
$USRTIMER
 70
     1
  9
$ANGBASE
 50
0.0
  9
$ANGDIR
 70
     0
  9
$PDMODE
 70
     0
  9
$PDSIZE
 40
0.0
  9
$PLINEWID
 40
0.0
  9
$COORDS
 70
     1
  9
$SPLFRAME
 70
     0
  9
$SPLINETYPE
 70
     6
  9
$SPLINESEGS
 70
     8
  9
$ATTDIA
 70
     0
  9
$ATTREQ
 70
     1
  9
$HANDLING
 70
 22529
  9
$HANDSEED
  5
18D
  9
$SURFTAB1
 70
     6
  9
$SURFTAB2
 70
     6
  9
$SURFTYPE
 70
     6
  9
$SURFU
 70
     6
  9
$SURFV
 70
     6
  9
$UCSNAME
  2

  9
$UCSORG
 10
0.0
 20
0.0
 30
0.0
  9
$UCSXDIR
 10
1.0
 20
0.0
 30
0.0
  9
$UCSYDIR
 10
0.0
 20
1.0
 30
0.0
  9
$PUCSNAME
  2

  9
$PUCSORG
 10
0.0
 20
0.0
 30
0.0
  9
$PUCSXDIR
 10
1.0
 20
0.0
 30
0.0
  9
$PUCSYDIR
 10
0.0
 20
1.0
 30
0.0
  9
$USERI1
 70
     0
  9
$USERI2
 70
     0
  9
$USERI3
 70
     0
  9
$USERI4
 70
     0
  9
$USERI5
 70
     0
  9
$USERR1
 40
0.0
  9
$USERR2
 40
0.0
  9
$USERR3
 40
0.0
  9
$USERR4
 40
0.0
  9
$USERR5
 40
0.0
  9
$WORLDVIEW
 70
     1
  9
$SHADEDGE
 70
     3
  9
$SHADEDIF
 70
    70
  9
$TILEMODE
 70
     1
  9
$MAXACTVP
 70
    64
  9
$PINSBASE
 10
0.0
 20
0.0
 30
0.0
  9
$PLIMCHECK
 70
     0
  9
$PEXTMIN
 10
1.000000000000000E+20
 20
1.000000000000000E+20
 30
1.000000000000000E+20
  9
$PEXTMAX
 10
-1.000000000000000E+20
 20
-1.000000000000000E+20
 30
-1.000000000000000E+20
  9
$PLIMMIN
 10
0.0
 20
0.0
  9
$PLIMMAX
 10
12.0
 20
9.0
  9
$UNITMODE
 70
     0
  9
$VISRETAIN
 70
     1
  9
$PLINEGEN
 70
     0
  9
$PSLTSCALE
 70
     1
  9
$TREEDEPTH
 70
  3020
  9
$PICKSTYLE
 70
     1
  9
$CMLSTYLE
  2
STANDARD
  9
$CMLJUST
 70
     0
  9
$CMLSCALE
 40
1.0
  9
$PROXYGRAPHICS
 70
     1
  9
$MEASUREMENT
 70
     0
  0
ENDSEC
  0
SECTION
  2
CLASSES
  0
CLASS
  1
ACDBDICTIONARYWDFLT
  2
AcDbDictionaryWithDefault
  3
AutoCAD 2000
 90
        0
280
     0
281
     0
  0
CLASS
  1
ACDBPLACEHOLDER
  2
AcDbPlaceHolder
  3
AutoCAD 2000
 90
        0
280
     0
281
     0
  0
CLASS
  1
LAYOUT
  2
AcDbLayout
  3
AutoCAD 2000
 90
        0
280
     0
281
     0
  0
CLASS
  1
DICTIONARYVAR
  2
AcDbDictionaryVar
  3
AutoCAD 2000
 90
        0
280
     0
281
     0
  0
CLASS
  1
LONG_TRANSACTION
  2
AcDbLongTransaction
  3
AutoCAD 2000
 90
        0
280
     0
281
     0
  0
CLASS
  1
LWPOLYLINE
  2
AcDbPolyline
  3
AutoCAD 2000
 90
        0
280
     0
281
     1
  0
CLASS
  1
HATCH
  2
AcDbHatch
  3
AutoCAD 2000
 90
        0
280
     0
281
     1
  0
CLASS
  1
XRECORD
  2
AcDbXrecord
  3
AutoCAD 2000
 90
        0
280
     0
281
     0
  0
ENDSEC
  0
SECTION
  2
TABLES
  0
TABLE
  2
VPORT
  5
8
330
0
100
AcDbSymbolTable
 70
     2
  0
VPORT
  5
168
330
8
100
AcDbSymbolTableRecord
100
AcDbViewportTableRecord
  2
*ACTIVE
 70
     0
 10
0.0
 20
0.0
 11
1.0
 21
1.0
 12
133.0
 22
74.0
 13
0.0
 23
0.0
 14
1.0
 24
1.0
 15
0.0
 25
0.0
 16
0.0
 26
0.0
 36
1.0
 17
0.0
 27
0.0
 37
0.0
 40
149.1355498721227
 41
2.043533930857874
 42
50.0
 43
0.0
 44
0.0
 50
0.0
 51
0.0
 71
     0
 72
   100
 73
     1
 74
     3
 75
     0
 76
     0
 77
     0
 78
     0
  0
ENDTAB
  0
TABLE
  2
LTYPE
  5
5
330
0
100
AcDbSymbolTable
 70
     1
  0
LTYPE
  5
13
330
5
100
AcDbSymbolTableRecord
100
AcDbLinetypeTableRecord
  2
BYBLOCK
 70
     0
  3

 72
    65
 73
     0
 40
0.0
  0
LTYPE
  5
14
330
5
100
AcDbSymbolTableRecord
100
AcDbLinetypeTableRecord
  2
BYLAYER
 70
     0
  3

 72
    65
 73
     0
 40
0.0
  0
LTYPE
  5
15
330
5
100
AcDbSymbolTableRecord
100
AcDbLinetypeTableRecord
  2
CONTINUOUS
 70
     0
  3
Solid line
 72
    65
 73
     0
 40
0.0
  0
ENDTAB
  0
TABLE
  2
LAYER
  5
2
330
0
100
AcDbSymbolTable
 70
     1
  0
LAYER
  5
10
330
2
100
AcDbSymbolTableRecord
100
AcDbLayerTableRecord
  2
0
 70
     0
 62
     7
  6
CONTINUOUS
  0
ENDTAB
  0
TABLE
  2
STYLE
  5
3
330
0
100
AcDbSymbolTable
 70
     1
  0
STYLE
  5
11
330
3
100
AcDbSymbolTableRecord
100
AcDbTextStyleTableRecord
  2
STANDARD
 70
     0
 40
0.0
 41
1.0
 50
0.0
 71
     0
 42
0.2
  3
txt
  4

  0
ENDTAB
  0
TABLE
  2
VIEW
  5
6
330
0
100
AcDbSymbolTable
 70
     0
  0
ENDTAB
  0
TABLE
  2
UCS
  5
7
330
0
100
AcDbSymbolTable
 70
     0
  0
ENDTAB
  0
TABLE
  2
APPID
  5
9
330
0
100
AcDbSymbolTable
 70
     1
  0
APPID
  5
12
330
9
100
AcDbSymbolTableRecord
100
AcDbRegAppTableRecord
  2
ACAD
 70
     0
  0
ENDTAB
  0
TABLE
  2
DIMSTYLE
  5
A
330
0
100
AcDbSymbolTable
 70
     1
  0
DIMSTYLE
105
162
330
A
100
AcDbSymbolTableRecord
100
AcDbDimStyleTableRecord
  2
STANDARD
 70
     0
  3

  4

  5

  6

  7

 40
1.0
 41
0.18
 42
0.0625
 43
0.38
 44
0.18
 45
0.0
 46
0.0
 47
0.0
 48
0.0
140
0.18
141
0.09
142
0.0
143
25.4
144
1.0
145
0.0
146
1.0
147
0.09
 71
     0
 72
     0
 73
     1
 74
     1
 75
     0
 76
     0
 77
     0
 78
     0
170
     0
171
     2
172
     0
173
     0
174
     0
175
     0
176
     0
177
     0
178
     0
270
     2
271
     4
272
     4
273
     2
274
     2
340
11
275
     0
280
     0
281
     0
282
     0
283
     1
284
     0
285
     0
286
     0
287
     3
288
     0
  0
ENDTAB
  0
TABLE
  2
BLOCK_RECORD
  5
1
330
0
100
AcDbSymbolTable
 70
     0
  0
BLOCK_RECORD
  5
1E
102
{ACAD_XDICTIONARY
360
18B
102
}
330
1
100
AcDbSymbolTableRecord
100
AcDbBlockTableRecord
  2
*MODEL_SPACE
  0
BLOCK_RECORD
  5
1A
102
{ACAD_XDICTIONARY
360
189
102
}
330
1
100
AcDbSymbolTableRecord
100
AcDbBlockTableRecord
  2
*PAPER_SPACE
  0
ENDTAB
  0
ENDSEC
  0
SECTION
  2
BLOCKS
  0
BLOCK
  5
1F
330
1E
100
AcDbEntity
  8
0
100
AcDbBlockBegin
  2
*MODEL_SPACE
 70
     0
 10
0.0
 20
0.0
 30
0.0
  3
*MODEL_SPACE
  1

  0
ENDBLK
  5
20
330
1E
100
AcDbEntity
  8
0
100
AcDbBlockEnd
  0
BLOCK
  5
1B
330
1A
100
AcDbEntity
 67
     1
  8
0
100
AcDbBlockBegin
  2
*PAPER_SPACE
 70
     0
 10
0.0
 20
0.0
 30
0.0
  3
*PAPER_SPACE
  1

  0
ENDBLK
  5
1C
330
1A
100
AcDbEntity
 67
     1
  8
0
100
AcDbBlockEnd
  0
ENDSEC
  0
SECTION
  2
ENTITIES
  0
LINE
  5
22
330
1E
100
AcDbEntity
  8
0
100
AcDbLine
 10
250.7159999999999
 20
56.02899999999999
 30
0.0
 11
253.242
 21
54.6411
 31
0.0
  0
LINE
  5
24
330
1E
100
AcDbEntity
  8
0
100
AcDbLine
 10
253.242
 20
54.6411
 30
0.0
 11
256.1269999999999
 21
52.3497
 31
0.0
  0
LINE
  5
25
330
1E
100
AcDbEntity
  8
0
100
AcDbLine
 10
229.022
 20
57.0
 30
0.0
 11
229.674
 21
57.30879999999999
 31
0.0
  0
LINE
  5
26
330
1E
100
AcDbEntity
  8
0
100
AcDbLine
 10
115.0
 20
57.0
 30
0.0
 11
229.022
 21
57.0
 31
0.0
  0
LINE
  5
27
330
1E
100
AcDbEntity
  8
0
100
AcDbLine
 10
0.9782610000000071
 20
57.0
 30
0.0
 11
115.0
 21
57.0
 31
0.0
  0
LINE
  5
28
330
1E
100
AcDbEntity
  8
0
100
AcDbLine
 10
0.9782610000000049
 20
57.0
 30
0.0
 11
115.0
 21
57.0
 31
0.0
  0
LINE
  5
29
330
1E
100
AcDbEntity
  8
0
100
AcDbLine
 10
229.674
 20
57.30879999999999
 30
0.0
 11
230.0
 21
57.9265
 31
0.0
  0
LINE
  5
2A
330
1E
100
AcDbEntity
  8
0
100
AcDbLine
 10
229.674
 20
57.30879999999999
 30
0.0
 11
229.674
 21
58.04999999999999
 31
0.0
  0
LINE
  5
2B
330
1E
100
AcDbEntity
  8
0
100
AcDbLine
 10
229.674
 20
58.04999999999999
 30
0.0
 11
229.674
 21
60.0882
 31
0.0
  0
LINE
  5
2C
330
1E
100
AcDbEntity
  8
0
100
AcDbLine
 10
229.674
 20
58.04999999999999
 30
0.0
 11
229.674
 21
57.30879999999999
 31
0.0
  0
LINE
  5
2D
330
1E
100
AcDbEntity
  8
0
100
AcDbLine
 10
0.326087000000008
 20
58.04999999999999
 30
0.0
 11
0.326087000000008
 21
57.30879999999999
 31
0.0
  0
LINE
  5
2E
330
1E
100
AcDbEntity
  8
0
100
AcDbLine
 10
0.326087000000008
 20
58.04999999999999
 30
0.0
 11
0.326087000000008
 21
60.0882
 31
0.0
  0
LINE
  5
2F
330
1E
100
AcDbEntity
  8
0
100
AcDbLine
 10
0.0000000000000074
 20
57.9265
 30
0.0
 11
0.326087000000008
 21
57.30879999999999
 31
0.0
  0
LINE
  5
30
330
1E
100
AcDbEntity
  8
0
100
AcDbLine
 10
0.0000000000000074
 20
57.9265
 30
0.0
 11
0.0000000000000074
 21
58.6676
 31
0.0
  0
LINE
  5
31
330
1E
100
AcDbEntity
  8
0
100
AcDbLine
 10
0.326087000000008
 20
57.30879999999999
 30
0.0
 11
0.9782610000000071
 21
57.0
 31
0.0
  0
LINE
  5
32
330
1E
100
AcDbEntity
  8
0
100
AcDbLine
 10
0.326087000000008
 20
57.30879999999999
 30
0.0
 11
0.326087000000008
 21
58.04999999999999
 31
0.0
  0
LINE
  5
33
330
1E
100
AcDbEntity
  8
0
100
AcDbLine
 10
232.857
 20
58.17759999999999
 30
0.0
 11
233.0
 21
58.192168125
 31
0.0
  0
LINE
  5
34
330
1E
100
AcDbEntity
  8
0
100
AcDbLine
 10
230.0
 20
58.17759999999999
 30
0.0
 11
232.857
 21
58.17759999999999
 31
0.0
  0
LINE
  5
35
330
1E
100
AcDbEntity
  8
0
100
AcDbLine
 10
230.0
 20
57.9265
 30
0.0
 11
230.0
 21
60.6441
 31
0.0
  0
LINE
  5
36
330
1E
100
AcDbEntity
  8
0
100
AcDbLine
 10
0.0000000000000074
 20
58.6676
 30
0.0
 11
0.0000000000000074
 21
57.9265
 31
0.0
  0
LINE
  5
37
330
1E
100
AcDbEntity
  8
0
100
AcDbLine
 10
0.0000000000000074
 20
58.6676
 30
0.0
 11
0.0000000000000074
 21
60.6441
 31
0.0
  0
LINE
  5
38
330
1E
100
AcDbEntity
  8
0
100
AcDbLine
 10
233.0
 20
58.192168125
 30
0.0
 11
233.0
 21
57.8278
 31
0.0
  0
LINE
  5
39
330
1E
100
AcDbEntity
  8
0
100
AcDbLine
 10
233.0
 20
57.8278
 30
0.0
 11
233.0
 21
59.8265
 31
0.0
  0
LINE
  5
3A
330
1E
100
AcDbEntity
  8
0
100
AcDbLine
 10
233.0
 20
57.8278
 30
0.0
 11
233.0
 21
57.0283
 31
0.0
  0
LINE
  5
3B
330
1E
100
AcDbEntity
  8
0
100
AcDbLine
 10
233.0
 20
57.0283
 30
0.0
 11
233.0
 21
57.8278
 31
0.0
  0
LINE
  5
3C
330
1E
100
AcDbEntity
  8
0
100
AcDbLine
 10
233.0
 20
57.0283
 30
0.0
 11
247.053
 21
57.0283
 31
0.0
  0
LINE
  5
3D
330
1E
100
AcDbEntity
  8
0
100
AcDbLine
 10
247.053
 20
57.0283
 30
0.0
 11
248.3159999999999
 21
56.8285
 31
0.0
  0
LINE
  5
3E
330
1E
100
AcDbEntity
  8
0
100
AcDbLine
 10
248.3159999999999
 20
56.8285
 30
0.0
 11
250.7159999999999
 21
56.02899999999999
 31
0.0
  0
LINE
  5
40
330
1E
100
AcDbEntity
  8
0
100
AcDbLine
 10
0.0000000000000074
 20
60.6441
 30
0.0
 11
0.0000000000000074
 21
58.6676
 31
0.0
  0
LINE
  5
41
330
1E
100
AcDbEntity
  8
0
100
AcDbLine
 10
0.0000000000000074
 20
60.6441
 30
0.0
 11
0.0000000000000074
 21
63.7941
 31
0.0
  0
LINE
  5
42
330
1E
100
AcDbEntity
  8
0
100
AcDbLine
 10
230.0
 20
60.6441
 30
0.0
 11
230.0
 21
63.7941
 31
0.0
  0
LINE
  5
43
330
1E
100
AcDbEntity
  8
0
100
AcDbLine
 10
230.0
 20
60.6441
 30
0.0
 11
230.0
 21
57.9265
 31
0.0
  0
LINE
  5
44
330
1E
100
AcDbEntity
  8
0
100
AcDbLine
 10
229.674
 20
60.0882
 30
0.0
 11
229.674
 21
63.3618
 31
0.0
  0
LINE
  5
45
330
1E
100
AcDbEntity
  8
0
100
AcDbLine
 10
229.674
 20
60.0882
 30
0.0
 11
229.674
 21
58.04999999999999
 31
0.0
  0
LINE
  5
46
330
1E
100
AcDbEntity
  8
0
100
AcDbLine
 10
0.326087000000008
 20
60.0882
 30
0.0
 11
0.326087000000008
 21
58.04999999999999
 31
0.0
  0
LINE
  5
47
330
1E
100
AcDbEntity
  8
0
100
AcDbLine
 10
0.326087000000008
 20
60.0882
 30
0.0
 11
0.326087000000008
 21
63.3618
 31
0.0
  0
LINE
  5
48
330
1E
100
AcDbEntity
  8
0
100
AcDbLine
 10
0.0000000000000074
 20
63.7941
 30
0.0
 11
0.0000000000000074
 21
67.9941
 31
0.0
  0
LINE
  5
49
330
1E
100
AcDbEntity
  8
0
100
AcDbLine
 10
0.0000000000000074
 20
63.7941
 30
0.0
 11
0.0000000000000074
 21
60.6441
 31
0.0
  0
LINE
  5
4A
330
1E
100
AcDbEntity
  8
0
100
AcDbLine
 10
0.0000000000000074
 20
67.9941
 30
0.0
 11
0.0000000000000074
 21
63.7941
 31
0.0
  0
LINE
  5
4B
330
1E
100
AcDbEntity
  8
0
100
AcDbLine
 10
0.0000000000000074
 20
67.9941
 30
0.0
 11
0.0000000000000074
 21
72.8118
 31
0.0
  0
LINE
  5
4C
330
1E
100
AcDbEntity
  8
0
100
AcDbLine
 10
0.326087000000008
 20
63.3618
 30
0.0
 11
0.326087000000008
 21
67.6853
 31
0.0
  0
LINE
  5
4D
330
1E
100
AcDbEntity
  8
0
100
AcDbLine
 10
0.326087000000008
 20
63.3618
 30
0.0
 11
0.326087000000008
 21
60.0882
 31
0.0
  0
LINE
  5
4E
330
1E
100
AcDbEntity
  8
0
100
AcDbLine
 10
230.0
 20
63.7941
 30
0.0
 11
230.0
 21
67.9941
 31
0.0
  0
LINE
  5
4F
330
1E
100
AcDbEntity
  8
0
100
AcDbLine
 10
230.0
 20
63.7941
 30
0.0
 11
230.0
 21
60.6441
 31
0.0
  0
LINE
  5
50
330
1E
100
AcDbEntity
  8
0
100
AcDbLine
 10
229.674
 20
63.3618
 30
0.0
 11
229.674
 21
67.6853
 31
0.0
  0
LINE
  5
51
330
1E
100
AcDbEntity
  8
0
100
AcDbLine
 10
229.674
 20
63.3618
 30
0.0
 11
229.674
 21
60.0882
 31
0.0
  0
LINE
  5
52
330
1E
100
AcDbEntity
  8
0
100
AcDbLine
 10
230.0
 20
67.9941
 30
0.0
 11
230.0
 21
72.8118
 31
0.0
  0
LINE
  5
53
330
1E
100
AcDbEntity
  8
0
100
AcDbLine
 10
230.0
 20
67.9941
 30
0.0
 11
230.0
 21
63.7941
 31
0.0
  0
LINE
  5
54
330
1E
100
AcDbEntity
  8
0
100
AcDbLine
 10
229.674
 20
67.6853
 30
0.0
 11
229.674
 21
72.68819999999999
 31
0.0
  0
LINE
  5
55
330
1E
100
AcDbEntity
  8
0
100
AcDbLine
 10
229.674
 20
67.6853
 30
0.0
 11
229.674
 21
63.3618
 31
0.0
  0
LINE
  5
56
330
1E
100
AcDbEntity
  8
0
100
AcDbLine
 10
0.326087000000008
 20
67.6853
 30
0.0
 11
0.326087000000008
 21
63.3618
 31
0.0
  0
LINE
  5
57
330
1E
100
AcDbEntity
  8
0
100
AcDbLine
 10
0.326087000000008
 20
67.6853
 30
0.0
 11
0.326087000000008
 21
72.68819999999999
 31
0.0
  0
LINE
  5
58
330
1E
100
AcDbEntity
  8
0
100
AcDbLine
 10
0.0000000000000074
 20
72.8118
 30
0.0
 11
0.0000000000000074
 21
67.9941
 31
0.0
  0
LINE
  5
59
330
1E
100
AcDbEntity
  8
0
100
AcDbLine
 10
0.0000000000000074
 20
72.8118
 30
0.0
 11
0.0000000000000074
 21
78.0
 31
0.0
  0
LINE
  5
5A
330
1E
100
AcDbEntity
  8
0
100
AcDbLine
 10
0.0000000000000074
 20
78.0
 30
0.0
 11
0.0000000000000074
 21
72.8118
 31
0.0
  0
LINE
  5
5B
330
1E
100
AcDbEntity
  8
0
100
AcDbLine
 10
0.0000000000000074
 20
78.0
 30
0.0
 11
0.0000000000000074
 21
83.1882
 31
0.0
  0
LINE
  5
5C
330
1E
100
AcDbEntity
  8
0
100
AcDbLine
 10
0.326087000000008
 20
72.68819999999999
 30
0.0
 11
0.326087000000008
 21
67.6853
 31
0.0
  0
LINE
  5
5D
330
1E
100
AcDbEntity
  8
0
100
AcDbLine
 10
0.326087000000008
 20
72.68819999999999
 30
0.0
 11
0.326087000000008
 21
78.0
 31
0.0
  0
LINE
  5
5E
330
1E
100
AcDbEntity
  8
0
100
AcDbLine
 10
230.0
 20
88.00589999999999
 30
0.0
 11
230.0
 21
72.8118
 31
0.0
  0
LINE
  5
5F
330
1E
100
AcDbEntity
  8
0
100
AcDbLine
 10
230.0
 20
72.8118
 30
0.0
 11
230.0
 21
88.00589999999999
 31
0.0
  0
LINE
  5
60
330
1E
100
AcDbEntity
  8
0
100
AcDbLine
 10
230.0
 20
72.8118
 30
0.0
 11
230.0
 21
67.9941
 31
0.0
  0
LINE
  5
61
330
1E
100
AcDbEntity
  8
0
100
AcDbLine
 10
229.674
 20
78.0
 30
0.0
 11
229.674
 21
72.68819999999999
 31
0.0
  0
LINE
  5
62
330
1E
100
AcDbEntity
  8
0
100
AcDbLine
 10
229.674
 20
78.0
 30
0.0
 11
229.674
 21
83.31180000000001
 31
0.0
  0
LINE
  5
63
330
1E
100
AcDbEntity
  8
0
100
AcDbLine
 10
229.674
 20
72.68819999999999
 30
0.0
 11
229.674
 21
78.0
 31
0.0
  0
LINE
  5
64
330
1E
100
AcDbEntity
  8
0
100
AcDbLine
 10
229.674
 20
72.68819999999999
 30
0.0
 11
229.674
 21
67.6853
 31
0.0
  0
LINE
  5
65
330
1E
100
AcDbEntity
  8
0
100
AcDbLine
 10
0.326087000000008
 20
78.0
 30
0.0
 11
0.326087000000008
 21
72.68819999999999
 31
0.0
  0
LINE
  5
66
330
1E
100
AcDbEntity
  8
0
100
AcDbLine
 10
0.326087000000008
 20
78.0
 30
0.0
 11
0.326087000000008
 21
83.31180000000001
 31
0.0
  0
LINE
  5
67
330
1E
100
AcDbEntity
  8
0
100
AcDbLine
 10
233.0
 20
72.6178
 30
0.0
 11
233.0
 21
78.0141
 31
0.0
  0
LINE
  5
68
330
1E
100
AcDbEntity
  8
0
100
AcDbLine
 10
233.0
 20
67.6212
 30
0.0
 11
233.0
 21
72.6178
 31
0.0
  0
LINE
  5
69
330
1E
100
AcDbEntity
  8
0
100
AcDbLine
 10
233.0
 20
63.22420000000001
 30
0.0
 11
233.0
 21
67.6212
 31
0.0
  0
LINE
  5
6A
330
1E
100
AcDbEntity
  8
0
100
AcDbLine
 10
233.0
 20
59.8265
 30
0.0
 11
233.0
 21
63.22420000000001
 31
0.0
  0
LINE
  5
6B
330
1E
100
AcDbEntity
  8
0
100
AcDbLine
 10
0.0000000000000074
 20
88.00589999999999
 30
0.0
 11
0.0000000000000074
 21
83.1882
 31
0.0
  0
LINE
  5
6C
330
1E
100
AcDbEntity
  8
0
100
AcDbLine
 10
0.0000000000000074
 20
88.00589999999999
 30
0.0
 11
0.0000000000000074
 21
92.20589999999999
 31
0.0
  0
LINE
  5
6D
330
1E
100
AcDbEntity
  8
0
100
AcDbLine
 10
0.0000000000000074
 20
83.1882
 30
0.0
 11
0.0000000000000074
 21
78.0
 31
0.0
  0
LINE
  5
6E
330
1E
100
AcDbEntity
  8
0
100
AcDbLine
 10
0.0000000000000074
 20
83.1882
 30
0.0
 11
0.0000000000000074
 21
88.00589999999999
 31
0.0
  0
LINE
  5
6F
330
1E
100
AcDbEntity
  8
0
100
AcDbLine
 10
0.326087000000008
 20
88.31470000000001
 30
0.0
 11
0.326087000000008
 21
83.31180000000001
 31
0.0
  0
LINE
  5
70
330
1E
100
AcDbEntity
  8
0
100
AcDbLine
 10
0.326087000000008
 20
88.31470000000001
 30
0.0
 11
0.326087000000008
 21
92.6382
 31
0.0
  0
LINE
  5
71
330
1E
100
AcDbEntity
  8
0
100
AcDbLine
 10
230.0
 20
88.00589999999999
 30
0.0
 11
230.0
 21
92.20589999999999
 31
0.0
  0
LINE
  5
72
330
1E
100
AcDbEntity
  8
0
100
AcDbLine
 10
229.674
 20
88.31470000000001
 30
0.0
 11
229.674
 21
92.6382
 31
0.0
  0
LINE
  5
73
330
1E
100
AcDbEntity
  8
0
100
AcDbLine
 10
229.674
 20
88.31470000000001
 30
0.0
 11
229.674
 21
83.31180000000001
 31
0.0
  0
LINE
  5
74
330
1E
100
AcDbEntity
  8
0
100
AcDbLine
 10
229.674
 20
83.31180000000001
 30
0.0
 11
229.674
 21
88.31470000000001
 31
0.0
  0
LINE
  5
75
330
1E
100
AcDbEntity
  8
0
100
AcDbLine
 10
229.674
 20
83.31180000000001
 30
0.0
 11
229.674
 21
78.0
 31
0.0
  0
LINE
  5
76
330
1E
100
AcDbEntity
  8
0
100
AcDbLine
 10
0.326087000000008
 20
83.31180000000001
 30
0.0
 11
0.326087000000008
 21
78.0
 31
0.0
  0
LINE
  5
77
330
1E
100
AcDbEntity
  8
0
100
AcDbLine
 10
0.326087000000008
 20
83.31180000000001
 30
0.0
 11
0.326087000000008
 21
88.31470000000001
 31
0.0
  0
LINE
  5
78
330
1E
100
AcDbEntity
  8
0
100
AcDbLine
 10
233.0
 20
78.0141
 30
0.0
 11
234.0549999999999
 21
83.44039999999999
 31
0.0
  0
LINE
  5
79
330
1E
100
AcDbEntity
  8
0
100
AcDbLine
 10
234.0549999999999
 20
83.44039999999999
 30
0.0
 11
234.962
 21
88.38469999999999
 31
0.0
  0
LINE
  5
7A
330
1E
100
AcDbEntity
  8
0
100
AcDbLine
 10
0.0000000000000074
 20
95.3559
 30
0.0
 11
0.0000000000000074
 21
92.20589999999999
 31
0.0
  0
LINE
  5
7B
330
1E
100
AcDbEntity
  8
0
100
AcDbLine
 10
0.0000000000000074
 20
95.3559
 30
0.0
 11
0.0000000000000074
 21
97.33240000000002
 31
0.0
  0
LINE
  5
7C
330
1E
100
AcDbEntity
  8
0
100
AcDbLine
 10
0.326087000000008
 20
95.91179999999999
 30
0.0
 11
0.326087000000008
 21
92.6382
 31
0.0
  0
LINE
  5
7D
330
1E
100
AcDbEntity
  8
0
100
AcDbLine
 10
0.326087000000008
 20
95.91179999999999
 30
0.0
 11
0.326087000000008
 21
97.95000000000001
 31
0.0
  0
LINE
  5
7E
330
1E
100
AcDbEntity
  8
0
100
AcDbLine
 10
0.0000000000000074
 20
92.20589999999999
 30
0.0
 11
0.0000000000000074
 21
88.00589999999999
 31
0.0
  0
LINE
  5
7F
330
1E
100
AcDbEntity
  8
0
100
AcDbLine
 10
0.0000000000000074
 20
92.20589999999999
 30
0.0
 11
0.0000000000000074
 21
95.3559
 31
0.0
  0
LINE
  5
80
330
1E
100
AcDbEntity
  8
0
100
AcDbLine
 10
230.0
 20
92.20589999999999
 30
0.0
 11
230.0
 21
88.00589999999999
 31
0.0
  0
LINE
  5
81
330
1E
100
AcDbEntity
  8
0
100
AcDbLine
 10
230.0
 20
92.20589999999999
 30
0.0
 11
230.0
 21
95.3559
 31
0.0
  0
LINE
  5
82
330
1E
100
AcDbEntity
  8
0
100
AcDbLine
 10
230.0
 20
95.3559
 30
0.0
 11
230.0
 21
97.33240000000002
 31
0.0
  0
LINE
  5
83
330
1E
100
AcDbEntity
  8
0
100
AcDbLine
 10
230.0
 20
95.3559
 30
0.0
 11
230.0
 21
92.20589999999999
 31
0.0
  0
LINE
  5
84
330
1E
100
AcDbEntity
  8
0
100
AcDbLine
 10
229.674
 20
95.91179999999999
 30
0.0
 11
229.674
 21
97.95000000000001
 31
0.0
  0
LINE
  5
85
330
1E
100
AcDbEntity
  8
0
100
AcDbLine
 10
229.674
 20
95.91179999999999
 30
0.0
 11
229.674
 21
92.6382
 31
0.0
  0
LINE
  5
86
330
1E
100
AcDbEntity
  8
0
100
AcDbLine
 10
229.674
 20
92.6382
 30
0.0
 11
229.674
 21
88.31470000000001
 31
0.0
  0
LINE
  5
87
330
1E
100
AcDbEntity
  8
0
100
AcDbLine
 10
229.674
 20
92.6382
 30
0.0
 11
229.674
 21
95.91179999999999
 31
0.0
  0
LINE
  5
88
330
1E
100
AcDbEntity
  8
0
100
AcDbLine
 10
0.326087000000008
 20
92.6382
 30
0.0
 11
0.326087000000008
 21
88.31470000000001
 31
0.0
  0
LINE
  5
89
330
1E
100
AcDbEntity
  8
0
100
AcDbLine
 10
0.326087000000008
 20
92.6382
 30
0.0
 11
0.326087000000008
 21
95.91179999999999
 31
0.0
  0
LINE
  5
8A
330
1E
100
AcDbEntity
  8
0
100
AcDbLine
 10
234.962
 20
88.38469999999999
 30
0.0
 11
235.8449999999999
 21
92.8936
 31
0.0
  0
LINE
  5
8B
330
1E
100
AcDbEntity
  8
0
100
AcDbLine
 10
235.8449999999999
 20
92.8936
 30
0.0
 11
236.4749999999999
 21
96.19010000000001
 31
0.0
  0
LINE
  5
8C
330
1E
100
AcDbEntity
  8
0
100
AcDbLine
 10
0.0000000000000074
 20
97.33240000000002
 30
0.0
 11
0.0000000000000074
 21
95.3559
 31
0.0
  0
LINE
  5
8D
330
1E
100
AcDbEntity
  8
0
100
AcDbLine
 10
0.0000000000000074
 20
97.33240000000002
 30
0.0
 11
0.0000000000000074
 21
98.07349999999999
 31
0.0
  0
LINE
  5
8E
330
1E
100
AcDbEntity
  8
0
100
AcDbLine
 10
0.326087000000008
 20
97.95000000000001
 30
0.0
 11
0.326087000000008
 21
95.91179999999999
 31
0.0
  0
LINE
  5
8F
330
1E
100
AcDbEntity
  8
0
100
AcDbLine
 10
0.326087000000008
 20
97.95000000000001
 30
0.0
 11
0.326087000000008
 21
98.6912
 31
0.0
  0
LINE
  5
90
330
1E
100
AcDbEntity
  8
0
100
AcDbLine
 10
0.0000000000000074
 20
98.07349999999999
 30
0.0
 11
0.326087000000008
 21
98.6912
 31
0.0
  0
LINE
  5
91
330
1E
100
AcDbEntity
  8
0
100
AcDbLine
 10
0.0000000000000074
 20
98.07349999999999
 30
0.0
 11
0.0000000000000074
 21
97.33240000000002
 31
0.0
  0
LINE
  5
92
330
1E
100
AcDbEntity
  8
0
100
AcDbLine
 10
25.0
 20
99.0
 30
0.0
 11
25.0
 21
122.0
 31
0.0
  0
LINE
  5
93
330
1E
100
AcDbEntity
  8
0
100
AcDbLine
 10
0.9782610000000049
 20
99.0
 30
0.0
 11
25.0
 21
99.0
 31
0.0
  0
LINE
  5
94
330
1E
100
AcDbEntity
  8
0
100
AcDbLine
 10
0.326087000000008
 20
98.6912
 30
0.0
 11
0.9782610000000071
 21
99.0
 31
0.0
  0
LINE
  5
95
330
1E
100
AcDbEntity
  8
0
100
AcDbLine
 10
0.326087000000008
 20
98.6912
 30
0.0
 11
0.326087000000008
 21
97.95000000000001
 31
0.0
  0
LINE
  5
96
330
1E
100
AcDbEntity
  8
0
100
AcDbLine
 10
175.0
 20
99.0
 30
0.0
 11
175.0
 21
122.0
 31
0.0
  0
LINE
  5
97
330
1E
100
AcDbEntity
  8
0
100
AcDbLine
 10
230.0
 20
98.07349999999999
 30
0.0
 11
230.0
 21
97.33240000000002
 31
0.0
  0
LINE
  5
98
330
1E
100
AcDbEntity
  8
0
100
AcDbLine
 10
230.0
 20
97.33240000000002
 30
0.0
 11
230.0
 21
98.07349999999999
 31
0.0
  0
LINE
  5
99
330
1E
100
AcDbEntity
  8
0
100
AcDbLine
 10
230.0
 20
97.33240000000002
 30
0.0
 11
230.0
 21
95.3559
 31
0.0
  0
LINE
  5
9A
330
1E
100
AcDbEntity
  8
0
100
AcDbLine
 10
229.674
 20
97.95000000000001
 30
0.0
 11
229.674
 21
98.6912
 31
0.0
  0
LINE
  5
9B
330
1E
100
AcDbEntity
  8
0
100
AcDbLine
 10
229.674
 20
97.95000000000001
 30
0.0
 11
229.674
 21
95.91179999999999
 31
0.0
  0
LINE
  5
9C
330
1E
100
AcDbEntity
  8
0
100
AcDbLine
 10
229.674
 20
98.6912
 30
0.0
 11
230.0
 21
98.07349999999999
 31
0.0
  0
LINE
  5
9D
330
1E
100
AcDbEntity
  8
0
100
AcDbLine
 10
229.674
 20
98.6912
 30
0.0
 11
229.674
 21
97.95000000000001
 31
0.0
  0
LINE
  5
9E
330
1E
100
AcDbEntity
  8
0
100
AcDbLine
 10
229.022
 20
99.0
 30
0.0
 11
229.674
 21
98.6912
 31
0.0
  0
LINE
  5
9F
330
1E
100
AcDbEntity
  8
0
100
AcDbLine
 10
205.0
 20
99.0
 30
0.0
 11
229.022
 21
99.0
 31
0.0
  0
LINE
  5
A0
330
1E
100
AcDbEntity
  8
0
100
AcDbLine
 10
205.0
 20
99.0
 30
0.0
 11
205.0
 21
122.0
 31
0.0
  0
LINE
  5
A1
330
1E
100
AcDbEntity
  8
0
100
AcDbLine
 10
115.0
 20
99.0
 30
0.0
 11
205.0
 21
99.0
 31
0.0
  0
LINE
  5
A2
330
1E
100
AcDbEntity
  8
0
100
AcDbLine
 10
25.0
 20
99.0
 30
0.0
 11
115.0
 21
99.0
 31
0.0
  0
LINE
  5
A3
330
1E
100
AcDbEntity
  8
0
100
AcDbLine
 10
25.0
 20
99.0
 30
0.0
 11
115.0
 21
99.0
 31
0.0
  0
LINE
  5
A4
330
1E
100
AcDbEntity
  8
0
100
AcDbLine
 10
55.0
 20
99.0
 30
0.0
 11
55.0
 21
122.0
 31
0.0
  0
LINE
  5
A5
330
1E
100
AcDbEntity
  8
0
100
AcDbLine
 10
10.5
 20
148.0
 30
0.0
 11
11.5412
 21
148.0
 31
0.0
  0
LINE
  5
A6
330
1E
100
AcDbEntity
  8
0
100
AcDbLine
 10
10.5
 20
148.0
 30
0.0
 11
10.5
 21
123.154
 31
0.0
  0
LINE
  5
A7
330
1E
100
AcDbEntity
  8
0
100
AcDbLine
 10
27.02939999999999
 20
122.0
 30
0.0
 11
29.4118
 21
122.0
 31
0.0
  0
LINE
  5
A8
330
1E
100
AcDbEntity
  8
0
100
AcDbLine
 10
25.52939999999999
 20
122.0
 30
0.0
 11
27.02939999999999
 21
122.0
 31
0.0
  0
LINE
  5
A9
330
1E
100
AcDbEntity
  8
0
100
AcDbLine
 10
25.0
 20
122.0
 30
0.0
 11
25.0
 21
99.0
 31
0.0
  0
LINE
  5
AA
330
1E
100
AcDbEntity
  8
0
100
AcDbLine
 10
25.0
 20
122.0
 30
0.0
 11
25.52939999999999
 21
122.0
 31
0.0
  0
LINE
  5
AB
330
1E
100
AcDbEntity
  8
0
100
AcDbLine
 10
29.4118
 20
122.0
 30
0.0
 11
32.5441
 21
122.0
 31
0.0
  0
LINE
  5
AC
330
1E
100
AcDbEntity
  8
0
100
AcDbLine
 10
32.5441
 20
122.0
 30
0.0
 11
36.16179999999999
 21
122.0
 31
0.0
  0
LINE
  5
AD
330
1E
100
AcDbEntity
  8
0
100
AcDbLine
 10
36.16179999999999
 20
122.0
 30
0.0
 11
40.0
 21
122.0
 31
0.0
  0
LINE
  5
AE
330
1E
100
AcDbEntity
  8
0
100
AcDbLine
 10
50.5882
 20
122.0
 30
0.0
 11
52.9706
 21
122.0
 31
0.0
  0
LINE
  5
AF
330
1E
100
AcDbEntity
  8
0
100
AcDbLine
 10
52.9706
 20
122.0
 30
0.0
 11
54.4706
 21
122.0
 31
0.0
  0
LINE
  5
B0
330
1E
100
AcDbEntity
  8
0
100
AcDbLine
 10
54.4706
 20
122.0
 30
0.0
 11
55.0
 21
122.0
 31
0.0
  0
LINE
  5
B1
330
1E
100
AcDbEntity
  8
0
100
AcDbLine
 10
47.45589999999999
 20
122.0
 30
0.0
 11
50.5882
 21
122.0
 31
0.0
  0
LINE
  5
B2
330
1E
100
AcDbEntity
  8
0
100
AcDbLine
 10
43.8382
 20
122.0
 30
0.0
 11
47.45589999999999
 21
122.0
 31
0.0
  0
LINE
  5
B3
330
1E
100
AcDbEntity
  8
0
100
AcDbLine
 10
40.0
 20
122.0
 30
0.0
 11
43.8382
 21
122.0
 31
0.0
  0
LINE
  5
B4
330
1E
100
AcDbEntity
  8
0
100
AcDbLine
 10
59.95589999999999
 20
122.0
 30
0.0
 11
64.38089999999999
 21
122.0
 31
0.0
  0
LINE
  5
B5
330
1E
100
AcDbEntity
  8
0
100
AcDbLine
 10
64.38089999999999
 20
122.0
 30
0.0
 11
67.1574
 21
122.0
 31
0.0
  0
LINE
  5
B6
330
1E
100
AcDbEntity
  8
0
100
AcDbLine
 10
165.619
 20
122.0
 30
0.0
 11
170.044
 21
122.0
 31
0.0
  0
LINE
  5
B7
330
1E
100
AcDbEntity
  8
0
100
AcDbLine
 10
162.8429999999999
 20
122.0
 30
0.0
 11
165.619
 21
122.0
 31
0.0
  0
LINE
  5
B8
330
1E
100
AcDbEntity
  8
0
100
AcDbLine
 10
161.801
 20
122.0
 30
0.0
 11
162.8429999999999
 21
122.0
 31
0.0
  0
LINE
  5
B9
330
1E
100
AcDbEntity
  8
0
100
AcDbLine
 10
170.044
 20
122.0
 30
0.0
 11
175.0
 21
122.0
 31
0.0
  0
LINE
  5
BA
330
1E
100
AcDbEntity
  8
0
100
AcDbLine
 10
177.029
 20
122.0
 30
0.0
 11
179.412
 21
122.0
 31
0.0
  0
LINE
  5
BB
330
1E
100
AcDbEntity
  8
0
100
AcDbLine
 10
175.529
 20
122.0
 30
0.0
 11
177.029
 21
122.0
 31
0.0
  0
LINE
  5
BC
330
1E
100
AcDbEntity
  8
0
100
AcDbLine
 10
179.412
 20
122.0
 30
0.0
 11
182.544
 21
122.0
 31
0.0
  0
LINE
  5
BD
330
1E
100
AcDbEntity
  8
0
100
AcDbLine
 10
182.544
 20
122.0
 30
0.0
 11
186.162
 21
122.0
 31
0.0
  0
LINE
  5
BE
330
1E
100
AcDbEntity
  8
0
100
AcDbLine
 10
200.5879999999999
 20
122.0
 30
0.0
 11
202.9709999999999
 21
122.0
 31
0.0
  0
LINE
  5
BF
330
1E
100
AcDbEntity
  8
0
100
AcDbLine
 10
202.9709999999999
 20
122.0
 30
0.0
 11
204.4709999999999
 21
122.0
 31
0.0
  0
LINE
  5
C0
330
1E
100
AcDbEntity
  8
0
100
AcDbLine
 10
204.4709999999999
 20
122.0
 30
0.0
 11
205.0
 21
122.0
 31
0.0
  0
LINE
  5
C1
330
1E
100
AcDbEntity
  8
0
100
AcDbLine
 10
209.9559999999999
 20
122.0
 30
0.0
 11
214.3809999999999
 21
122.0
 31
0.0
  0
LINE
  5
C2
330
1E
100
AcDbEntity
  8
0
100
AcDbLine
 10
214.3809999999999
 20
122.0
 30
0.0
 11
217.157
 21
122.0
 31
0.0
  0
LINE
  5
C3
330
1E
100
AcDbEntity
  8
0
100
AcDbLine
 10
217.157
 20
122.0
 30
0.0
 11
218.199
 21
122.0
 31
0.0
  0
LINE
  5
C4
330
1E
100
AcDbEntity
  8
0
100
AcDbLine
 10
218.199
 20
122.0
 30
0.0
 11
219.0659999999999
 21
122.385
 31
0.0
  0
LINE
  5
C5
330
1E
100
AcDbEntity
  8
0
100
AcDbLine
 10
205.0
 20
122.0
 30
0.0
 11
205.0
 21
99.0
 31
0.0
  0
LINE
  5
C6
330
1E
100
AcDbEntity
  8
0
100
AcDbLine
 10
205.0
 20
122.0
 30
0.0
 11
209.9559999999999
 21
122.0
 31
0.0
  0
LINE
  5
C7
330
1E
100
AcDbEntity
  8
0
100
AcDbLine
 10
197.4559999999999
 20
122.0
 30
0.0
 11
200.5879999999999
 21
122.0
 31
0.0
  0
LINE
  5
C8
330
1E
100
AcDbEntity
  8
0
100
AcDbLine
 10
193.838
 20
122.0
 30
0.0
 11
197.4559999999999
 21
122.0
 31
0.0
  0
LINE
  5
C9
330
1E
100
AcDbEntity
  8
0
100
AcDbLine
 10
190.0
 20
122.0
 30
0.0
 11
193.838
 21
122.0
 31
0.0
  0
LINE
  5
CA
330
1E
100
AcDbEntity
  8
0
100
AcDbLine
 10
186.162
 20
122.0
 30
0.0
 11
190.0
 21
122.0
 31
0.0
  0
LINE
  5
CB
330
1E
100
AcDbEntity
  8
0
100
AcDbLine
 10
175.0
 20
122.0
 30
0.0
 11
175.0
 21
99.0
 31
0.0
  0
LINE
  5
CC
330
1E
100
AcDbEntity
  8
0
100
AcDbLine
 10
175.0
 20
122.0
 30
0.0
 11
175.529
 21
122.0
 31
0.0
  0
LINE
  5
CD
330
1E
100
AcDbEntity
  8
0
100
AcDbLine
 10
68.19849999999999
 20
122.0
 30
0.0
 11
69.0662
 21
122.385
 31
0.0
  0
LINE
  5
CE
330
1E
100
AcDbEntity
  8
0
100
AcDbLine
 10
67.1574
 20
122.0
 30
0.0
 11
68.19849999999999
 21
122.0
 31
0.0
  0
LINE
  5
CF
330
1E
100
AcDbEntity
  8
0
100
AcDbLine
 10
55.0
 20
122.0
 30
0.0
 11
59.95589999999999
 21
122.0
 31
0.0
  0
LINE
  5
D0
330
1E
100
AcDbEntity
  8
0
100
AcDbLine
 10
55.0
 20
122.0
 30
0.0
 11
55.0
 21
99.0
 31
0.0
  0
LINE
  5
D1
330
1E
100
AcDbEntity
  8
0
100
AcDbLine
 10
20.0441
 20
122.0
 30
0.0
 11
25.0
 21
122.0
 31
0.0
  0
LINE
  5
D2
330
1E
100
AcDbEntity
  8
0
100
AcDbLine
 10
15.6191
 20
122.0
 30
0.0
 11
20.0441
 21
122.0
 31
0.0
  0
LINE
  5
D3
330
1E
100
AcDbEntity
  8
0
100
AcDbLine
 10
14.8382
 20
122.385
 30
0.0
 11
19.4368
 21
122.385
 31
0.0
  0
LINE
  5
D4
330
1E
100
AcDbEntity
  8
0
100
AcDbLine
 10
11.975
 20
122.385
 30
0.0
 11
14.8382
 21
122.385
 31
0.0
  0
LINE
  5
D5
330
1E
100
AcDbEntity
  8
0
100
AcDbLine
 10
19.4368
 20
122.385
 30
0.0
 11
25.5103
 21
122.385
 31
0.0
  0
LINE
  5
D6
330
1E
100
AcDbEntity
  8
0
100
AcDbLine
 10
25.5103
 20
122.385
 30
0.0
 11
32.5382
 21
122.385
 31
0.0
  0
LINE
  5
D7
330
1E
100
AcDbEntity
  8
0
100
AcDbLine
 10
32.5382
 20
122.385
 30
0.0
 11
40.0
 21
122.385
 31
0.0
  0
LINE
  5
D8
330
1E
100
AcDbEntity
  8
0
100
AcDbLine
 10
60.5632
 20
122.385
 30
0.0
 11
65.1618
 21
122.385
 31
0.0
  0
LINE
  5
D9
330
1E
100
AcDbEntity
  8
0
100
AcDbLine
 10
65.1618
 20
122.385
 30
0.0
 11
68.02500000000001
 21
122.385
 31
0.0
  0
LINE
  5
DA
330
1E
100
AcDbEntity
  8
0
100
AcDbLine
 10
68.02500000000001
 20
122.385
 30
0.0
 11
69.0662
 21
122.385
 31
0.0
  0
LINE
  5
DB
330
1E
100
AcDbEntity
  8
0
100
AcDbLine
 10
54.4897
 20
122.385
 30
0.0
 11
60.5632
 21
122.385
 31
0.0
  0
LINE
  5
DC
330
1E
100
AcDbEntity
  8
0
100
AcDbLine
 10
47.46179999999999
 20
122.385
 30
0.0
 11
54.4897
 21
122.385
 31
0.0
  0
LINE
  5
DD
330
1E
100
AcDbEntity
  8
0
100
AcDbLine
 10
40.0
 20
122.385
 30
0.0
 11
47.46179999999999
 21
122.385
 31
0.0
  0
LINE
  5
DE
330
1E
100
AcDbEntity
  8
0
100
AcDbLine
 10
164.8379999999999
 20
122.385
 30
0.0
 11
169.437
 21
122.385
 31
0.0
  0
LINE
  5
DF
330
1E
100
AcDbEntity
  8
0
100
AcDbLine
 10
161.9749999999999
 20
122.385
 30
0.0
 11
164.8379999999999
 21
122.385
 31
0.0
  0
LINE
  5
E0
330
1E
100
AcDbEntity
  8
0
100
AcDbLine
 10
169.437
 20
122.385
 30
0.0
 11
175.5099999999999
 21
122.385
 31
0.0
  0
LINE
  5
E1
330
1E
100
AcDbEntity
  8
0
100
AcDbLine
 10
210.563
 20
122.385
 30
0.0
 11
215.162
 21
122.385
 31
0.0
  0
LINE
  5
E2
330
1E
100
AcDbEntity
  8
0
100
AcDbLine
 10
215.162
 20
122.385
 30
0.0
 11
218.025
 21
122.385
 31
0.0
  0
LINE
  5
E3
330
1E
100
AcDbEntity
  8
0
100
AcDbLine
 10
218.025
 20
122.385
 30
0.0
 11
219.0659999999999
 21
122.385
 31
0.0
  0
LINE
  5
E4
330
1E
100
AcDbEntity
  8
0
100
AcDbLine
 10
204.49
 20
122.385
 30
0.0
 11
210.563
 21
122.385
 31
0.0
  0
LINE
  5
E5
330
1E
100
AcDbEntity
  8
0
100
AcDbLine
 10
197.462
 20
122.385
 30
0.0
 11
204.49
 21
122.385
 31
0.0
  0
LINE
  5
E6
330
1E
100
AcDbEntity
  8
0
100
AcDbLine
 10
190.0
 20
122.385
 30
0.0
 11
197.462
 21
122.385
 31
0.0
  0
LINE
  5
E7
330
1E
100
AcDbEntity
  8
0
100
AcDbLine
 10
175.5099999999999
 20
122.385
 30
0.0
 11
182.5379999999999
 21
122.385
 31
0.0
  0
LINE
  5
E8
330
1E
100
AcDbEntity
  8
0
100
AcDbLine
 10
182.5379999999999
 20
122.385
 30
0.0
 11
190.0
 21
122.385
 31
0.0
  0
LINE
  5
E9
330
1E
100
AcDbEntity
  8
0
100
AcDbLine
 10
160.9339999999999
 20
122.385
 30
0.0
 11
161.801
 21
122.0
 31
0.0
  0
LINE
  5
EA
330
1E
100
AcDbEntity
  8
0
100
AcDbLine
 10
160.9339999999999
 20
122.385
 30
0.0
 11
161.9749999999999
 21
122.385
 31
0.0
  0
LINE
  5
EB
330
1E
100
AcDbEntity
  8
0
100
AcDbLine
 10
219.0659999999999
 20
122.385
 30
0.0
 11
219.4999999999999
 21
123.154
 31
0.0
  0
LINE
  5
EC
330
1E
100
AcDbEntity
  8
0
100
AcDbLine
 10
69.0662
 20
122.385
 30
0.0
 11
69.5
 21
123.154
 31
0.0
  0
LINE
  5
ED
330
1E
100
AcDbEntity
  8
0
100
AcDbLine
 10
12.8427
 20
122.0
 30
0.0
 11
15.6191
 21
122.0
 31
0.0
  0
LINE
  5
EE
330
1E
100
AcDbEntity
  8
0
100
AcDbLine
 10
11.8015
 20
122.0
 30
0.0
 11
12.8427
 21
122.0
 31
0.0
  0
LINE
  5
EF
330
1E
100
AcDbEntity
  8
0
100
AcDbLine
 10
14.49119999999999
 20
148.0
 30
0.0
 11
19.1765
 21
148.0
 31
0.0
  0
LINE
  5
F0
330
1E
100
AcDbEntity
  8
0
100
AcDbLine
 10
11.5412
 20
148.0
 30
0.0
 11
14.49119999999999
 21
148.0
 31
0.0
  0
LINE
  5
F1
330
1E
100
AcDbEntity
  8
0
100
AcDbLine
 10
19.1765
 20
148.0
 30
0.0
 11
25.3368
 21
148.0
 31
0.0
  0
LINE
  5
F2
330
1E
100
AcDbEntity
  8
0
100
AcDbLine
 10
25.3368
 20
148.0
 30
0.0
 11
32.4515
 21
148.0
 31
0.0
  0
LINE
  5
F3
330
1E
100
AcDbEntity
  8
0
100
AcDbLine
 10
32.4515
 20
148.0
 30
0.0
 11
40.0
 21
148.0
 31
0.0
  0
LINE
  5
F4
330
1E
100
AcDbEntity
  8
0
100
AcDbLine
 10
60.8235
 20
148.0
 30
0.0
 11
65.50879999999999
 21
148.0
 31
0.0
  0
LINE
  5
F5
330
1E
100
AcDbEntity
  8
0
100
AcDbLine
 10
65.50879999999999
 20
148.0
 30
0.0
 11
68.4588
 21
148.0
 31
0.0
  0
LINE
  5
F6
330
1E
100
AcDbEntity
  8
0
100
AcDbLine
 10
69.5
 20
123.154
 30
0.0
 11
69.5
 21
148.0
 31
0.0
  0
LINE
  5
F7
330
1E
100
AcDbEntity
  8
0
100
AcDbLine
 10
68.4588
 20
148.0
 30
0.0
 11
69.5
 21
148.0
 31
0.0
  0
LINE
  5
F8
330
1E
100
AcDbEntity
  8
0
100
AcDbLine
 10
54.6632
 20
148.0
 30
0.0
 11
60.8235
 21
148.0
 31
0.0
  0
LINE
  5
F9
330
1E
100
AcDbEntity
  8
0
100
AcDbLine
 10
47.5485
 20
148.0
 30
0.0
 11
54.6632
 21
148.0
 31
0.0
  0
LINE
  5
FA
330
1E
100
AcDbEntity
  8
0
100
AcDbLine
 10
40.0
 20
148.0
 30
0.0
 11
47.5485
 21
148.0
 31
0.0
  0
LINE
  5
FB
330
1E
100
AcDbEntity
  8
0
100
AcDbLine
 10
160.4999999999999
 20
123.154
 30
0.0
 11
160.9339999999999
 21
122.385
 31
0.0
  0
LINE
  5
FC
330
1E
100
AcDbEntity
  8
0
100
AcDbLine
 10
160.4999999999999
 20
123.154
 30
0.0
 11
160.4999999999999
 21
148.0
 31
0.0
  0
LINE
  5
FD
330
1E
100
AcDbEntity
  8
0
100
AcDbLine
 10
164.4909999999999
 20
148.0
 30
0.0
 11
169.1759999999999
 21
148.0
 31
0.0
  0
LINE
  5
FE
330
1E
100
AcDbEntity
  8
0
100
AcDbLine
 10
161.5409999999999
 20
148.0
 30
0.0
 11
164.4909999999999
 21
148.0
 31
0.0
  0
LINE
  5
FF
330
1E
100
AcDbEntity
  8
0
100
AcDbLine
 10
169.1759999999999
 20
148.0
 30
0.0
 11
175.337
 21
148.0
 31
0.0
  0
LINE
  5
100
330
1E
100
AcDbEntity
  8
0
100
AcDbLine
 10
210.824
 20
148.0
 30
0.0
 11
215.509
 21
148.0
 31
0.0
  0
LINE
  5
101
330
1E
100
AcDbEntity
  8
0
100
AcDbLine
 10
215.509
 20
148.0
 30
0.0
 11
218.459
 21
148.0
 31
0.0
  0
LINE
  5
102
330
1E
100
AcDbEntity
  8
0
100
AcDbLine
 10
219.4999999999999
 20
148.0
 30
0.0
 11
219.4999999999999
 21
123.154
 31
0.0
  0
LINE
  5
103
330
1E
100
AcDbEntity
  8
0
100
AcDbLine
 10
218.459
 20
148.0
 30
0.0
 11
219.4999999999999
 21
148.0
 31
0.0
  0
LINE
  5
104
330
1E
100
AcDbEntity
  8
0
100
AcDbLine
 10
204.6629999999999
 20
148.0
 30
0.0
 11
210.824
 21
148.0
 31
0.0
  0
LINE
  5
105
330
1E
100
AcDbEntity
  8
0
100
AcDbLine
 10
197.548
 20
148.0
 30
0.0
 11
204.6629999999999
 21
148.0
 31
0.0
  0
LINE
  5
106
330
1E
100
AcDbEntity
  8
0
100
AcDbLine
 10
190.0
 20
148.0
 30
0.0
 11
197.548
 21
148.0
 31
0.0
  0
LINE
  5
107
330
1E
100
AcDbEntity
  8
0
100
AcDbLine
 10
175.337
 20
148.0
 30
0.0
 11
182.4519999999999
 21
148.0
 31
0.0
  0
LINE
  5
108
330
1E
100
AcDbEntity
  8
0
100
AcDbLine
 10
182.4519999999999
 20
148.0
 30
0.0
 11
190.0
 21
148.0
 31
0.0
  0
LINE
  5
109
330
1E
100
AcDbEntity
  8
0
100
AcDbLine
 10
160.4999999999999
 20
148.0
 30
0.0
 11
160.4999999999999
 21
123.154
 31
0.0
  0
LINE
  5
10A
330
1E
100
AcDbEntity
  8
0
100
AcDbLine
 10
160.4999999999999
 20
148.0
 30
0.0
 11
161.5409999999999
 21
148.0
 31
0.0
  0
LINE
  5
10B
330
1E
100
AcDbEntity
  8
0
100
AcDbLine
 10
219.4999999999999
 20
123.154
 30
0.0
 11
219.4999999999999
 21
148.0
 31
0.0
  0
LINE
  5
10C
330
1E
100
AcDbEntity
  8
0
100
AcDbLine
 10
69.5
 20
148.0
 30
0.0
 11
69.5
 21
123.154
 31
0.0
  0
LINE
  5
10D
330
1E
100
AcDbEntity
  8
0
100
AcDbLine
 10
10.9338
 20
122.385
 30
0.0
 11
11.8015
 21
122.0
 31
0.0
  0
LINE
  5
10E
330
1E
100
AcDbEntity
  8
0
100
AcDbLine
 10
10.9338
 20
122.385
 30
0.0
 11
11.975
 21
122.385
 31
0.0
  0
LINE
  5
10F
330
1E
100
AcDbEntity
  8
0
100
AcDbLine
 10
10.5
 20
123.154
 30
0.0
 11
10.5
 21
148.0
 31
0.0
  0
LINE
  5
110
330
1E
100
AcDbEntity
  8
0
100
AcDbLine
 10
10.5
 20
123.154
 30
0.0
 11
10.9338
 21
122.385
 31
0.0
  0
LINE
  5
111
330
1E
100
AcDbEntity
  8
0
100
AcDbLine
 10
0.9782610000000071
 20
99.0
 30
0.0
 11
25.0
 21
99.0
 31
0.0
  0
LINE
  5
112
330
1E
100
AcDbEntity
  8
0
100
AcDbLine
 10
232.857
 20
97.2991
 30
0.0
 11
236.6154227015099
 21
96.9161167267161
 31
0.0
  0
LINE
  5
113
330
1E
100
AcDbEntity
  8
0
100
AcDbLine
 10
230.0
 20
97.2991
 30
0.0
 11
232.857
 21
97.2991
 31
0.0
  0
LINE
  5
114
330
1E
100
AcDbEntity
  8
0
100
AcDbLine
 10
236.4749999999999
 20
96.19010000000001
 30
0.0
 11
236.878
 21
98.27370000000001
 31
0.0
  0
LINE
  5
115
330
1E
100
AcDbEntity
  8
0
100
AcDbLine
 10
237.0
 20
99.0
 30
0.0
 11
263.4739999999999
 21
99.0
 31
0.0
  0
LINE
  5
116
330
1E
100
AcDbEntity
  8
0
100
AcDbLine
 10
236.878
 20
98.27370000000001
 30
0.0
 11
237.0
 21
99.0
 31
0.0
  0
LINE
  5
125
330
1E
100
AcDbEntity
  8
0
100
AcDbLine
 10
256.1269999999999
 20
52.3497
 30
0.0
 11
258.471
 21
49.1578
 31
0.0
  0
LINE
  5
126
330
1E
100
AcDbEntity
  8
0
100
AcDbLine
 10
258.471
 20
49.1578
 30
0.0
 11
259.9299999999999
 21
45.1235
 31
0.0
  0
LINE
  5
127
330
1E
100
AcDbEntity
  8
0
100
AcDbLine
 10
259.9299999999999
 20
45.1235
 30
0.0
 11
260.711
 21
40.91199999999999
 31
0.0
  0
LINE
  5
128
330
1E
100
AcDbEntity
  8
0
100
AcDbLine
 10
260.711
 20
40.91199999999999
 30
0.0
 11
261.8399999999999
 21
17.8432
 31
0.0
  0
LINE
  5
129
330
1E
100
AcDbEntity
  8
0
100
AcDbLine
 10
260.711
 20
40.91199999999999
 30
0.0
 11
261.8399999999999
 21
17.8432
 31
0.0
  0
LINE
  5
12A
330
1E
100
AcDbEntity
  8
0
100
AcDbLine
 10
261.8399999999999
 20
17.8432
 30
0.0
 11
262.114
 21
13.2361
 31
0.0
  0
LINE
  5
12B
330
1E
100
AcDbEntity
  8
0
100
AcDbLine
 10
262.114
 20
13.2361
 30
0.0
 11
262.382
 21
9.0501
 31
0.0
  0
LINE
  5
12C
330
1E
100
AcDbEntity
  8
0
100
AcDbLine
 10
262.382
 20
9.0501
 30
0.0
 11
262.6059999999999
 21
5.1013
 31
0.0
  0
LINE
  5
12E
330
1E
100
AcDbEntity
  8
0
100
AcDbLine
 10
262.6059999999999
 20
5.1013
 30
0.0
 11
263.212
 21
0.5101000000000031
 31
0.0
  0
LINE
  5
130
330
1E
100
AcDbEntity
  8
0
100
AcDbLine
 10
263.212
 20
0.5101000000000031
 30
0.0
 11
263.5759999999999
 21
0.0000000000000029
 31
0.0
  0
LINE
  5
131
330
1E
100
AcDbEntity
  8
0
100
AcDbLine
 10
263.212
 20
0.5101000000000031
 30
0.0
 11
263.5759999999999
 21
0.000000000000003
 31
0.0
  0
LINE
  5
132
330
1E
100
AcDbEntity
  8
0
100
AcDbLine
 10
265.3939999999999
 20
0.0000000000000029
 30
0.0
 11
265.3939999999999
 21
0.5101000000000031
 31
0.0
  0
LINE
  5
133
330
1E
100
AcDbEntity
  8
0
100
AcDbLine
 10
265.3939999999999
 20
0.0000000000000029
 30
0.0
 11
265.7579999999999
 21
0.3401000000000029
 31
0.0
  0
LINE
  5
134
330
1E
100
AcDbEntity
  8
0
100
AcDbLine
 10
265.3939999999999
 20
0.000000000000003
 30
0.0
 11
265.7579999999999
 21
0.3401000000000029
 31
0.0
  0
LINE
  5
136
330
1E
100
AcDbEntity
  8
0
100
AcDbLine
 10
265.3939999999999
 20
5.1013
 30
0.0
 11
265.3939999999999
 21
2.380599999999999
 31
0.0
  0
LINE
  5
137
330
1E
100
AcDbEntity
  8
0
100
AcDbLine
 10
265.3939999999999
 20
5.1013
 30
0.0
 11
265.3939999999999
 21
9.012299999999999
 31
0.0
  0
LINE
  5
138
330
1E
100
AcDbEntity
  8
0
100
AcDbLine
 10
265.3939999999999
 20
2.380599999999999
 30
0.0
 11
265.3939999999999
 21
0.5101000000000031
 31
0.0
  0
LINE
  5
139
330
1E
100
AcDbEntity
  8
0
100
AcDbLine
 10
265.3939999999999
 20
2.380599999999999
 30
0.0
 11
265.3939999999999
 21
5.1013
 31
0.0
  0
LINE
  5
13A
330
1E
100
AcDbEntity
  8
0
100
AcDbLine
 10
263.5759999999999
 20
0.0000000000000029
 30
0.0
 11
265.3939999999999
 21
0.0000000000000029
 31
0.0
  0
LINE
  5
13B
330
1E
100
AcDbEntity
  8
0
100
AcDbLine
 10
265.7579999999999
 20
0.3401000000000029
 30
0.0
 11
266.0
 21
0.8502000000000029
 31
0.0
  0
LINE
  5
13C
330
1E
100
AcDbEntity
  8
0
100
AcDbLine
 10
265.3939999999999
 20
0.5101000000000031
 30
0.0
 11
265.3939999999999
 21
0.000000000000003
 31
0.0
  0
LINE
  5
13D
330
1E
100
AcDbEntity
  8
0
100
AcDbLine
 10
265.3939999999999
 20
0.5101000000000031
 30
0.0
 11
265.3939999999999
 21
2.380599999999999
 31
0.0
  0
LINE
  5
13E
330
1E
100
AcDbEntity
  8
0
100
AcDbLine
 10
263.4739999999999
 20
99.0
 30
0.0
 11
265.368
 21
99.0
 31
0.0
  0
LINE
  5
144
330
1E
100
AcDbEntity
  8
0
100
AcDbLine
 10
265.368
 20
78.0141
 30
0.0
 11
265.368
 21
83.4105
 31
0.0
  0
LINE
  5
145
330
1E
100
AcDbEntity
  8
0
100
AcDbLine
 10
265.368
 20
78.0141
 30
0.0
 11
265.3939999999999
 21
17.8545
 31
0.0
  0
LINE
  5
146
330
1E
100
AcDbEntity
  8
0
100
AcDbLine
 10
265.368
 20
78.0141
 30
0.0
 11
265.3939999999999
 21
17.8545
 31
0.0
  0
LINE
  5
147
330
1E
100
AcDbEntity
  8
0
100
AcDbLine
 10
265.368
 20
83.4105
 30
0.0
 11
265.368
 21
78.0141
 31
0.0
  0
LINE
  5
148
330
1E
100
AcDbEntity
  8
0
100
AcDbLine
 10
265.368
 20
83.4105
 30
0.0
 11
265.368
 21
88.40709999999999
 31
0.0
  0
LINE
  5
149
330
1E
100
AcDbEntity
  8
0
100
AcDbLine
 10
265.368
 20
88.40709999999999
 30
0.0
 11
265.368
 21
83.4105
 31
0.0
  0
LINE
  5
14A
330
1E
100
AcDbEntity
  8
0
100
AcDbLine
 10
265.368
 20
88.40709999999999
 30
0.0
 11
265.368
 21
93.00409999999999
 31
0.0
  0
LINE
  5
14B
330
1E
100
AcDbEntity
  8
0
100
AcDbLine
 10
265.368
 20
93.00409999999999
 30
0.0
 11
265.368
 21
88.40709999999999
 31
0.0
  0
LINE
  5
14C
330
1E
100
AcDbEntity
  8
0
100
AcDbLine
 10
265.368
 20
93.00409999999999
 30
0.0
 11
265.368
 21
96.20200000000002
 31
0.0
  0
LINE
  5
14D
330
1E
100
AcDbEntity
  8
0
100
AcDbLine
 10
265.368
 20
96.20200000000002
 30
0.0
 11
265.368
 21
93.00409999999999
 31
0.0
  0
LINE
  5
14E
330
1E
100
AcDbEntity
  8
0
100
AcDbLine
 10
265.368
 20
96.20200000000002
 30
0.0
 11
265.368
 21
98.40040000000001
 31
0.0
  0
LINE
  5
14F
330
1E
100
AcDbEntity
  8
0
100
AcDbLine
 10
265.368
 20
98.40040000000001
 30
0.0
 11
265.368
 21
96.20200000000002
 31
0.0
  0
LINE
  5
150
330
1E
100
AcDbEntity
  8
0
100
AcDbLine
 10
265.368
 20
98.40040000000001
 30
0.0
 11
265.368
 21
99.0
 31
0.0
  0
LINE
  5
151
330
1E
100
AcDbEntity
  8
0
100
AcDbLine
 10
265.368
 20
99.0
 30
0.0
 11
265.368
 21
98.40040000000001
 31
0.0
  0
LINE
  5
152
330
1E
100
AcDbEntity
  8
0
100
AcDbLine
 10
265.368
 20
99.0
 30
0.0
 11
265.7469999999999
 21
98.60030000000001
 31
0.0
  0
LINE
  5
153
330
1E
100
AcDbEntity
  8
0
100
AcDbLine
 10
265.3939999999999
 20
17.8545
 30
0.0
 11
265.3939999999999
 21
13.2634
 31
0.0
  0
LINE
  5
154
330
1E
100
AcDbEntity
  8
0
100
AcDbLine
 10
266.0
 20
83.2107
 30
0.0
 11
266.0
 21
92.7914548586051
 31
0.0
  0
LINE
  5
155
330
1E
100
AcDbEntity
  8
0
100
AcDbLine
 10
266.0
 20
92.20449999999999
 30
0.0
 11
266.0
 21
95.4025
 31
0.0
  0
LINE
  5
156
330
1E
100
AcDbEntity
  8
0
100
AcDbLine
 10
266.0
 20
92.7914548586051
 30
0.0
 11
266.0
 21
0.8502000000000009
 31
0.0
  0
LINE
  5
157
330
1E
100
AcDbEntity
  8
0
100
AcDbLine
 10
266.0
 20
98.00069999999999
 30
0.0
 11
266.0
 21
92.20449999999999
 31
0.0
  0
LINE
  5
158
330
1E
100
AcDbEntity
  8
0
100
AcDbLine
 10
265.7469999999999
 20
98.60030000000001
 30
0.0
 11
266.0
 21
98.00069999999999
 31
0.0
  0
LINE
  5
159
330
1E
100
AcDbEntity
  8
0
100
AcDbLine
 10
265.3939999999999
 20
13.2634
 30
0.0
 11
265.3939999999999
 21
9.012299999999999
 31
0.0
  0
LINE
  5
15A
330
1E
100
AcDbEntity
  8
0
100
AcDbLine
 10
265.3939999999999
 20
13.2634
 30
0.0
 11
265.3939999999999
 21
17.8545
 31
0.0
  0
LINE
  5
15B
330
1E
100
AcDbEntity
  8
0
100
AcDbLine
 10
265.3939999999999
 20
9.012299999999999
 30
0.0
 11
265.3939999999999
 21
5.1013
 31
0.0
  0
LINE
  5
15C
330
1E
100
AcDbEntity
  8
0
100
AcDbLine
 10
265.3939999999999
 20
9.012299999999999
 30
0.0
 11
265.3939999999999
 21
13.2634
 31
0.0
  0
ENDSEC
  0
SECTION
  2
OBJECTS
  0
DICTIONARY
  5
C
330
0
100
AcDbDictionary
  3
ACAD_GROUP
350
D
  3
ACAD_LAYOUT
350
19
  3
ACAD_MLINESTYLE
350
16
  3
ACAD_PLOTSETTINGS
350
18
  3
ACAD_PLOTSTYLENAME
350
E
  3
ACDBHEADERROUNDTRIPXREC
350
169
  3
ACDBVARIABLEDICTIONARY
350
166
  0
DICTIONARY
  5
18B
330
1E
100
AcDbDictionary
280
     1
  3
ACAD_LAYOUTSELFREF
360
18C
  0
DICTIONARY
  5
189
330
1A
100
AcDbDictionary
280
     1
  3
ACAD_LAYOUTSELFREF
360
18A
  0
DICTIONARY
  5
D
102
{ACAD_REACTORS
330
C
102
}
330
C
100
AcDbDictionary
  0
DICTIONARY
  5
19
102
{ACAD_REACTORS
330
C
102
}
330
C
100
AcDbDictionary
  0
DICTIONARY
  5
16
102
{ACAD_REACTORS
330
C
102
}
330
C
100
AcDbDictionary
  3
STANDARD
350
17
  0
DICTIONARY
  5
18
102
{ACAD_REACTORS
330
C
102
}
330
C
100
AcDbDictionary
  0
ACDBDICTIONARYWDFLT
  5
E
102
{ACAD_REACTORS
330
C
102
}
330
C
100
AcDbDictionary
281
     1
  3
Normal
350
F
100
AcDbDictionaryWithDefault
340
F
  0
DICTIONARY
  5
169
102
{ACAD_REACTORS
330
C
102
}
330
C
100
AcDbDictionary
  3
CEPSNTYPE
350
173
  3
FINGERPRINTGUID
350
174
  3
HYPERLINKBASE
350
16C
  3
INSUNITS
350
172
  3
LAYOUTDICT
350
16E
  3
LWETCUNION
350
171
  3
PLOTSETDICT
350
16F
  3
PLOTSTYLNAMDICT
350
170
  3
PSVPSCALE
350
176
  3
PUCSBASE
350
179
  3
PUCSORGBACK
350
17F
  3
PUCSORGBOTTOM
350
17B
  3
PUCSORGFRONT
350
17E
  3
PUCSORGLEFT
350
17C
  3
PUCSORGRIGHT
350
17D
  3
PUCSORGTOP
350
17A
  3
PUCSORTHOREF
350
177
  3
PUCSORTHOVIEW
350
178
  3
STYLESHEET
350
16D
  3
TSTACKALIGN
350
16A
  3
TSTACKSIZE
350
16B
  3
UCSBASE
350
182
  3
UCSORGBACK
350
188
  3
UCSORGBOTTOM
350
184
  3
UCSORGFRONT
350
187
  3
UCSORGLEFT
350
185
  3
UCSORGRIGHT
350
186
  3
UCSORGTOP
350
183
  3
UCSORTHOREF
350
180
  3
UCSORTHOVIEW
350
181
  3
VERSIONGUID
350
175
  0
DICTIONARY
  5
166
102
{ACAD_REACTORS
330
C
102
}
330
C
100
AcDbDictionary
  3
DIMASSOC
350
167
  0
XRECORD
  5
18C
102
{ACAD_REACTORS
330
18B
102
}
330
18B
100
AcDbXrecord
340
1E
  0
XRECORD
  5
18A
102
{ACAD_REACTORS
330
189
102
}
330
189
100
AcDbXrecord
340
1A
  0
MLINESTYLE
  5
17
102
{ACAD_REACTORS
330
16
102
}
330
16
100
AcDbMlineStyle
  2
STANDARD
 70
     0
  3

 62
   256
 51
90.0
 52
90.0
 71
     2
 49
0.5
 62
   256
  6
BYLAYER
 49
-0.5
 62
   256
  6
BYLAYER
  0
ACDBPLACEHOLDER
  5
F
102
{ACAD_REACTORS
330
E
102
}
330
E
100
AcDbPlaceHolder
280
     0
  0
XRECORD
  5
173
102
{ACAD_REACTORS
330
169
102
}
330
169
100
AcDbXrecord
 90
        0
  0
XRECORD
  5
174
102
{ACAD_REACTORS
330
169
102
}
330
169
100
AcDbXrecord
  1
{D4B324FF-A869-4B65-85CA-FE6B750B76D9}
  0
XRECORD
  5
16C
102
{ACAD_REACTORS
330
169
102
}
330
169
100
AcDbXrecord
  1

  0
XRECORD
  5
172
102
{ACAD_REACTORS
330
169
102
}
330
169
100
AcDbXrecord
 90
        0
  0
XRECORD
  5
16E
102
{ACAD_REACTORS
330
169
102
}
330
169
100
AcDbXrecord
340
19
  0
XRECORD
  5
171
102
{ACAD_REACTORS
330
169
102
}
330
169
100
AcDbXrecord
 90
    10781
  0
XRECORD
  5
16F
102
{ACAD_REACTORS
330
169
102
}
330
169
100
AcDbXrecord
340
18
  0
XRECORD
  5
170
102
{ACAD_REACTORS
330
169
102
}
330
169
100
AcDbXrecord
340
E
  0
XRECORD
  5
176
102
{ACAD_REACTORS
330
169
102
}
330
169
100
AcDbXrecord
 40
0.0
  0
XRECORD
  5
179
102
{ACAD_REACTORS
330
169
102
}
330
169
100
AcDbXrecord
340
0
  0
XRECORD
  5
17F
102
{ACAD_REACTORS
330
169
102
}
330
169
100
AcDbXrecord
 10
0.0
 20
0.0
 30
0.0
  0
XRECORD
  5
17B
102
{ACAD_REACTORS
330
169
102
}
330
169
100
AcDbXrecord
 10
0.0
 20
0.0
 30
0.0
  0
XRECORD
  5
17E
102
{ACAD_REACTORS
330
169
102
}
330
169
100
AcDbXrecord
 10
0.0
 20
0.0
 30
0.0
  0
XRECORD
  5
17C
102
{ACAD_REACTORS
330
169
102
}
330
169
100
AcDbXrecord
 10
0.0
 20
0.0
 30
0.0
  0
XRECORD
  5
17D
102
{ACAD_REACTORS
330
169
102
}
330
169
100
AcDbXrecord
 10
0.0
 20
0.0
 30
0.0
  0
XRECORD
  5
17A
102
{ACAD_REACTORS
330
169
102
}
330
169
100
AcDbXrecord
 10
0.0
 20
0.0
 30
0.0
  0
XRECORD
  5
177
102
{ACAD_REACTORS
330
169
102
}
330
169
100
AcDbXrecord
340
0
  0
XRECORD
  5
178
102
{ACAD_REACTORS
330
169
102
}
330
169
100
AcDbXrecord
 70
     0
  0
XRECORD
  5
16D
102
{ACAD_REACTORS
330
169
102
}
330
169
100
AcDbXrecord
  1

  0
XRECORD
  5
16A
102
{ACAD_REACTORS
330
169
102
}
330
169
100
AcDbXrecord
 90
        1
  0
XRECORD
  5
16B
102
{ACAD_REACTORS
330
169
102
}
330
169
100
AcDbXrecord
 90
       70
  0
XRECORD
  5
182
102
{ACAD_REACTORS
330
169
102
}
330
169
100
AcDbXrecord
340
0
  0
XRECORD
  5
188
102
{ACAD_REACTORS
330
169
102
}
330
169
100
AcDbXrecord
 10
0.0
 20
0.0
 30
0.0
  0
XRECORD
  5
184
102
{ACAD_REACTORS
330
169
102
}
330
169
100
AcDbXrecord
 10
0.0
 20
0.0
 30
0.0
  0
XRECORD
  5
187
102
{ACAD_REACTORS
330
169
102
}
330
169
100
AcDbXrecord
 10
0.0
 20
0.0
 30
0.0
  0
XRECORD
  5
185
102
{ACAD_REACTORS
330
169
102
}
330
169
100
AcDbXrecord
 10
0.0
 20
0.0
 30
0.0
  0
XRECORD
  5
186
102
{ACAD_REACTORS
330
169
102
}
330
169
100
AcDbXrecord
 10
0.0
 20
0.0
 30
0.0
  0
XRECORD
  5
183
102
{ACAD_REACTORS
330
169
102
}
330
169
100
AcDbXrecord
 10
0.0
 20
0.0
 30
0.0
  0
XRECORD
  5
180
102
{ACAD_REACTORS
330
169
102
}
330
169
100
AcDbXrecord
340
0
  0
XRECORD
  5
181
102
{ACAD_REACTORS
330
169
102
}
330
169
100
AcDbXrecord
 70
     1
  0
XRECORD
  5
175
102
{ACAD_REACTORS
330
169
102
}
330
169
100
AcDbXrecord
  1
{A8D8F330-0FDB-4481-A170-4D51A2A78CE6}
  0
DICTIONARYVAR
  5
167
102
{ACAD_REACTORS
330
166
102
}
330
166
100
DictionaryVariables
280
     0
  1
1
  0
ENDSEC
  0
EOF
