  0
SECTION
  2
HEADER
  9
$ACADVER
  1
AC1014
  9
$ACADMAINTVER
 70
     9
  9
$DWGCODEPAGE
  3
ANSI_1252
  9
$INSBASE
 10
0.0
 20
0.0
 30
0.0
  9
$EXTMIN
 10
0.0000000000000012
 20
0.0000000000000004
 30
0.0
  9
$EXTMAX
 10
170.0
 20
170.0
 30
0.0
  9
$LIMMIN
 10
0.0
 20
0.0
  9
$LIMMAX
 10
12.0
 20
9.0
  9
$ORTHOMODE
 70
     0
  9
$REGENMODE
 70
     1
  9
$FILLMODE
 70
     1
  9
$QTEXTMODE
 70
     0
  9
$MIRRTEXT
 70
     1
  9
$DRAGMODE
 70
     2
  9
$LTSCALE
 40
1.0
  9
$OSMODE
 70
    37
  9
$ATTMODE
 70
     1
  9
$TEXTSIZE
 40
0.2
  9
$TRACEWID
 40
0.05
  9
$TEXTSTYLE
  7
STANDARD
  9
$CLAYER
  8
0
  9
$CELTYPE
  6
CONTINUOUS
  9
$CECOLOR
 62
   256
  9
$CELTSCALE
 40
1.0
  9
$DELOBJ
 70
     1
  9
$DISPSILH
 70
     0
  9
$DIMSCALE
 40
1.0
  9
$DIMASZ
 40
0.18
  9
$DIMEXO
 40
0.0625
  9
$DIMDLI
 40
0.38
  9
$DIMRND
 40
0.0
  9
$DIMDLE
 40
0.0
  9
$DIMEXE
 40
0.18
  9
$DIMTP
 40
0.0
  9
$DIMTM
 40
0.0
  9
$DIMTXT
 40
0.18
  9
$DIMCEN
 40
0.09
  9
$DIMTSZ
 40
0.0
  9
$DIMTOL
 70
     0
  9
$DIMLIM
 70
     0
  9
$DIMTIH
 70
     1
  9
$DIMTOH
 70
     1
  9
$DIMSE1
 70
     0
  9
$DIMSE2
 70
     0
  9
$DIMTAD
 70
     0
  9
$DIMZIN
 70
     0
  9
$DIMBLK
  1

  9
$DIMASO
 70
     1
  9
$DIMSHO
 70
     1
  9
$DIMPOST
  1

  9
$DIMAPOST
  1

  9
$DIMALT
 70
     0
  9
$DIMALTD
 70
     2
  9
$DIMALTF
 40
25.4
  9
$DIMLFAC
 40
1.0
  9
$DIMTOFL
 70
     0
  9
$DIMTVP
 40
0.0
  9
$DIMTIX
 70
     0
  9
$DIMSOXD
 70
     0
  9
$DIMSAH
 70
     0
  9
$DIMBLK1
  1

  9
$DIMBLK2
  1

  9
$DIMSTYLE
  2
STANDARD
  9
$DIMCLRD
 70
     0
  9
$DIMCLRE
 70
     0
  9
$DIMCLRT
 70
     0
  9
$DIMTFAC
 40
1.0
  9
$DIMGAP
 40
0.09
  9
$DIMJUST
 70
     0
  9
$DIMSD1
 70
     0
  9
$DIMSD2
 70
     0
  9
$DIMTOLJ
 70
     1
  9
$DIMTZIN
 70
     0
  9
$DIMALTZ
 70
     0
  9
$DIMALTTZ
 70
     0
  9
$DIMFIT
 70
     3
  9
$DIMUPT
 70
     0
  9
$DIMUNIT
 70
     2
  9
$DIMDEC
 70
     4
  9
$DIMTDEC
 70
     4
  9
$DIMALTU
 70
     2
  9
$DIMALTTD
 70
     2
  9
$DIMTXSTY
  7
STANDARD
  9
$DIMAUNIT
 70
     0
  9
$LUNITS
 70
     2
  9
$LUPREC
 70
     4
  9
$SKETCHINC
 40
0.1
  9
$FILLETRAD
 40
0.0
  9
$AUNITS
 70
     0
  9
$AUPREC
 70
     0
  9
$MENU
  1
.
  9
$ELEVATION
 40
0.0
  9
$PELEVATION
 40
0.0
  9
$THICKNESS
 40
0.0
  9
$LIMCHECK
 70
     0
  9
$BLIPMODE
 70
     0
  9
$CHAMFERA
 40
0.0
  9
$CHAMFERB
 40
0.0
  9
$CHAMFERC
 40
0.0
  9
$CHAMFERD
 40
0.0
  9
$SKPOLY
 70
     0
  9
$TDCREATE
 40
2454687.471505706
  9
$TDUPDATE
 40
2454687.521579676
  9
$TDINDWG
 40
0.0500741551
  9
$TDUSRTIMER
 40
0.0500741551
  9
$USRTIMER
 70
     1
  9
$ANGBASE
 50
0.0
  9
$ANGDIR
 70
     0
  9
$PDMODE
 70
     0
  9
$PDSIZE
 40
0.0
  9
$PLINEWID
 40
0.0
  9
$COORDS
 70
     1
  9
$SPLFRAME
 70
     0
  9
$SPLINETYPE
 70
     6
  9
$SPLINESEGS
 70
     8
  9
$ATTDIA
 70
     0
  9
$ATTREQ
 70
     1
  9
$HANDLING
 70
 22529
  9
$HANDSEED
  5
143
  9
$SURFTAB1
 70
     6
  9
$SURFTAB2
 70
     6
  9
$SURFTYPE
 70
     6
  9
$SURFU
 70
     6
  9
$SURFV
 70
     6
  9
$UCSNAME
  2

  9
$UCSORG
 10
0.0
 20
0.0
 30
0.0
  9
$UCSXDIR
 10
1.0
 20
0.0
 30
0.0
  9
$UCSYDIR
 10
0.0
 20
1.0
 30
0.0
  9
$PUCSNAME
  2

  9
$PUCSORG
 10
0.0
 20
0.0
 30
0.0
  9
$PUCSXDIR
 10
1.0
 20
0.0
 30
0.0
  9
$PUCSYDIR
 10
0.0
 20
1.0
 30
0.0
  9
$USERI1
 70
     0
  9
$USERI2
 70
     0
  9
$USERI3
 70
     0
  9
$USERI4
 70
     0
  9
$USERI5
 70
     0
  9
$USERR1
 40
0.0
  9
$USERR2
 40
0.0
  9
$USERR3
 40
0.0
  9
$USERR4
 40
0.0
  9
$USERR5
 40
0.0
  9
$WORLDVIEW
 70
     1
  9
$SHADEDGE
 70
     3
  9
$SHADEDIF
 70
    70
  9
$TILEMODE
 70
     1
  9
$MAXACTVP
 70
    64
  9
$PINSBASE
 10
0.0
 20
0.0
 30
0.0
  9
$PLIMCHECK
 70
     0
  9
$PEXTMIN
 10
1.000000000000000E+20
 20
1.000000000000000E+20
 30
1.000000000000000E+20
  9
$PEXTMAX
 10
-1.000000000000000E+20
 20
-1.000000000000000E+20
 30
-1.000000000000000E+20
  9
$PLIMMIN
 10
0.0
 20
0.0
  9
$PLIMMAX
 10
12.0
 20
9.0
  9
$UNITMODE
 70
     0
  9
$VISRETAIN
 70
     1
  9
$PLINEGEN
 70
     0
  9
$PSLTSCALE
 70
     1
  9
$TREEDEPTH
 70
  3020
  9
$PICKSTYLE
 70
     1
  9
$CMLSTYLE
  2
STANDARD
  9
$CMLJUST
 70
     0
  9
$CMLSCALE
 40
1.0
  9
$PROXYGRAPHICS
 70
     1
  9
$MEASUREMENT
 70
     0
  0
ENDSEC
  0
SECTION
  2
CLASSES
  0
CLASS
  1
ACDBDICTIONARYWDFLT
  2
AcDbDictionaryWithDefault
  3
AutoCAD 2000
 90
        0
280
     0
281
     0
  0
CLASS
  1
ACDBPLACEHOLDER
  2
AcDbPlaceHolder
  3
AutoCAD 2000
 90
        0
280
     0
281
     0
  0
CLASS
  1
LAYOUT
  2
AcDbLayout
  3
AutoCAD 2000
 90
        0
280
     0
281
     0
  0
CLASS
  1
DICTIONARYVAR
  2
AcDbDictionaryVar
  3
AutoCAD 2000
 90
        0
280
     0
281
     0
  0
CLASS
  1
LONG_TRANSACTION
  2
AcDbLongTransaction
  3
AutoCAD 2000
 90
        0
280
     0
281
     0
  0
CLASS
  1
LWPOLYLINE
  2
AcDbPolyline
  3
AutoCAD 2000
 90
        0
280
     0
281
     1
  0
CLASS
  1
HATCH
  2
AcDbHatch
  3
AutoCAD 2000
 90
        0
280
     0
281
     1
  0
CLASS
  1
XRECORD
  2
AcDbXrecord
  3
AutoCAD 2000
 90
        0
280
     0
281
     0
  0
ENDSEC
  0
SECTION
  2
TABLES
  0
TABLE
  2
VPORT
  5
8
330
0
100
AcDbSymbolTable
 70
     2
  0
VPORT
  5
11E
330
8
100
AcDbSymbolTableRecord
100
AcDbViewportTableRecord
  2
*ACTIVE
 70
     0
 10
0.0
 20
0.0
 11
1.0
 21
1.0
 12
85.0
 22
85.0
 13
0.0
 23
0.0
 14
1.0
 24
1.0
 15
0.0
 25
0.0
 16
0.0
 26
0.0
 36
1.0
 17
0.0
 27
0.0
 37
0.0
 40
171.3043478260869
 41
2.043533930857874
 42
50.0
 43
0.0
 44
0.0
 50
0.0
 51
0.0
 71
     0
 72
   100
 73
     1
 74
     3
 75
     0
 76
     0
 77
     0
 78
     0
  0
ENDTAB
  0
TABLE
  2
LTYPE
  5
5
330
0
100
AcDbSymbolTable
 70
     1
  0
LTYPE
  5
13
330
5
100
AcDbSymbolTableRecord
100
AcDbLinetypeTableRecord
  2
BYBLOCK
 70
     0
  3

 72
    65
 73
     0
 40
0.0
  0
LTYPE
  5
14
330
5
100
AcDbSymbolTableRecord
100
AcDbLinetypeTableRecord
  2
BYLAYER
 70
     0
  3

 72
    65
 73
     0
 40
0.0
  0
LTYPE
  5
15
330
5
100
AcDbSymbolTableRecord
100
AcDbLinetypeTableRecord
  2
CONTINUOUS
 70
     0
  3
Solid line
 72
    65
 73
     0
 40
0.0
  0
ENDTAB
  0
TABLE
  2
LAYER
  5
2
330
0
100
AcDbSymbolTable
 70
     1
  0
LAYER
  5
10
330
2
100
AcDbSymbolTableRecord
100
AcDbLayerTableRecord
  2
0
 70
     0
 62
     7
  6
CONTINUOUS
  0
ENDTAB
  0
TABLE
  2
STYLE
  5
3
330
0
100
AcDbSymbolTable
 70
     1
  0
STYLE
  5
11
330
3
100
AcDbSymbolTableRecord
100
AcDbTextStyleTableRecord
  2
STANDARD
 70
     0
 40
0.0
 41
1.0
 50
0.0
 71
     0
 42
0.2
  3
txt
  4

  0
ENDTAB
  0
TABLE
  2
VIEW
  5
6
330
0
100
AcDbSymbolTable
 70
     0
  0
ENDTAB
  0
TABLE
  2
UCS
  5
7
330
0
100
AcDbSymbolTable
 70
     0
  0
ENDTAB
  0
TABLE
  2
APPID
  5
9
330
0
100
AcDbSymbolTable
 70
     1
  0
APPID
  5
12
330
9
100
AcDbSymbolTableRecord
100
AcDbRegAppTableRecord
  2
ACAD
 70
     0
  0
ENDTAB
  0
TABLE
  2
DIMSTYLE
  5
A
330
0
100
AcDbSymbolTable
 70
     1
  0
DIMSTYLE
105
118
330
A
100
AcDbSymbolTableRecord
100
AcDbDimStyleTableRecord
  2
STANDARD
 70
     0
  3

  4

  5

  6

  7

 40
1.0
 41
0.18
 42
0.0625
 43
0.38
 44
0.18
 45
0.0
 46
0.0
 47
0.0
 48
0.0
140
0.18
141
0.09
142
0.0
143
25.4
144
1.0
145
0.0
146
1.0
147
0.09
 71
     0
 72
     0
 73
     1
 74
     1
 75
     0
 76
     0
 77
     0
 78
     0
170
     0
171
     2
172
     0
173
     0
174
     0
175
     0
176
     0
177
     0
178
     0
270
     2
271
     4
272
     4
273
     2
274
     2
340
11
275
     0
280
     0
281
     0
282
     0
283
     1
284
     0
285
     0
286
     0
287
     3
288
     0
  0
ENDTAB
  0
TABLE
  2
BLOCK_RECORD
  5
1
330
0
100
AcDbSymbolTable
 70
     0
  0
BLOCK_RECORD
  5
1E
102
{ACAD_XDICTIONARY
360
141
102
}
330
1
100
AcDbSymbolTableRecord
100
AcDbBlockTableRecord
  2
*MODEL_SPACE
  0
BLOCK_RECORD
  5
1A
102
{ACAD_XDICTIONARY
360
13F
102
}
330
1
100
AcDbSymbolTableRecord
100
AcDbBlockTableRecord
  2
*PAPER_SPACE
  0
ENDTAB
  0
ENDSEC
  0
SECTION
  2
BLOCKS
  0
BLOCK
  5
1F
330
1E
100
AcDbEntity
  8
0
100
AcDbBlockBegin
  2
*MODEL_SPACE
 70
     0
 10
0.0
 20
0.0
 30
0.0
  3
*MODEL_SPACE
  1

  0
ENDBLK
  5
20
330
1E
100
AcDbEntity
  8
0
100
AcDbBlockEnd
  0
BLOCK
  5
1B
330
1A
100
AcDbEntity
 67
     1
  8
0
100
AcDbBlockBegin
  2
*PAPER_SPACE
 70
     0
 10
0.0
 20
0.0
 30
0.0
  3
*PAPER_SPACE
  1

  0
ENDBLK
  5
1C
330
1A
100
AcDbEntity
 67
     1
  8
0
100
AcDbBlockEnd
  0
ENDSEC
  0
SECTION
  2
ENTITIES
  0
LINE
  5
22
330
1E
100
AcDbEntity
  8
0
100
AcDbLine
 10
0.0000000000000012
 20
158.0
 30
0.0
 11
0.0000000000000012
 21
85.0
 31
0.0
  0
LINE
  5
23
330
1E
100
AcDbEntity
  8
0
100
AcDbLine
 10
0.0000000000000012
 20
158.0
 30
0.0
 11
0.4000000000000011
 21
161.0999999999999
 31
0.0
  0
LINE
  5
24
330
1E
100
AcDbEntity
  8
0
100
AcDbLine
 10
0.0000000000000012
 20
85.0
 30
0.0
 11
0.0000000000000012
 21
12.0
 31
0.0
  0
LINE
  5
25
330
1E
100
AcDbEntity
  8
0
100
AcDbLine
 10
0.0000000000000012
 20
85.0
 30
0.0
 11
0.0000000000000012
 21
158.0
 31
0.0
  0
LINE
  5
26
330
1E
100
AcDbEntity
  8
0
100
AcDbLine
 10
12.0
 20
0.0000000000000004
 30
0.0
 11
85.0
 21
0.0000000000000004
 31
0.0
  0
LINE
  5
27
330
1E
100
AcDbEntity
  8
0
100
AcDbLine
 10
12.0
 20
0.3000000000000011
 30
0.0
 11
85.0
 21
0.3000000000000011
 31
0.0
  0
LINE
  5
28
330
1E
100
AcDbEntity
  8
0
100
AcDbLine
 10
12.0
 20
0.3000000000000011
 30
0.0
 11
85.0
 21
0.3000000000000011
 31
0.0
  0
LINE
  5
29
330
1E
100
AcDbEntity
  8
0
100
AcDbLine
 10
6.15924
 20
1.859399999999999
 30
0.0
 11
8.976779999999999
 21
0.7411040000000011
 31
0.0
  0
LINE
  5
2A
330
1E
100
AcDbEntity
  8
0
100
AcDbLine
 10
8.976779999999999
 20
0.7411040000000011
 30
0.0
 11
12.0
 21
0.3000000000000011
 31
0.0
  0
LINE
  5
2B
330
1E
100
AcDbEntity
  8
0
100
AcDbLine
 10
6.0
 20
1.6
 30
0.0
 11
8.9
 21
0.4
 31
0.0
  0
LINE
  5
2C
330
1E
100
AcDbEntity
  8
0
100
AcDbLine
 10
6.0
 20
1.6
 30
0.0
 11
8.9
 21
0.4
 31
0.0
  0
LINE
  5
2D
330
1E
100
AcDbEntity
  8
0
100
AcDbLine
 10
8.9
 20
0.4
 30
0.0
 11
12.0
 21
0.0000000000000004
 31
0.0
  0
LINE
  5
2E
330
1E
100
AcDbEntity
  8
0
100
AcDbLine
 10
8.9
 20
0.4
 30
0.0
 11
12.0
 21
0.0000000000000004
 31
0.0
  0
LINE
  5
2F
330
1E
100
AcDbEntity
  8
0
100
AcDbLine
 10
158.0
 20
0.3000000000000011
 30
0.0
 11
161.023
 21
0.7411040000000011
 31
0.0
  0
LINE
  5
30
330
1E
100
AcDbEntity
  8
0
100
AcDbLine
 10
161.0999999999999
 20
0.4
 30
0.0
 11
164.0
 21
1.6
 31
0.0
  0
LINE
  5
31
330
1E
100
AcDbEntity
  8
0
100
AcDbLine
 10
161.023
 20
0.7411040000000011
 30
0.0
 11
163.8409999999999
 21
1.859399999999999
 31
0.0
  0
LINE
  5
32
330
1E
100
AcDbEntity
  8
0
100
AcDbLine
 10
85.0
 20
0.3000000000000011
 30
0.0
 11
158.0
 21
0.3000000000000011
 31
0.0
  0
LINE
  5
33
330
1E
100
AcDbEntity
  8
0
100
AcDbLine
 10
166.5
 20
3.5
 30
0.0
 11
168.4
 21
6.0
 31
0.0
  0
LINE
  5
34
330
1E
100
AcDbEntity
  8
0
100
AcDbLine
 10
163.8409999999999
 20
1.859399999999999
 30
0.0
 11
166.3
 21
3.7
 31
0.0
  0
LINE
  5
35
330
1E
100
AcDbEntity
  8
0
100
AcDbLine
 10
164.0
 20
1.6
 30
0.0
 11
166.5
 21
3.5
 31
0.0
  0
LINE
  5
36
330
1E
100
AcDbEntity
  8
0
100
AcDbLine
 10
161.0999999999999
 20
0.4
 30
0.0
 11
164.0
 21
1.6
 31
0.0
  0
LINE
  5
37
330
1E
100
AcDbEntity
  8
0
100
AcDbLine
 10
85.0
 20
0.0000000000000004
 30
0.0
 11
158.0
 21
0.0000000000000004
 31
0.0
  0
LINE
  5
38
330
1E
100
AcDbEntity
  8
0
100
AcDbLine
 10
12.0
 20
0.0000000000000004
 30
0.0
 11
85.0
 21
0.0000000000000004
 31
0.0
  0
LINE
  5
39
330
1E
100
AcDbEntity
  8
0
100
AcDbLine
 10
1.6
 20
6.0
 30
0.0
 11
3.5
 21
3.5
 31
0.0
  0
LINE
  5
3A
330
1E
100
AcDbEntity
  8
0
100
AcDbLine
 10
166.3
 20
3.7
 30
0.0
 11
168.1409999999999
 21
6.15924
 31
0.0
  0
LINE
  5
3B
330
1E
100
AcDbEntity
  8
0
100
AcDbLine
 10
168.1409999999999
 20
6.15924
 30
0.0
 11
169.259
 21
8.976779999999999
 31
0.0
  0
LINE
  5
3C
330
1E
100
AcDbEntity
  8
0
100
AcDbLine
 10
168.4
 20
6.0
 30
0.0
 11
169.5999999999999
 21
8.9
 31
0.0
  0
LINE
  5
3D
330
1E
100
AcDbEntity
  8
0
100
AcDbLine
 10
168.4
 20
6.0
 30
0.0
 11
169.5999999999999
 21
8.9
 31
0.0
  0
LINE
  5
3E
330
1E
100
AcDbEntity
  8
0
100
AcDbLine
 10
3.7
 20
3.7
 30
0.0
 11
6.15924
 21
1.859399999999999
 31
0.0
  0
LINE
  5
3F
330
1E
100
AcDbEntity
  8
0
100
AcDbLine
 10
169.5999999999999
 20
8.9
 30
0.0
 11
170.0
 21
12.0
 31
0.0
  0
LINE
  5
40
330
1E
100
AcDbEntity
  8
0
100
AcDbLine
 10
1.859399999999999
 20
6.15924
 30
0.0
 11
3.7
 21
3.7
 31
0.0
  0
LINE
  5
41
330
1E
100
AcDbEntity
  8
0
100
AcDbLine
 10
1.6
 20
6.0
 30
0.0
 11
3.5
 21
3.5
 31
0.0
  0
LINE
  5
42
330
1E
100
AcDbEntity
  8
0
100
AcDbLine
 10
3.5
 20
3.5
 30
0.0
 11
6.0
 21
1.6
 31
0.0
  0
LINE
  5
43
330
1E
100
AcDbEntity
  8
0
100
AcDbLine
 10
0.4000000000000011
 20
8.9
 30
0.0
 11
1.6
 21
6.0
 31
0.0
  0
LINE
  5
44
330
1E
100
AcDbEntity
  8
0
100
AcDbLine
 10
0.4000000000000011
 20
8.9
 30
0.0
 11
1.6
 21
6.0
 31
0.0
  0
LINE
  5
45
330
1E
100
AcDbEntity
  8
0
100
AcDbLine
 10
0.3000000000000011
 20
158.0
 30
0.0
 11
0.7411040000000011
 21
161.023
 31
0.0
  0
LINE
  5
46
330
1E
100
AcDbEntity
  8
0
100
AcDbLine
 10
0.3000000000000011
 20
158.0
 30
0.0
 11
0.3000000000000011
 21
85.0
 31
0.0
  0
LINE
  5
47
330
1E
100
AcDbEntity
  8
0
100
AcDbLine
 10
0.3000000000000011
 20
85.0
 30
0.0
 11
0.3000000000000011
 21
12.0
 31
0.0
  0
LINE
  5
48
330
1E
100
AcDbEntity
  8
0
100
AcDbLine
 10
0.3000000000000011
 20
85.0
 30
0.0
 11
0.3000000000000011
 21
158.0
 31
0.0
  0
LINE
  5
49
330
1E
100
AcDbEntity
  8
0
100
AcDbLine
 10
169.6999999999999
 20
12.0
 30
0.0
 11
169.6999999999999
 21
85.0
 31
0.0
  0
LINE
  5
4A
330
1E
100
AcDbEntity
  8
0
100
AcDbLine
 10
169.259
 20
8.976779999999999
 30
0.0
 11
169.6999999999999
 21
12.0
 31
0.0
  0
LINE
  5
4B
330
1E
100
AcDbEntity
  8
0
100
AcDbLine
 10
170.0
 20
12.0
 30
0.0
 11
170.0
 21
85.0
 31
0.0
  0
LINE
  5
4C
330
1E
100
AcDbEntity
  8
0
100
AcDbLine
 10
0.7411040000000011
 20
8.976779999999999
 30
0.0
 11
1.859399999999999
 21
6.15924
 31
0.0
  0
LINE
  5
4D
330
1E
100
AcDbEntity
  8
0
100
AcDbLine
 10
0.3000000000000011
 20
158.0
 30
0.0
 11
0.7411040000000011
 21
161.023
 31
0.0
  0
LINE
  5
4E
330
1E
100
AcDbEntity
  8
0
100
AcDbLine
 10
0.4000000000000011
 20
161.0999999999999
 30
0.0
 11
1.6
 21
164.0
 31
0.0
  0
LINE
  5
4F
330
1E
100
AcDbEntity
  8
0
100
AcDbLine
 10
0.7411040000000011
 20
161.023
 30
0.0
 11
1.859399999999999
 21
163.8409999999999
 31
0.0
  0
LINE
  5
50
330
1E
100
AcDbEntity
  8
0
100
AcDbLine
 10
1.859399999999999
 20
163.8409999999999
 30
0.0
 11
3.7
 21
166.3
 31
0.0
  0
LINE
  5
51
330
1E
100
AcDbEntity
  8
0
100
AcDbLine
 10
1.6
 20
164.0
 30
0.0
 11
3.5
 21
166.5
 31
0.0
  0
LINE
  5
52
330
1E
100
AcDbEntity
  8
0
100
AcDbLine
 10
0.4000000000000011
 20
161.0999999999999
 30
0.0
 11
1.6
 21
164.0
 31
0.0
  0
LINE
  5
53
330
1E
100
AcDbEntity
  8
0
100
AcDbLine
 10
3.7
 20
166.3
 30
0.0
 11
6.15924
 21
168.1409999999999
 31
0.0
  0
LINE
  5
54
330
1E
100
AcDbEntity
  8
0
100
AcDbLine
 10
6.15924
 20
168.1409999999999
 30
0.0
 11
8.976779999999999
 21
169.259
 31
0.0
  0
LINE
  5
55
330
1E
100
AcDbEntity
  8
0
100
AcDbLine
 10
3.5
 20
166.5
 30
0.0
 11
6.0
 21
168.4
 31
0.0
  0
LINE
  5
56
330
1E
100
AcDbEntity
  8
0
100
AcDbLine
 10
6.0
 20
168.4
 30
0.0
 11
8.9
 21
169.5999999999999
 31
0.0
  0
LINE
  5
57
330
1E
100
AcDbEntity
  8
0
100
AcDbLine
 10
12.0
 20
169.6999999999999
 30
0.0
 11
85.0
 21
169.6999999999999
 31
0.0
  0
LINE
  5
58
330
1E
100
AcDbEntity
  8
0
100
AcDbLine
 10
8.976779999999999
 20
169.259
 30
0.0
 11
12.0
 21
169.6999999999999
 31
0.0
  0
LINE
  5
59
330
1E
100
AcDbEntity
  8
0
100
AcDbLine
 10
12.0
 20
170.0
 30
0.0
 11
85.0
 21
170.0
 31
0.0
  0
LINE
  5
5A
330
1E
100
AcDbEntity
  8
0
100
AcDbLine
 10
12.0
 20
169.6999999999999
 30
0.0
 11
85.0
 21
169.6999999999999
 31
0.0
  0
LINE
  5
5B
330
1E
100
AcDbEntity
  8
0
100
AcDbLine
 10
8.9
 20
169.5999999999999
 30
0.0
 11
12.0
 21
170.0
 31
0.0
  0
LINE
  5
5C
330
1E
100
AcDbEntity
  8
0
100
AcDbLine
 10
12.0
 20
170.0
 30
0.0
 11
85.0
 21
170.0
 31
0.0
  0
LINE
  5
5E
330
1E
100
AcDbEntity
  8
0
100
AcDbLine
 10
72.81690000000001
 20
63.80279999999999
 30
0.0
 11
78.66199999999999
 21
61.4085
 31
0.0
  0
LINE
  5
5F
330
1E
100
AcDbEntity
  8
0
100
AcDbLine
 10
72.7465
 20
63.662
 30
0.0
 11
78.66199999999999
 21
61.2676
 31
0.0
  0
LINE
  5
60
330
1E
100
AcDbEntity
  8
0
100
AcDbLine
 10
67.4648
 20
67.4648
 30
0.0
 11
72.67610000000001
 21
63.52109999999999
 31
0.0
  0
LINE
  5
61
330
1E
100
AcDbEntity
  8
0
100
AcDbLine
 10
72.67610000000001
 20
63.52109999999999
 30
0.0
 11
78.59149999999999
 21
61.12680000000001
 31
0.0
  0
LINE
  5
62
330
1E
100
AcDbEntity
  8
0
100
AcDbLine
 10
60.4
 20
60.4
 30
0.0
 11
67.7
 21
54.9
 31
0.0
  0
LINE
  5
63
330
1E
100
AcDbEntity
  8
0
100
AcDbLine
 10
67.7
 20
54.9
 30
0.0
 11
76.0
 21
51.5
 31
0.0
  0
LINE
  5
64
330
1E
100
AcDbEntity
  8
0
100
AcDbLine
 10
60.3
 20
60.3
 30
0.0
 11
67.59999999999999
 21
54.7
 31
0.0
  0
LINE
  5
65
330
1E
100
AcDbEntity
  8
0
100
AcDbLine
 10
67.59999999999999
 20
54.7
 30
0.0
 11
76.0
 21
51.29999999999999
 31
0.0
  0
LINE
  5
66
330
1E
100
AcDbEntity
  8
0
100
AcDbLine
 10
60.1
 20
60.1
 30
0.0
 11
67.5
 21
54.5
 31
0.0
  0
LINE
  5
67
330
1E
100
AcDbEntity
  8
0
100
AcDbLine
 10
67.5
 20
54.5
 30
0.0
 11
75.9
 21
51.1
 31
0.0
  0
LINE
  5
68
330
1E
100
AcDbEntity
  8
0
100
AcDbLine
 10
85.0
 20
50.2
 30
0.0
 11
94.0
 21
51.5
 31
0.0
  0
LINE
  5
69
330
1E
100
AcDbEntity
  8
0
100
AcDbLine
 10
85.0
 20
50.0
 30
0.0
 11
94.0
 21
51.29999999999999
 31
0.0
  0
LINE
  5
6A
330
1E
100
AcDbEntity
  8
0
100
AcDbLine
 10
94.0
 20
51.29999999999999
 30
0.0
 11
102.4
 21
54.7
 31
0.0
  0
LINE
  5
6B
330
1E
100
AcDbEntity
  8
0
100
AcDbLine
 10
94.1
 20
51.1
 30
0.0
 11
102.4999999999999
 21
54.5
 31
0.0
  0
LINE
  5
6C
330
1E
100
AcDbEntity
  8
0
100
AcDbLine
 10
85.0
 20
49.8
 30
0.0
 11
94.1
 21
51.1
 31
0.0
  0
LINE
  5
6D
330
1E
100
AcDbEntity
  8
0
100
AcDbLine
 10
85.0
 20
60.493
 30
0.0
 11
91.33799999999999
 21
61.4085
 31
0.0
  0
LINE
  5
6E
330
1E
100
AcDbEntity
  8
0
100
AcDbLine
 10
85.0
 20
60.3521
 30
0.0
 11
91.33799999999999
 21
61.2676
 31
0.0
  0
LINE
  5
6F
330
1E
100
AcDbEntity
  8
0
100
AcDbLine
 10
85.0
 20
60.2113
 30
0.0
 11
91.4085
 21
61.12680000000001
 31
0.0
  0
LINE
  5
70
330
1E
100
AcDbEntity
  8
0
100
AcDbLine
 10
94.0
 20
51.5
 30
0.0
 11
102.2999999999999
 21
54.9
 31
0.0
  0
LINE
  5
71
330
1E
100
AcDbEntity
  8
0
100
AcDbLine
 10
102.2999999999999
 20
54.9
 30
0.0
 11
109.5999999999999
 21
60.4
 31
0.0
  0
LINE
  5
72
330
1E
100
AcDbEntity
  8
0
100
AcDbLine
 10
102.4
 20
54.7
 30
0.0
 11
109.6999999999999
 21
60.3
 31
0.0
  0
LINE
  5
73
330
1E
100
AcDbEntity
  8
0
100
AcDbLine
 10
109.5999999999999
 20
60.4
 30
0.0
 11
115.1
 21
67.7
 31
0.0
  0
LINE
  5
74
330
1E
100
AcDbEntity
  8
0
100
AcDbLine
 10
109.6999999999999
 20
60.3
 30
0.0
 11
115.3
 21
67.59999999999999
 31
0.0
  0
LINE
  5
75
330
1E
100
AcDbEntity
  8
0
100
AcDbLine
 10
109.8999999999999
 20
60.1
 30
0.0
 11
115.5
 21
67.5
 31
0.0
  0
LINE
  5
76
330
1E
100
AcDbEntity
  8
0
100
AcDbLine
 10
102.4999999999999
 20
54.5
 30
0.0
 11
109.8999999999999
 21
60.1
 31
0.0
  0
LINE
  5
77
330
1E
100
AcDbEntity
  8
0
100
AcDbLine
 10
91.4085
 20
61.12680000000001
 30
0.0
 11
97.3239
 21
63.52109999999999
 31
0.0
  0
LINE
  5
79
330
1E
100
AcDbEntity
  8
0
100
AcDbLine
 10
78.66199999999999
 20
61.4085
 30
0.0
 11
85.0
 21
60.493
 31
0.0
  0
LINE
  5
7A
330
1E
100
AcDbEntity
  8
0
100
AcDbLine
 10
91.33799999999999
 20
61.4085
 30
0.0
 11
97.1831
 21
63.80279999999999
 31
0.0
  0
LINE
  5
7B
330
1E
100
AcDbEntity
  8
0
100
AcDbLine
 10
91.33799999999999
 20
61.2676
 30
0.0
 11
97.2535
 21
63.662
 31
0.0
  0
LINE
  5
7D
330
1E
100
AcDbEntity
  8
0
100
AcDbLine
 10
97.1831
 20
63.80279999999999
 30
0.0
 11
102.3239999999999
 21
67.67610000000001
 31
0.0
  0
LINE
  5
7E
330
1E
100
AcDbEntity
  8
0
100
AcDbLine
 10
97.2535
 20
63.662
 30
0.0
 11
102.3939999999999
 21
67.60559999999999
 31
0.0
  0
LINE
  5
7F
330
1E
100
AcDbEntity
  8
0
100
AcDbLine
 10
97.3239
 20
63.52109999999999
 30
0.0
 11
102.5349999999999
 21
67.4648
 31
0.0
  0
LINE
  5
80
330
1E
100
AcDbEntity
  8
0
100
AcDbLine
 10
115.3
 20
67.59999999999999
 30
0.0
 11
118.7
 21
76.0
 31
0.0
  0
LINE
  5
81
330
1E
100
AcDbEntity
  8
0
100
AcDbLine
 10
115.5
 20
67.5
 30
0.0
 11
118.9
 21
75.9
 31
0.0
  0
LINE
  5
82
330
1E
100
AcDbEntity
  8
0
100
AcDbLine
 10
102.5349999999999
 20
67.4648
 30
0.0
 11
106.4789999999999
 21
72.67610000000001
 31
0.0
  0
LINE
  5
84
330
1E
100
AcDbEntity
  8
0
100
AcDbLine
 10
78.66199999999999
 20
61.2676
 30
0.0
 11
85.0
 21
60.3521
 31
0.0
  0
LINE
  5
85
330
1E
100
AcDbEntity
  8
0
100
AcDbLine
 10
78.59149999999999
 20
61.12680000000001
 30
0.0
 11
85.0
 21
60.2113
 31
0.0
  0
LINE
  5
86
330
1E
100
AcDbEntity
  8
0
100
AcDbLine
 10
76.0
 20
51.5
 30
0.0
 11
85.0
 21
50.2
 31
0.0
  0
LINE
  5
87
330
1E
100
AcDbEntity
  8
0
100
AcDbLine
 10
76.0
 20
51.29999999999999
 30
0.0
 11
85.0
 21
50.0
 31
0.0
  0
LINE
  5
88
330
1E
100
AcDbEntity
  8
0
100
AcDbLine
 10
75.9
 20
51.1
 30
0.0
 11
85.0
 21
49.8
 31
0.0
  0
LINE
  5
89
330
1E
100
AcDbEntity
  8
0
100
AcDbLine
 10
102.3239999999999
 20
67.67610000000001
 30
0.0
 11
106.197
 21
72.81690000000001
 31
0.0
  0
LINE
  5
8A
330
1E
100
AcDbEntity
  8
0
100
AcDbLine
 10
102.3939999999999
 20
67.60559999999999
 30
0.0
 11
106.3379999999999
 21
72.7465
 31
0.0
  0
LINE
  5
8B
330
1E
100
AcDbEntity
  8
0
100
AcDbLine
 10
115.1
 20
67.7
 30
0.0
 11
118.5
 21
76.0
 31
0.0
  0
LINE
  5
8C
330
1E
100
AcDbEntity
  8
0
100
AcDbLine
 10
106.4789999999999
 20
72.67610000000001
 30
0.0
 11
108.8729999999999
 21
78.59149999999999
 31
0.0
  0
LINE
  5
8D
330
1E
100
AcDbEntity
  8
0
100
AcDbLine
 10
67.67610000000001
 20
67.67610000000001
 30
0.0
 11
72.81690000000001
 21
63.80279999999999
 31
0.0
  0
LINE
  5
8E
330
1E
100
AcDbEntity
  8
0
100
AcDbLine
 10
67.60559999999999
 20
67.60559999999999
 30
0.0
 11
72.7465
 21
63.662
 31
0.0
  0
LINE
  5
8F
330
1E
100
AcDbEntity
  8
0
100
AcDbLine
 10
106.197
 20
72.81690000000001
 30
0.0
 11
108.592
 21
78.66199999999999
 31
0.0
  0
LINE
  5
90
330
1E
100
AcDbEntity
  8
0
100
AcDbLine
 10
106.3379999999999
 20
72.7465
 30
0.0
 11
108.732
 21
78.66199999999999
 31
0.0
  0
LINE
  5
91
330
1E
100
AcDbEntity
  8
0
100
AcDbLine
 10
118.9
 20
75.9
 30
0.0
 11
120.1999999999999
 21
85.0
 31
0.0
  0
LINE
  5
93
330
1E
100
AcDbEntity
  8
0
100
AcDbLine
 10
63.80279999999999
 20
72.81690000000001
 30
0.0
 11
67.67610000000001
 21
67.67610000000001
 31
0.0
  0
LINE
  5
94
330
1E
100
AcDbEntity
  8
0
100
AcDbLine
 10
63.662
 20
72.7465
 30
0.0
 11
67.60559999999999
 21
67.60559999999999
 31
0.0
  0
LINE
  5
95
330
1E
100
AcDbEntity
  8
0
100
AcDbLine
 10
63.52109999999999
 20
72.67610000000001
 30
0.0
 11
67.4648
 21
67.4648
 31
0.0
  0
LINE
  5
96
330
1E
100
AcDbEntity
  8
0
100
AcDbLine
 10
54.9
 20
67.7
 30
0.0
 11
60.4
 21
60.4
 31
0.0
  0
LINE
  5
97
330
1E
100
AcDbEntity
  8
0
100
AcDbLine
 10
54.7
 20
67.59999999999999
 30
0.0
 11
60.3
 21
60.3
 31
0.0
  0
LINE
  5
98
330
1E
100
AcDbEntity
  8
0
100
AcDbLine
 10
54.5
 20
67.5
 30
0.0
 11
60.1
 21
60.1
 31
0.0
  0
LINE
  5
99
330
1E
100
AcDbEntity
  8
0
100
AcDbLine
 10
118.5
 20
76.0
 30
0.0
 11
119.7999999999999
 21
85.0
 31
0.0
  0
LINE
  5
9A
330
1E
100
AcDbEntity
  8
0
100
AcDbLine
 10
118.7
 20
76.0
 30
0.0
 11
120.0
 21
85.0
 31
0.0
  0
LINE
  5
9B
330
1E
100
AcDbEntity
  8
0
100
AcDbLine
 10
51.5
 20
76.0
 30
0.0
 11
54.9
 21
67.7
 31
0.0
  0
LINE
  5
9E
330
1E
100
AcDbEntity
  8
0
100
AcDbLine
 10
60.493
 20
85.0
 30
0.0
 11
61.4085
 21
78.66199999999999
 31
0.0
  0
LINE
  5
9F
330
1E
100
AcDbEntity
  8
0
100
AcDbLine
 10
60.493
 20
85.0
 30
0.0
 11
61.4085
 21
91.33799999999999
 31
0.0
  0
LINE
  5
A0
330
1E
100
AcDbEntity
  8
0
100
AcDbLine
 10
60.3521
 20
85.0
 30
0.0
 11
61.2676
 21
78.66199999999999
 31
0.0
  0
LINE
  5
A1
330
1E
100
AcDbEntity
  8
0
100
AcDbLine
 10
60.3521
 20
85.0
 30
0.0
 11
61.2676
 21
91.33799999999999
 31
0.0
  0
LINE
  5
A2
330
1E
100
AcDbEntity
  8
0
100
AcDbLine
 10
108.592
 20
78.66199999999999
 30
0.0
 11
109.5069999999999
 21
85.0
 31
0.0
  0
LINE
  5
A3
330
1E
100
AcDbEntity
  8
0
100
AcDbLine
 10
108.732
 20
78.66199999999999
 30
0.0
 11
109.6479999999999
 21
85.0
 31
0.0
  0
LINE
  5
A4
330
1E
100
AcDbEntity
  8
0
100
AcDbLine
 10
108.8729999999999
 20
78.59149999999999
 30
0.0
 11
109.789
 21
85.0
 31
0.0
  0
LINE
  5
A5
330
1E
100
AcDbEntity
  8
0
100
AcDbLine
 10
61.4085
 20
78.66199999999999
 30
0.0
 11
63.80279999999999
 21
72.81690000000001
 31
0.0
  0
LINE
  5
A7
330
1E
100
AcDbEntity
  8
0
100
AcDbLine
 10
169.6999999999999
 20
85.0
 30
0.0
 11
169.6999999999999
 21
12.0
 31
0.0
  0
LINE
  5
A8
330
1E
100
AcDbEntity
  8
0
100
AcDbLine
 10
169.6999999999999
 20
85.0
 30
0.0
 11
169.6999999999999
 21
158.0
 31
0.0
  0
LINE
  5
A9
330
1E
100
AcDbEntity
  8
0
100
AcDbLine
 10
170.0
 20
85.0
 30
0.0
 11
170.0
 21
12.0
 31
0.0
  0
LINE
  5
AA
330
1E
100
AcDbEntity
  8
0
100
AcDbLine
 10
170.0
 20
85.0
 30
0.0
 11
170.0
 21
158.0
 31
0.0
  0
LINE
  5
AC
330
1E
100
AcDbEntity
  8
0
100
AcDbLine
 10
61.2676
 20
78.66199999999999
 30
0.0
 11
63.662
 21
72.7465
 31
0.0
  0
LINE
  5
AD
330
1E
100
AcDbEntity
  8
0
100
AcDbLine
 10
61.12680000000001
 20
78.59149999999999
 30
0.0
 11
63.52109999999999
 21
72.67610000000001
 31
0.0
  0
LINE
  5
AE
330
1E
100
AcDbEntity
  8
0
100
AcDbLine
 10
61.4085
 20
91.33799999999999
 30
0.0
 11
63.80279999999999
 21
97.1831
 31
0.0
  0
LINE
  5
AF
330
1E
100
AcDbEntity
  8
0
100
AcDbLine
 10
61.2676
 20
91.33799999999999
 30
0.0
 11
63.662
 21
97.2535
 31
0.0
  0
LINE
  5
B0
330
1E
100
AcDbEntity
  8
0
100
AcDbLine
 10
51.5
 20
94.0
 30
0.0
 11
54.9
 21
102.2999999999999
 31
0.0
  0
LINE
  5
B1
330
1E
100
AcDbEntity
  8
0
100
AcDbLine
 10
51.29999999999999
 20
94.0
 30
0.0
 11
54.7
 21
102.4
 31
0.0
  0
LINE
  5
B2
330
1E
100
AcDbEntity
  8
0
100
AcDbLine
 10
54.9
 20
102.2999999999999
 30
0.0
 11
60.4
 21
109.5999999999999
 31
0.0
  0
LINE
  5
B3
330
1E
100
AcDbEntity
  8
0
100
AcDbLine
 10
54.7
 20
102.4
 30
0.0
 11
60.3
 21
109.6999999999999
 31
0.0
  0
LINE
  5
B4
330
1E
100
AcDbEntity
  8
0
100
AcDbLine
 10
54.5
 20
102.4999999999999
 30
0.0
 11
60.1
 21
109.8999999999999
 31
0.0
  0
LINE
  5
B5
330
1E
100
AcDbEntity
  8
0
100
AcDbLine
 10
51.1
 20
94.1
 30
0.0
 11
54.5
 21
102.4999999999999
 31
0.0
  0
LINE
  5
B6
330
1E
100
AcDbEntity
  8
0
100
AcDbLine
 10
63.80279999999999
 20
97.1831
 30
0.0
 11
67.67610000000001
 21
102.3239999999999
 31
0.0
  0
LINE
  5
B7
330
1E
100
AcDbEntity
  8
0
100
AcDbLine
 10
67.67610000000001
 20
102.3239999999999
 30
0.0
 11
72.81690000000001
 21
106.197
 31
0.0
  0
LINE
  5
B8
330
1E
100
AcDbEntity
  8
0
100
AcDbLine
 10
67.60559999999999
 20
102.3939999999999
 30
0.0
 11
72.7465
 21
106.3379999999999
 31
0.0
  0
LINE
  5
B9
330
1E
100
AcDbEntity
  8
0
100
AcDbLine
 10
67.4648
 20
102.5349999999999
 30
0.0
 11
72.67610000000001
 21
106.4789999999999
 31
0.0
  0
LINE
  5
BA
330
1E
100
AcDbEntity
  8
0
100
AcDbLine
 10
72.81690000000001
 20
106.197
 30
0.0
 11
78.66199999999999
 21
108.592
 31
0.0
  0
LINE
  5
BB
330
1E
100
AcDbEntity
  8
0
100
AcDbLine
 10
72.7465
 20
106.3379999999999
 30
0.0
 11
78.66199999999999
 21
108.732
 31
0.0
  0
LINE
  5
BC
330
1E
100
AcDbEntity
  8
0
100
AcDbLine
 10
72.67610000000001
 20
106.4789999999999
 30
0.0
 11
78.59149999999999
 21
108.8729999999999
 31
0.0
  0
LINE
  5
BD
330
1E
100
AcDbEntity
  8
0
100
AcDbLine
 10
63.662
 20
97.2535
 30
0.0
 11
67.60559999999999
 21
102.3939999999999
 31
0.0
  0
LINE
  5
BE
330
1E
100
AcDbEntity
  8
0
100
AcDbLine
 10
63.52109999999999
 20
97.3239
 30
0.0
 11
67.4648
 21
102.5349999999999
 31
0.0
  0
LINE
  5
BF
330
1E
100
AcDbEntity
  8
0
100
AcDbLine
 10
61.12680000000001
 20
91.4085
 30
0.0
 11
63.52109999999999
 21
97.3239
 31
0.0
  0
LINE
  5
C0
330
1E
100
AcDbEntity
  8
0
100
AcDbLine
 10
78.66199999999999
 20
108.592
 30
0.0
 11
85.0
 21
109.5069999999999
 31
0.0
  0
LINE
  5
C1
330
1E
100
AcDbEntity
  8
0
100
AcDbLine
 10
78.66199999999999
 20
108.732
 30
0.0
 11
85.0
 21
109.6479999999999
 31
0.0
  0
LINE
  5
C2
330
1E
100
AcDbEntity
  8
0
100
AcDbLine
 10
78.59149999999999
 20
108.8729999999999
 30
0.0
 11
85.0
 21
109.789
 31
0.0
  0
LINE
  5
C7
330
1E
100
AcDbEntity
  8
0
100
AcDbLine
 10
60.4
 20
109.5999999999999
 30
0.0
 11
67.7
 21
115.1
 31
0.0
  0
LINE
  5
C8
330
1E
100
AcDbEntity
  8
0
100
AcDbLine
 10
60.3
 20
109.6999999999999
 30
0.0
 11
67.59999999999999
 21
115.3
 31
0.0
  0
LINE
  5
C9
330
1E
100
AcDbEntity
  8
0
100
AcDbLine
 10
85.0
 20
109.5069999999999
 30
0.0
 11
91.33799999999999
 21
108.592
 31
0.0
  0
LINE
  5
CA
330
1E
100
AcDbEntity
  8
0
100
AcDbLine
 10
85.0
 20
109.6479999999999
 30
0.0
 11
91.33799999999999
 21
108.732
 31
0.0
  0
LINE
  5
CB
330
1E
100
AcDbEntity
  8
0
100
AcDbLine
 10
67.7
 20
115.1
 30
0.0
 11
76.0
 21
118.5
 31
0.0
  0
LINE
  5
CC
330
1E
100
AcDbEntity
  8
0
100
AcDbLine
 10
67.59999999999999
 20
115.3
 30
0.0
 11
76.0
 21
118.7
 31
0.0
  0
LINE
  5
CD
330
1E
100
AcDbEntity
  8
0
100
AcDbLine
 10
60.1
 20
109.8999999999999
 30
0.0
 11
67.5
 21
115.5
 31
0.0
  0
LINE
  5
CE
330
1E
100
AcDbEntity
  8
0
100
AcDbLine
 10
67.5
 20
115.5
 30
0.0
 11
75.9
 21
118.9
 31
0.0
  0
LINE
  5
CF
330
1E
100
AcDbEntity
  8
0
100
AcDbLine
 10
76.0
 20
118.5
 30
0.0
 11
85.0
 21
119.7999999999999
 31
0.0
  0
LINE
  5
D0
330
1E
100
AcDbEntity
  8
0
100
AcDbLine
 10
76.0
 20
118.7
 30
0.0
 11
85.0
 21
120.0
 31
0.0
  0
LINE
  5
D1
330
1E
100
AcDbEntity
  8
0
100
AcDbLine
 10
75.9
 20
118.9
 30
0.0
 11
85.0
 21
120.1999999999999
 31
0.0
  0
LINE
  5
D2
330
1E
100
AcDbEntity
  8
0
100
AcDbLine
 10
85.0
 20
109.789
 30
0.0
 11
91.4085
 21
108.8729999999999
 31
0.0
  0
LINE
  5
D3
330
1E
100
AcDbEntity
  8
0
100
AcDbLine
 10
85.0
 20
119.7999999999999
 30
0.0
 11
94.0
 21
118.5
 31
0.0
  0
LINE
  5
D4
330
1E
100
AcDbEntity
  8
0
100
AcDbLine
 10
85.0
 20
120.0
 30
0.0
 11
94.0
 21
118.7
 31
0.0
  0
LINE
  5
D6
330
1E
100
AcDbEntity
  8
0
100
AcDbLine
 10
97.1831
 20
106.197
 30
0.0
 11
102.3239999999999
 21
102.3239999999999
 31
0.0
  0
LINE
  5
D7
330
1E
100
AcDbEntity
  8
0
100
AcDbLine
 10
91.33799999999999
 20
108.592
 30
0.0
 11
97.1831
 21
106.197
 31
0.0
  0
LINE
  5
D8
330
1E
100
AcDbEntity
  8
0
100
AcDbLine
 10
97.2535
 20
106.3379999999999
 30
0.0
 11
102.3939999999999
 21
102.3939999999999
 31
0.0
  0
LINE
  5
D9
330
1E
100
AcDbEntity
  8
0
100
AcDbLine
 10
91.33799999999999
 20
108.732
 30
0.0
 11
97.2535
 21
106.3379999999999
 31
0.0
  0
LINE
  5
DA
330
1E
100
AcDbEntity
  8
0
100
AcDbLine
 10
97.3239
 20
106.4789999999999
 30
0.0
 11
102.5349999999999
 21
102.5349999999999
 31
0.0
  0
LINE
  5
DB
330
1E
100
AcDbEntity
  8
0
100
AcDbLine
 10
91.4085
 20
108.8729999999999
 30
0.0
 11
97.3239
 21
106.4789999999999
 31
0.0
  0
LINE
  5
DC
330
1E
100
AcDbEntity
  8
0
100
AcDbLine
 10
102.3239999999999
 20
102.3239999999999
 30
0.0
 11
106.197
 21
97.1831
 31
0.0
  0
LINE
  5
DD
330
1E
100
AcDbEntity
  8
0
100
AcDbLine
 10
102.3939999999999
 20
102.3939999999999
 30
0.0
 11
106.3379999999999
 21
97.2535
 31
0.0
  0
LINE
  5
DE
330
1E
100
AcDbEntity
  8
0
100
AcDbLine
 10
102.2999999999999
 20
115.1
 30
0.0
 11
109.5999999999999
 21
109.5999999999999
 31
0.0
  0
LINE
  5
DF
330
1E
100
AcDbEntity
  8
0
100
AcDbLine
 10
94.0
 20
118.5
 30
0.0
 11
102.2999999999999
 21
115.1
 31
0.0
  0
LINE
  5
E0
330
1E
100
AcDbEntity
  8
0
100
AcDbLine
 10
102.4
 20
115.3
 30
0.0
 11
109.6999999999999
 21
109.6999999999999
 31
0.0
  0
LINE
  5
E1
330
1E
100
AcDbEntity
  8
0
100
AcDbLine
 10
94.0
 20
118.7
 30
0.0
 11
102.4
 21
115.3
 31
0.0
  0
LINE
  5
E3
330
1E
100
AcDbEntity
  8
0
100
AcDbLine
 10
108.592
 20
91.33799999999999
 30
0.0
 11
109.5069999999999
 21
85.0
 31
0.0
  0
LINE
  5
E4
330
1E
100
AcDbEntity
  8
0
100
AcDbLine
 10
108.732
 20
91.33799999999999
 30
0.0
 11
109.6479999999999
 21
85.0
 31
0.0
  0
LINE
  5
E6
330
1E
100
AcDbEntity
  8
0
100
AcDbLine
 10
106.197
 20
97.1831
 30
0.0
 11
108.592
 21
91.33799999999999
 31
0.0
  0
LINE
  5
E7
330
1E
100
AcDbEntity
  8
0
100
AcDbLine
 10
106.3379999999999
 20
97.2535
 30
0.0
 11
108.732
 21
91.33799999999999
 31
0.0
  0
LINE
  5
E8
330
1E
100
AcDbEntity
  8
0
100
AcDbLine
 10
102.5349999999999
 20
102.5349999999999
 30
0.0
 11
106.4789999999999
 21
97.3239
 31
0.0
  0
LINE
  5
E9
330
1E
100
AcDbEntity
  8
0
100
AcDbLine
 10
118.5
 20
94.0
 30
0.0
 11
119.7999999999999
 21
85.0
 31
0.0
  0
LINE
  5
EA
330
1E
100
AcDbEntity
  8
0
100
AcDbLine
 10
118.7
 20
94.0
 30
0.0
 11
120.0
 21
85.0
 31
0.0
  0
LINE
  5
EB
330
1E
100
AcDbEntity
  8
0
100
AcDbLine
 10
109.5999999999999
 20
109.5999999999999
 30
0.0
 11
115.1
 21
102.2999999999999
 31
0.0
  0
LINE
  5
EC
330
1E
100
AcDbEntity
  8
0
100
AcDbLine
 10
115.1
 20
102.2999999999999
 30
0.0
 11
118.5
 21
94.0
 31
0.0
  0
LINE
  5
ED
330
1E
100
AcDbEntity
  8
0
100
AcDbLine
 10
109.6999999999999
 20
109.6999999999999
 30
0.0
 11
115.3
 21
102.4
 31
0.0
  0
LINE
  5
EE
330
1E
100
AcDbEntity
  8
0
100
AcDbLine
 10
115.3
 20
102.4
 30
0.0
 11
118.7
 21
94.0
 31
0.0
  0
LINE
  5
EF
330
1E
100
AcDbEntity
  8
0
100
AcDbLine
 10
109.8999999999999
 20
109.8999999999999
 30
0.0
 11
115.5
 21
102.4999999999999
 31
0.0
  0
LINE
  5
F0
330
1E
100
AcDbEntity
  8
0
100
AcDbLine
 10
115.5
 20
102.4999999999999
 30
0.0
 11
118.9
 21
94.1
 31
0.0
  0
LINE
  5
F1
330
1E
100
AcDbEntity
  8
0
100
AcDbLine
 10
118.9
 20
94.1
 30
0.0
 11
120.1999999999999
 21
85.0
 31
0.0
  0
LINE
  5
F2
330
1E
100
AcDbEntity
  8
0
100
AcDbLine
 10
106.4789999999999
 20
97.3239
 30
0.0
 11
108.8729999999999
 21
91.4085
 31
0.0
  0
LINE
  5
F3
330
1E
100
AcDbEntity
  8
0
100
AcDbLine
 10
108.8729999999999
 20
91.4085
 30
0.0
 11
109.789
 21
85.0
 31
0.0
  0
LINE
  5
F4
330
1E
100
AcDbEntity
  8
0
100
AcDbLine
 10
102.4999999999999
 20
115.5
 30
0.0
 11
109.8999999999999
 21
109.8999999999999
 31
0.0
  0
LINE
  5
F5
330
1E
100
AcDbEntity
  8
0
100
AcDbLine
 10
94.1
 20
118.9
 30
0.0
 11
102.4999999999999
 21
115.5
 31
0.0
  0
LINE
  5
F6
330
1E
100
AcDbEntity
  8
0
100
AcDbLine
 10
85.0
 20
120.1999999999999
 30
0.0
 11
94.1
 21
118.9
 31
0.0
  0
LINE
  5
F7
330
1E
100
AcDbEntity
  8
0
100
AcDbLine
 10
169.259
 20
161.023
 30
0.0
 11
169.6999999999999
 21
158.0
 31
0.0
  0
LINE
  5
F8
330
1E
100
AcDbEntity
  8
0
100
AcDbLine
 10
169.6999999999999
 20
158.0
 30
0.0
 11
169.6999999999999
 21
85.0
 31
0.0
  0
LINE
  5
F9
330
1E
100
AcDbEntity
  8
0
100
AcDbLine
 10
166.3
 20
166.3
 30
0.0
 11
168.1409999999999
 21
163.8409999999999
 31
0.0
  0
LINE
  5
FA
330
1E
100
AcDbEntity
  8
0
100
AcDbLine
 10
168.1409999999999
 20
163.8409999999999
 30
0.0
 11
169.259
 21
161.023
 31
0.0
  0
LINE
  5
FB
330
1E
100
AcDbEntity
  8
0
100
AcDbLine
 10
85.0
 20
169.6999999999999
 30
0.0
 11
158.0
 21
169.6999999999999
 31
0.0
  0
LINE
  5
FC
330
1E
100
AcDbEntity
  8
0
100
AcDbLine
 10
161.023
 20
169.259
 30
0.0
 11
163.8409999999999
 21
168.1409999999999
 31
0.0
  0
LINE
  5
FD
330
1E
100
AcDbEntity
  8
0
100
AcDbLine
 10
158.0
 20
169.6999999999999
 30
0.0
 11
161.023
 21
169.259
 31
0.0
  0
LINE
  5
FE
330
1E
100
AcDbEntity
  8
0
100
AcDbLine
 10
163.8409999999999
 20
168.1409999999999
 30
0.0
 11
166.3
 21
166.3
 31
0.0
  0
LINE
  5
FF
330
1E
100
AcDbEntity
  8
0
100
AcDbLine
 10
164.0
 20
168.4
 30
0.0
 11
166.5
 21
166.5
 31
0.0
  0
LINE
  5
100
330
1E
100
AcDbEntity
  8
0
100
AcDbLine
 10
161.0999999999999
 20
169.5999999999999
 30
0.0
 11
164.0
 21
168.4
 31
0.0
  0
LINE
  5
101
330
1E
100
AcDbEntity
  8
0
100
AcDbLine
 10
158.0
 20
170.0
 30
0.0
 11
161.0999999999999
 21
169.5999999999999
 31
0.0
  0
LINE
  5
102
330
1E
100
AcDbEntity
  8
0
100
AcDbLine
 10
85.0
 20
170.0
 30
0.0
 11
158.0
 21
170.0
 31
0.0
  0
LINE
  5
103
330
1E
100
AcDbEntity
  8
0
100
AcDbLine
 10
166.5
 20
166.5
 30
0.0
 11
168.4
 21
164.0
 31
0.0
  0
LINE
  5
104
330
1E
100
AcDbEntity
  8
0
100
AcDbLine
 10
168.4
 20
164.0
 30
0.0
 11
169.5999999999999
 21
161.0999999999999
 31
0.0
  0
LINE
  5
105
330
1E
100
AcDbEntity
  8
0
100
AcDbLine
 10
169.5999999999999
 20
161.0999999999999
 30
0.0
 11
170.0
 21
158.0
 31
0.0
  0
LINE
  5
106
330
1E
100
AcDbEntity
  8
0
100
AcDbLine
 10
170.0
 20
158.0
 30
0.0
 11
170.0
 21
85.0
 31
0.0
  0
LINE
  5
107
330
1E
100
AcDbEntity
  8
0
100
AcDbLine
 10
60.2113
 20
85.0
 30
0.0
 11
61.12680000000001
 21
78.59149999999999
 31
0.0
  0
LINE
  5
108
330
1E
100
AcDbEntity
  8
0
100
AcDbLine
 10
60.2113
 20
85.0
 30
0.0
 11
61.12680000000001
 21
91.4085
 31
0.0
  0
LINE
  5
109
330
1E
100
AcDbEntity
  8
0
100
AcDbLine
 10
50.2
 20
85.0
 30
0.0
 11
51.5
 21
76.0
 31
0.0
  0
LINE
  5
10A
330
1E
100
AcDbEntity
  8
0
100
AcDbLine
 10
50.2
 20
85.0
 30
0.0
 11
51.5
 21
94.0
 31
0.0
  0
LINE
  5
10B
330
1E
100
AcDbEntity
  8
0
100
AcDbLine
 10
51.29999999999999
 20
76.0
 30
0.0
 11
54.7
 21
67.59999999999999
 31
0.0
  0
LINE
  5
10C
330
1E
100
AcDbEntity
  8
0
100
AcDbLine
 10
50.0
 20
85.0
 30
0.0
 11
51.29999999999999
 21
76.0
 31
0.0
  0
LINE
  5
10D
330
1E
100
AcDbEntity
  8
0
100
AcDbLine
 10
50.0
 20
85.0
 30
0.0
 11
51.29999999999999
 21
94.0
 31
0.0
  0
LINE
  5
10E
330
1E
100
AcDbEntity
  8
0
100
AcDbLine
 10
51.1
 20
75.9
 30
0.0
 11
54.5
 21
67.5
 31
0.0
  0
LINE
  5
10F
330
1E
100
AcDbEntity
  8
0
100
AcDbLine
 10
49.8
 20
85.0
 30
0.0
 11
51.1
 21
75.9
 31
0.0
  0
LINE
  5
110
330
1E
100
AcDbEntity
  8
0
100
AcDbLine
 10
49.8
 20
85.0
 30
0.0
 11
51.1
 21
94.1
 31
0.0
  0
LINE
  5
111
330
1E
100
AcDbEntity
  8
0
100
AcDbLine
 10
0.3000000000000011
 20
12.0
 30
0.0
 11
0.7411040000000011
 21
8.976779999999999
 31
0.0
  0
LINE
  5
112
330
1E
100
AcDbEntity
  8
0
100
AcDbLine
 10
0.3000000000000011
 20
12.0
 30
0.0
 11
0.3000000000000011
 21
85.0
 31
0.0
  0
LINE
  5
113
330
1E
100
AcDbEntity
  8
0
100
AcDbLine
 10
0.3000000000000011
 20
12.0
 30
0.0
 11
0.7411040000000011
 21
8.976779999999999
 31
0.0
  0
LINE
  5
114
330
1E
100
AcDbEntity
  8
0
100
AcDbLine
 10
0.4000000000000011
 20
8.9
 30
0.0
 11
1.6
 21
6.0
 31
0.0
  0
LINE
  5
115
330
1E
100
AcDbEntity
  8
0
100
AcDbLine
 10
0.4000000000000011
 20
8.9
 30
0.0
 11
1.6
 21
6.0
 31
0.0
  0
LINE
  5
116
330
1E
100
AcDbEntity
  8
0
100
AcDbLine
 10
0.0000000000000012
 20
12.0
 30
0.0
 11
0.0000000000000012
 21
85.0
 31
0.0
  0
LINE
  5
117
330
1E
100
AcDbEntity
  8
0
100
AcDbLine
 10
0.0000000000000012
 20
12.0
 30
0.0
 11
0.4000000000000011
 21
8.9
 31
0.0
  0
ENDSEC
  0
SECTION
  2
OBJECTS
  0
DICTIONARY
  5
C
330
0
100
AcDbDictionary
  3
ACAD_GROUP
350
D
  3
ACAD_LAYOUT
350
19
  3
ACAD_MLINESTYLE
350
16
  3
ACAD_PLOTSETTINGS
350
18
  3
ACAD_PLOTSTYLENAME
350
E
  3
ACDBHEADERROUNDTRIPXREC
350
11F
  3
ACDBVARIABLEDICTIONARY
350
11C
  0
DICTIONARY
  5
141
330
1E
100
AcDbDictionary
280
     1
  3
ACAD_LAYOUTSELFREF
360
142
  0
DICTIONARY
  5
13F
330
1A
100
AcDbDictionary
280
     1
  3
ACAD_LAYOUTSELFREF
360
140
  0
DICTIONARY
  5
D
102
{ACAD_REACTORS
330
C
102
}
330
C
100
AcDbDictionary
  0
DICTIONARY
  5
19
102
{ACAD_REACTORS
330
C
102
}
330
C
100
AcDbDictionary
  0
DICTIONARY
  5
16
102
{ACAD_REACTORS
330
C
102
}
330
C
100
AcDbDictionary
  3
STANDARD
350
17
  0
DICTIONARY
  5
18
102
{ACAD_REACTORS
330
C
102
}
330
C
100
AcDbDictionary
  0
ACDBDICTIONARYWDFLT
  5
E
102
{ACAD_REACTORS
330
C
102
}
330
C
100
AcDbDictionary
281
     1
  3
Normal
350
F
100
AcDbDictionaryWithDefault
340
F
  0
DICTIONARY
  5
11F
102
{ACAD_REACTORS
330
C
102
}
330
C
100
AcDbDictionary
  3
CEPSNTYPE
350
129
  3
FINGERPRINTGUID
350
12A
  3
HYPERLINKBASE
350
122
  3
INSUNITS
350
128
  3
LAYOUTDICT
350
124
  3
LWETCUNION
350
127
  3
PLOTSETDICT
350
125
  3
PLOTSTYLNAMDICT
350
126
  3
PSVPSCALE
350
12C
  3
PUCSBASE
350
12F
  3
PUCSORGBACK
350
135
  3
PUCSORGBOTTOM
350
131
  3
PUCSORGFRONT
350
134
  3
PUCSORGLEFT
350
132
  3
PUCSORGRIGHT
350
133
  3
PUCSORGTOP
350
130
  3
PUCSORTHOREF
350
12D
  3
PUCSORTHOVIEW
350
12E
  3
STYLESHEET
350
123
  3
TSTACKALIGN
350
120
  3
TSTACKSIZE
350
121
  3
UCSBASE
350
138
  3
UCSORGBACK
350
13E
  3
UCSORGBOTTOM
350
13A
  3
UCSORGFRONT
350
13D
  3
UCSORGLEFT
350
13B
  3
UCSORGRIGHT
350
13C
  3
UCSORGTOP
350
139
  3
UCSORTHOREF
350
136
  3
UCSORTHOVIEW
350
137
  3
VERSIONGUID
350
12B
  0
DICTIONARY
  5
11C
102
{ACAD_REACTORS
330
C
102
}
330
C
100
AcDbDictionary
  3
DIMASSOC
350
11D
  0
XRECORD
  5
142
102
{ACAD_REACTORS
330
141
102
}
330
141
100
AcDbXrecord
340
1E
  0
XRECORD
  5
140
102
{ACAD_REACTORS
330
13F
102
}
330
13F
100
AcDbXrecord
340
1A
  0
MLINESTYLE
  5
17
102
{ACAD_REACTORS
330
16
102
}
330
16
100
AcDbMlineStyle
  2
STANDARD
 70
     0
  3

 62
   256
 51
90.0
 52
90.0
 71
     2
 49
0.5
 62
   256
  6
BYLAYER
 49
-0.5
 62
   256
  6
BYLAYER
  0
ACDBPLACEHOLDER
  5
F
102
{ACAD_REACTORS
330
E
102
}
330
E
100
AcDbPlaceHolder
280
     0
  0
XRECORD
  5
129
102
{ACAD_REACTORS
330
11F
102
}
330
11F
100
AcDbXrecord
 90
        0
  0
XRECORD
  5
12A
102
{ACAD_REACTORS
330
11F
102
}
330
11F
100
AcDbXrecord
  1
{00F5DA5B-608E-4AA6-B66B-DCDE58192B9C}
  0
XRECORD
  5
122
102
{ACAD_REACTORS
330
11F
102
}
330
11F
100
AcDbXrecord
  1

  0
XRECORD
  5
128
102
{ACAD_REACTORS
330
11F
102
}
330
11F
100
AcDbXrecord
 90
        0
  0
XRECORD
  5
124
102
{ACAD_REACTORS
330
11F
102
}
330
11F
100
AcDbXrecord
340
19
  0
XRECORD
  5
127
102
{ACAD_REACTORS
330
11F
102
}
330
11F
100
AcDbXrecord
 90
    10781
  0
XRECORD
  5
125
102
{ACAD_REACTORS
330
11F
102
}
330
11F
100
AcDbXrecord
340
18
  0
XRECORD
  5
126
102
{ACAD_REACTORS
330
11F
102
}
330
11F
100
AcDbXrecord
340
E
  0
XRECORD
  5
12C
102
{ACAD_REACTORS
330
11F
102
}
330
11F
100
AcDbXrecord
 40
0.0
  0
XRECORD
  5
12F
102
{ACAD_REACTORS
330
11F
102
}
330
11F
100
AcDbXrecord
340
0
  0
XRECORD
  5
135
102
{ACAD_REACTORS
330
11F
102
}
330
11F
100
AcDbXrecord
 10
0.0
 20
0.0
 30
0.0
  0
XRECORD
  5
131
102
{ACAD_REACTORS
330
11F
102
}
330
11F
100
AcDbXrecord
 10
0.0
 20
0.0
 30
0.0
  0
XRECORD
  5
134
102
{ACAD_REACTORS
330
11F
102
}
330
11F
100
AcDbXrecord
 10
0.0
 20
0.0
 30
0.0
  0
XRECORD
  5
132
102
{ACAD_REACTORS
330
11F
102
}
330
11F
100
AcDbXrecord
 10
0.0
 20
0.0
 30
0.0
  0
XRECORD
  5
133
102
{ACAD_REACTORS
330
11F
102
}
330
11F
100
AcDbXrecord
 10
0.0
 20
0.0
 30
0.0
  0
XRECORD
  5
130
102
{ACAD_REACTORS
330
11F
102
}
330
11F
100
AcDbXrecord
 10
0.0
 20
0.0
 30
0.0
  0
XRECORD
  5
12D
102
{ACAD_REACTORS
330
11F
102
}
330
11F
100
AcDbXrecord
340
0
  0
XRECORD
  5
12E
102
{ACAD_REACTORS
330
11F
102
}
330
11F
100
AcDbXrecord
 70
     0
  0
XRECORD
  5
123
102
{ACAD_REACTORS
330
11F
102
}
330
11F
100
AcDbXrecord
  1

  0
XRECORD
  5
120
102
{ACAD_REACTORS
330
11F
102
}
330
11F
100
AcDbXrecord
 90
        1
  0
XRECORD
  5
121
102
{ACAD_REACTORS
330
11F
102
}
330
11F
100
AcDbXrecord
 90
       70
  0
XRECORD
  5
138
102
{ACAD_REACTORS
330
11F
102
}
330
11F
100
AcDbXrecord
340
0
  0
XRECORD
  5
13E
102
{ACAD_REACTORS
330
11F
102
}
330
11F
100
AcDbXrecord
 10
0.0
 20
0.0
 30
0.0
  0
XRECORD
  5
13A
102
{ACAD_REACTORS
330
11F
102
}
330
11F
100
AcDbXrecord
 10
0.0
 20
0.0
 30
0.0
  0
XRECORD
  5
13D
102
{ACAD_REACTORS
330
11F
102
}
330
11F
100
AcDbXrecord
 10
0.0
 20
0.0
 30
0.0
  0
XRECORD
  5
13B
102
{ACAD_REACTORS
330
11F
102
}
330
11F
100
AcDbXrecord
 10
0.0
 20
0.0
 30
0.0
  0
XRECORD
  5
13C
102
{ACAD_REACTORS
330
11F
102
}
330
11F
100
AcDbXrecord
 10
0.0
 20
0.0
 30
0.0
  0
XRECORD
  5
139
102
{ACAD_REACTORS
330
11F
102
}
330
11F
100
AcDbXrecord
 10
0.0
 20
0.0
 30
0.0
  0
XRECORD
  5
136
102
{ACAD_REACTORS
330
11F
102
}
330
11F
100
AcDbXrecord
340
0
  0
XRECORD
  5
137
102
{ACAD_REACTORS
330
11F
102
}
330
11F
100
AcDbXrecord
 70
     1
  0
XRECORD
  5
12B
102
{ACAD_REACTORS
330
11F
102
}
330
11F
100
AcDbXrecord
  1
{DD755448-BD86-4390-AE83-9B828DA9D35E}
  0
DICTIONARYVAR
  5
11D
102
{ACAD_REACTORS
330
11C
102
}
330
11C
100
DictionaryVariables
280
     0
  1
1
  0
ENDSEC
  0
EOF
