  0
SECTION
  2
HEADER
  9
$ACADVER
  1
AC1015
  9
$ACADMAINTVER
 70
    13
  9
$DWGCODEPAGE
  3
ANSI_1252
  9
$INSBASE
 10
0.0
 20
0.0
 30
0.0
  9
$EXTMIN
 10
0.249988500000009
 20
-0.0000000000000067
 30
0.0
  9
$EXTMAX
 10
174.7500115
 20
271.0
 30
0.0
  9
$LIMMIN
 10
0.0
 20
0.0
  9
$LIMMAX
 10
12.0
 20
9.0
  9
$ORTHOMODE
 70
     0
  9
$REGENMODE
 70
     1
  9
$FILLMODE
 70
     1
  9
$QTEXTMODE
 70
     0
  9
$MIRRTEXT
 70
     1
  9
$LTSCALE
 40
1.0
  9
$ATTMODE
 70
     1
  9
$TEXTSIZE
 40
0.2
  9
$TRACEWID
 40
0.05
  9
$TEXTSTYLE
  7
Standard
  9
$CLAYER
  8
0
  9
$CELTYPE
  6
Continuous
  9
$CECOLOR
 62
   256
  9
$CELTSCALE
 40
1.0
  9
$DISPSILH
 70
     0
  9
$DIMSCALE
 40
1.0
  9
$DIMASZ
 40
0.18
  9
$DIMEXO
 40
0.0625
  9
$DIMDLI
 40
0.38
  9
$DIMRND
 40
0.0
  9
$DIMDLE
 40
0.0
  9
$DIMEXE
 40
0.18
  9
$DIMTP
 40
0.0
  9
$DIMTM
 40
0.0
  9
$DIMTXT
 40
0.18
  9
$DIMCEN
 40
0.09
  9
$DIMTSZ
 40
0.0
  9
$DIMTOL
 70
     0
  9
$DIMLIM
 70
     0
  9
$DIMTIH
 70
     1
  9
$DIMTOH
 70
     1
  9
$DIMSE1
 70
     0
  9
$DIMSE2
 70
     0
  9
$DIMTAD
 70
     0
  9
$DIMZIN
 70
     0
  9
$DIMBLK
  1

  9
$DIMASO
 70
     1
  9
$DIMSHO
 70
     1
  9
$DIMPOST
  1

  9
$DIMAPOST
  1

  9
$DIMALT
 70
     0
  9
$DIMALTD
 70
     2
  9
$DIMALTF
 40
25.4
  9
$DIMLFAC
 40
1.0
  9
$DIMTOFL
 70
     0
  9
$DIMTVP
 40
0.0
  9
$DIMTIX
 70
     0
  9
$DIMSOXD
 70
     0
  9
$DIMSAH
 70
     0
  9
$DIMBLK1
  1

  9
$DIMBLK2
  1

  9
$DIMSTYLE
  2
Standard
  9
$DIMCLRD
 70
     0
  9
$DIMCLRE
 70
     0
  9
$DIMCLRT
 70
     0
  9
$DIMTFAC
 40
1.0
  9
$DIMGAP
 40
0.09
  9
$DIMJUST
 70
     0
  9
$DIMSD1
 70
     0
  9
$DIMSD2
 70
     0
  9
$DIMTOLJ
 70
     1
  9
$DIMTZIN
 70
     0
  9
$DIMALTZ
 70
     0
  9
$DIMALTTZ
 70
     0
  9
$DIMUPT
 70
     0
  9
$DIMDEC
 70
     4
  9
$DIMTDEC
 70
     4
  9
$DIMALTU
 70
     2
  9
$DIMALTTD
 70
     2
  9
$DIMTXSTY
  7
Standard
  9
$DIMAUNIT
 70
     0
  9
$DIMADEC
 70
     0
  9
$DIMALTRND
 40
0.0
  9
$DIMAZIN
 70
     0
  9
$DIMDSEP
 70
    46
  9
$DIMATFIT
 70
     3
  9
$DIMFRAC
 70
     0
  9
$DIMLDRBLK
  1

  9
$DIMLUNIT
 70
     2
  9
$DIMLWD
 70
    -2
  9
$DIMLWE
 70
    -2
  9
$DIMTMOVE
 70
     0
  9
$LUNITS
 70
     2
  9
$LUPREC
 70
     4
  9
$SKETCHINC
 40
0.1
  9
$FILLETRAD
 40
0.0
  9
$AUNITS
 70
     0
  9
$AUPREC
 70
     0
  9
$MENU
  1
.
  9
$ELEVATION
 40
0.0
  9
$PELEVATION
 40
0.0
  9
$THICKNESS
 40
0.0
  9
$LIMCHECK
 70
     0
  9
$CHAMFERA
 40
0.0
  9
$CHAMFERB
 40
0.0
  9
$CHAMFERC
 40
0.0
  9
$CHAMFERD
 40
0.0
  9
$SKPOLY
 70
     0
  9
$TDCREATE
 40
2454637.708564606
  9
$TDUCREATE
 40
2454637.625231273
  9
$TDUPDATE
 40
2454637.711404050
  9
$TDUUPDATE
 40
2454637.628070718
  9
$TDINDWG
 40
0.0028396181
  9
$TDUSRTIMER
 40
0.0028396181
  9
$USRTIMER
 70
     1
  9
$ANGBASE
 50
0.0
  9
$ANGDIR
 70
     0
  9
$PDMODE
 70
     0
  9
$PDSIZE
 40
0.0
  9
$PLINEWID
 40
0.0
  9
$SPLFRAME
 70
     0
  9
$SPLINETYPE
 70
     6
  9
$SPLINESEGS
 70
     8
  9
$HANDSEED
  5
165
  9
$SURFTAB1
 70
     6
  9
$SURFTAB2
 70
     6
  9
$SURFTYPE
 70
     6
  9
$SURFU
 70
     6
  9
$SURFV
 70
     6
  9
$UCSBASE
  2

  9
$UCSNAME
  2

  9
$UCSORG
 10
0.0
 20
0.0
 30
0.0
  9
$UCSXDIR
 10
1.0
 20
0.0
 30
0.0
  9
$UCSYDIR
 10
0.0
 20
1.0
 30
0.0
  9
$UCSORTHOREF
  2

  9
$UCSORTHOVIEW
 70
     1
  9
$UCSORGTOP
 10
0.0
 20
0.0
 30
0.0
  9
$UCSORGBOTTOM
 10
0.0
 20
0.0
 30
0.0
  9
$UCSORGLEFT
 10
0.0
 20
0.0
 30
0.0
  9
$UCSORGRIGHT
 10
0.0
 20
0.0
 30
0.0
  9
$UCSORGFRONT
 10
0.0
 20
0.0
 30
0.0
  9
$UCSORGBACK
 10
0.0
 20
0.0
 30
0.0
  9
$PUCSBASE
  2

  9
$PUCSNAME
  2

  9
$PUCSORG
 10
0.0
 20
0.0
 30
0.0
  9
$PUCSXDIR
 10
1.0
 20
0.0
 30
0.0
  9
$PUCSYDIR
 10
0.0
 20
1.0
 30
0.0
  9
$PUCSORTHOREF
  2

  9
$PUCSORTHOVIEW
 70
     0
  9
$PUCSORGTOP
 10
0.0
 20
0.0
 30
0.0
  9
$PUCSORGBOTTOM
 10
0.0
 20
0.0
 30
0.0
  9
$PUCSORGLEFT
 10
0.0
 20
0.0
 30
0.0
  9
$PUCSORGRIGHT
 10
0.0
 20
0.0
 30
0.0
  9
$PUCSORGFRONT
 10
0.0
 20
0.0
 30
0.0
  9
$PUCSORGBACK
 10
0.0
 20
0.0
 30
0.0
  9
$USERI1
 70
     0
  9
$USERI2
 70
     0
  9
$USERI3
 70
     0
  9
$USERI4
 70
     0
  9
$USERI5
 70
     0
  9
$USERR1
 40
0.0
  9
$USERR2
 40
0.0
  9
$USERR3
 40
0.0
  9
$USERR4
 40
0.0
  9
$USERR5
 40
0.0
  9
$WORLDVIEW
 70
     1
  9
$SHADEDGE
 70
     3
  9
$SHADEDIF
 70
    70
  9
$TILEMODE
 70
     1
  9
$MAXACTVP
 70
    64
  9
$PINSBASE
 10
0.0
 20
0.0
 30
0.0
  9
$PLIMCHECK
 70
     0
  9
$PEXTMIN
 10
1.000000000000000E+20
 20
1.000000000000000E+20
 30
1.000000000000000E+20
  9
$PEXTMAX
 10
-1.000000000000000E+20
 20
-1.000000000000000E+20
 30
-1.000000000000000E+20
  9
$PLIMMIN
 10
0.0
 20
0.0
  9
$PLIMMAX
 10
12.0
 20
9.0
  9
$UNITMODE
 70
     0
  9
$VISRETAIN
 70
     1
  9
$PLINEGEN
 70
     0
  9
$PSLTSCALE
 70
     1
  9
$TREEDEPTH
 70
  3020
  9
$CMLSTYLE
  2
Standard
  9
$CMLJUST
 70
     0
  9
$CMLSCALE
 40
1.0
  9
$PROXYGRAPHICS
 70
     1
  9
$MEASUREMENT
 70
     0
  9
$CELWEIGHT
370
    -1
  9
$ENDCAPS
280
     0
  9
$JOINSTYLE
280
     0
  9
$LWDISPLAY
290
     0
  9
$INSUNITS
 70
     0
  9
$HYPERLINKBASE
  1

  9
$STYLESHEET
  1

  9
$XEDIT
290
     1
  9
$CEPSNTYPE
380
     0
  9
$PSTYLEMODE
290
     1
  9
$FINGERPRINTGUID
  2
{E1155C0B-2355-4363-8461-446681724F9E}
  9
$VERSIONGUID
  2
{5473A073-599A-4DB5-A5B8-9FCB29C3B620}
  9
$EXTNAMES
290
     1
  9
$PSVPSCALE
 40
0.0
  9
$OLESTARTUP
290
     0
  0
ENDSEC
  0
SECTION
  2
CLASSES
  0
CLASS
  1
ACDBDICTIONARYWDFLT
  2
AcDbDictionaryWithDefault
  3
AutoCAD 2000
 90
        0
280
     0
281
     0
  0
CLASS
  1
ACDBPLACEHOLDER
  2
AcDbPlaceHolder
  3
AutoCAD 2000
 90
        0
280
     0
281
     0
  0
CLASS
  1
LAYOUT
  2
AcDbLayout
  3
AutoCAD 2000
 90
        0
280
     0
281
     0
  0
CLASS
  1
DICTIONARYVAR
  2
AcDbDictionaryVar
  3
AutoCAD 2000
 90
        0
280
     0
281
     0
  0
ENDSEC
  0
SECTION
  2
TABLES
  0
TABLE
  2
VPORT
  5
8
330
0
100
AcDbSymbolTable
 70
     2
  0
VPORT
  5
164
330
8
100
AcDbSymbolTableRecord
100
AcDbViewportTableRecord
  2
*Active
 70
     0
 10
0.0
 20
0.0
 11
1.0
 21
1.0
 12
87.50000000000001
 22
135.4999999999999
 13
0.0
 23
0.0
 14
1.0
 24
1.0
 15
0.0
 25
0.0
 16
0.0
 26
0.0
 36
1.0
 17
0.0
 27
0.0
 37
0.0
 40
273.079283887468
 41
2.043533930857874
 42
50.0
 43
0.0
 44
0.0
 50
0.0
 51
0.0
 71
     0
 72
   100
 73
     1
 74
     3
 75
     0
 76
     0
 77
     0
 78
     0
281
     0
 65
     1
110
0.0
120
0.0
130
0.0
111
1.0
121
0.0
131
0.0
112
0.0
122
1.0
132
0.0
 79
     1
146
0.0
  0
ENDTAB
  0
TABLE
  2
LTYPE
  5
5
330
0
100
AcDbSymbolTable
 70
     1
  0
LTYPE
  5
13
330
5
100
AcDbSymbolTableRecord
100
AcDbLinetypeTableRecord
  2
ByBlock
 70
     0
  3

 72
    65
 73
     0
 40
0.0
  0
LTYPE
  5
14
330
5
100
AcDbSymbolTableRecord
100
AcDbLinetypeTableRecord
  2
ByLayer
 70
     0
  3

 72
    65
 73
     0
 40
0.0
  0
LTYPE
  5
15
330
5
100
AcDbSymbolTableRecord
100
AcDbLinetypeTableRecord
  2
Continuous
 70
     0
  3
Solid line
 72
    65
 73
     0
 40
0.0
  0
ENDTAB
  0
TABLE
  2
LAYER
  5
2
330
0
100
AcDbSymbolTable
 70
     1
  0
LAYER
  5
10
330
2
100
AcDbSymbolTableRecord
100
AcDbLayerTableRecord
  2
0
 70
     0
 62
     7
  6
Continuous
370
    -3
390
F
  0
ENDTAB
  0
TABLE
  2
STYLE
  5
3
330
0
100
AcDbSymbolTable
 70
     1
  0
STYLE
  5
11
330
3
100
AcDbSymbolTableRecord
100
AcDbTextStyleTableRecord
  2
Standard
 70
     0
 40
0.0
 41
1.0
 50
0.0
 71
     0
 42
0.2
  3
txt
  4

  0
ENDTAB
  0
TABLE
  2
VIEW
  5
6
330
0
100
AcDbSymbolTable
 70
     0
  0
ENDTAB
  0
TABLE
  2
UCS
  5
7
330
0
100
AcDbSymbolTable
 70
     0
  0
ENDTAB
  0
TABLE
  2
APPID
  5
9
330
0
100
AcDbSymbolTable
 70
     1
  0
APPID
  5
12
330
9
100
AcDbSymbolTableRecord
100
AcDbRegAppTableRecord
  2
ACAD
 70
     0
  0
ENDTAB
  0
TABLE
  2
DIMSTYLE
  5
A
330
0
100
AcDbSymbolTable
 70
     1
100
AcDbDimStyleTable
 71
     0
  0
DIMSTYLE
105
15D
330
A
100
AcDbSymbolTableRecord
100
AcDbDimStyleTableRecord
  2
Standard
 70
     0
340
11
  0
ENDTAB
  0
TABLE
  2
BLOCK_RECORD
  5
1
330
0
100
AcDbSymbolTable
 70
     0
  0
BLOCK_RECORD
  5
1E
330
1
100
AcDbSymbolTableRecord
100
AcDbBlockTableRecord
  2
*Model_Space
340
21
  0
BLOCK_RECORD
  5
1A
330
1
100
AcDbSymbolTableRecord
100
AcDbBlockTableRecord
  2
*Paper_Space
340
1D
  0
ENDTAB
  0
ENDSEC
  0
SECTION
  2
BLOCKS
  0
BLOCK
  5
1F
330
1E
100
AcDbEntity
  8
0
100
AcDbBlockBegin
  2
*Model_Space
 70
     0
 10
0.0
 20
0.0
 30
0.0
  3
*Model_Space
  1

  0
ENDBLK
  5
20
330
1E
100
AcDbEntity
  8
0
100
AcDbBlockEnd
  0
BLOCK
  5
1B
330
1A
100
AcDbEntity
 67
     1
  8
0
100
AcDbBlockBegin
  2
*Paper_Space
 70
     0
 10
0.0
 20
0.0
 30
0.0
  3
*Paper_Space
  1

  0
ENDBLK
  5
1C
330
1A
100
AcDbEntity
 67
     1
  8
0
100
AcDbBlockEnd
  0
ENDSEC
  0
SECTION
  2
ENTITIES
  0
LINE
  5
22
330
1E
100
AcDbEntity
  8
0
100
AcDbLine
 10
18.2555115
 20
151.9429999999999
 30
0.0
 11
18.61801149999999
 21
151.774
 31
0.0
  0
LINE
  5
23
330
1E
100
AcDbEntity
  8
0
100
AcDbLine
 10
19.28241149999999
 20
152.0159999999999
 30
0.0
 11
52.9471115
 21
224.0729999999999
 31
0.0
  0
LINE
  5
24
330
1E
100
AcDbEntity
  8
0
100
AcDbLine
 10
113.7500114999999
 20
6.0
 30
0.0
 11
113.7500114999999
 21
-0.0000000000000028
 31
0.0
  0
LINE
  5
25
330
1E
100
AcDbEntity
  8
0
100
AcDbLine
 10
113.7500114999999
 20
6.0
 30
0.0
 11
114.0500115
 21
6.7
 31
0.0
  0
LINE
  5
26
330
1E
100
AcDbEntity
  8
0
100
AcDbLine
 10
18.61801149999999
 20
151.774
 30
0.0
 11
19.28241149999999
 21
152.0159999999999
 31
0.0
  0
LINE
  5
27
330
1E
100
AcDbEntity
  8
0
100
AcDbLine
 10
0.249988500000009
 20
160.8909999999999
 30
0.0
 11
33.5456115
 21
232.109
 31
0.0
  0
LINE
  5
28
330
1E
100
AcDbEntity
  8
0
100
AcDbLine
 10
9.766221500000009
 20
156.4529999999999
 30
0.0
 11
12.2132115
 21
155.312
 31
0.0
  0
LINE
  5
29
330
1E
100
AcDbEntity
  8
0
100
AcDbLine
 10
7.198511500000009
 20
157.0989999999999
 30
0.0
 11
9.554911500000009
 21
156.0
 31
0.0
  0
LINE
  5
2A
330
1E
100
AcDbEntity
  8
0
100
AcDbLine
 10
7.319191500000009
 20
157.5939999999999
 30
0.0
 11
9.766221500000009
 21
156.4529999999999
 31
0.0
  0
LINE
  5
2B
330
1E
100
AcDbEntity
  8
0
100
AcDbLine
 10
7.470401500000009
 20
156.972
 30
0.0
 11
9.554911500000009
 21
156.0
 31
0.0
  0
LINE
  5
2C
330
1E
100
AcDbEntity
  8
0
100
AcDbLine
 10
6.467255184135379
 20
157.43989479495
 30
0.0
 11
7.470401500000009
 21
156.972
 31
0.0
  0
LINE
  5
2D
330
1E
100
AcDbEntity
  8
0
100
AcDbLine
 10
3.120131500000009
 20
159.001
 30
0.0
 11
5.023371500000009
 21
158.1129999999999
 31
0.0
  0
LINE
  5
2E
330
1E
100
AcDbEntity
  8
0
100
AcDbLine
 10
5.053421500000009
 20
158.651
 30
0.0
 11
7.319191500000009
 21
157.5939999999999
 31
0.0
  0
LINE
  5
2F
330
1E
100
AcDbEntity
  8
0
100
AcDbLine
 10
3.059541500000009
 20
159.581
 30
0.0
 11
5.053421500000009
 21
158.651
 31
0.0
  0
LINE
  5
30
330
1E
100
AcDbEntity
  8
0
100
AcDbLine
 10
2.485711500000009
 20
159.2959999999999
 30
0.0
 11
3.754541500000009
 21
158.705
 31
0.0
  0
LINE
  5
31
330
1E
100
AcDbEntity
  8
0
100
AcDbLine
 10
1.67003150000001
 20
159.677
 30
0.0
 11
2.485711500000009
 21
159.2959999999999
 31
0.0
  0
LINE
  5
32
330
1E
100
AcDbEntity
  8
0
100
AcDbLine
 10
1.67003150000001
 20
159.677
 30
0.0
 11
3.120131500000009
 21
159.001
 31
0.0
  0
LINE
  5
33
330
1E
100
AcDbEntity
  8
0
100
AcDbLine
 10
5.023371500000009
 20
158.1129999999999
 30
0.0
 11
6.467255184135379
 21
157.43989479495
 31
0.0
  0
LINE
  5
34
330
1E
100
AcDbEntity
  8
0
100
AcDbLine
 10
5.023371500000009
 20
158.1129999999999
 30
0.0
 11
7.198511500000009
 21
157.0989999999999
 31
0.0
  0
LINE
  5
35
330
1E
100
AcDbEntity
  8
0
100
AcDbLine
 10
0.8543565000000089
 20
160.057
 30
0.0
 11
1.67003150000001
 21
159.677
 31
0.0
  0
LINE
  5
36
330
1E
100
AcDbEntity
  8
0
100
AcDbLine
 10
0.249988500000009
 20
160.8909999999999
 30
0.0
 11
0.612511500000009
 21
160.722
 31
0.0
  0
LINE
  5
37
330
1E
100
AcDbEntity
  8
0
100
AcDbLine
 10
1.51882150000001
 20
160.299
 30
0.0
 11
3.059541500000009
 21
159.581
 31
0.0
  0
LINE
  5
38
330
1E
100
AcDbEntity
  8
0
100
AcDbLine
 10
0.612511500000009
 20
160.722
 30
0.0
 11
1.51882150000001
 21
160.299
 31
0.0
  0
LINE
  5
39
330
1E
100
AcDbEntity
  8
0
100
AcDbLine
 10
0.491833500000009
 20
160.226
 30
0.0
 11
0.8543565000000089
 21
160.057
 31
0.0
  0
LINE
  5
3A
330
1E
100
AcDbEntity
  8
0
100
AcDbLine
 10
0.249988500000009
 20
160.8909999999999
 30
0.0
 11
33.5456115
 21
232.109
 31
0.0
  0
LINE
  5
3B
330
1E
100
AcDbEntity
  8
0
100
AcDbLine
 10
0.249988500000009
 20
160.8909999999999
 30
0.0
 11
0.491833500000009
 21
160.226
 31
0.0
  0
LINE
  5
3C
330
1E
100
AcDbEntity
  8
0
100
AcDbLine
 10
0.249988500000009
 20
160.8909999999999
 30
0.0
 11
0.612511500000009
 21
160.722
 31
0.0
  0
LINE
  5
3D
330
1E
100
AcDbEntity
  8
0
100
AcDbLine
 10
9.554911500000009
 20
156.0
 30
0.0
 11
11.9113115
 21
154.901
 31
0.0
  0
LINE
  5
3E
330
1E
100
AcDbEntity
  8
0
100
AcDbLine
 10
13.6333115
 20
154.0979999999999
 30
0.0
 11
15.2904708945611
 21
153.325236356659
 31
0.0
  0
LINE
  5
3F
330
1E
100
AcDbEntity
  8
0
100
AcDbLine
 10
14.0864115
 20
153.887
 30
0.0
 11
15.98971149999999
 21
152.9989999999999
 31
0.0
  0
LINE
  5
40
330
1E
100
AcDbEntity
  8
0
100
AcDbLine
 10
15.98971149999999
 20
152.9989999999999
 30
0.0
 11
17.43981149999999
 21
152.3229999999999
 31
0.0
  0
LINE
  5
41
330
1E
100
AcDbEntity
  8
0
100
AcDbLine
 10
14.47901149999999
 20
154.2559999999999
 30
0.0
 11
16.4729115
 21
153.326
 31
0.0
  0
LINE
  5
42
330
1E
100
AcDbEntity
  8
0
100
AcDbLine
 10
17.43981149999999
 20
152.3229999999999
 30
0.0
 11
18.2555115
 21
151.9429999999999
 31
0.0
  0
LINE
  5
43
330
1E
100
AcDbEntity
  8
0
100
AcDbLine
 10
17.43981149999999
 20
152.3229999999999
 30
0.0
 11
17.71171149999999
 21
152.1959999999999
 31
0.0
  0
LINE
  5
44
330
1E
100
AcDbEntity
  8
0
100
AcDbLine
 10
16.4729115
 20
153.326
 30
0.0
 11
18.01361149999999
 21
152.6069999999999
 31
0.0
  0
LINE
  5
45
330
1E
100
AcDbEntity
  8
0
100
AcDbLine
 10
12.6691278458037
 20
154.5477170361619
 30
0.0
 11
13.6333115
 21
154.0979999999999
 31
0.0
  0
LINE
  5
46
330
1E
100
AcDbEntity
  8
0
100
AcDbLine
 10
18.01361149999999
 20
152.6069999999999
 30
0.0
 11
18.91991149999999
 21
152.185
 31
0.0
  0
LINE
  5
47
330
1E
100
AcDbEntity
  8
0
100
AcDbLine
 10
18.91991149999999
 20
152.185
 30
0.0
 11
19.28241149999999
 21
152.0159999999999
 31
0.0
  0
LINE
  5
48
330
1E
100
AcDbEntity
  8
0
100
AcDbLine
 10
12.2132115
 20
155.312
 30
0.0
 11
14.47901149999999
 21
154.2559999999999
 31
0.0
  0
LINE
  5
49
330
1E
100
AcDbEntity
  8
0
100
AcDbLine
 10
52.9471115
 20
224.0729999999999
 30
0.0
 11
55.3769115
 21
229.0
 31
0.0
  0
LINE
  5
4A
330
1E
100
AcDbEntity
  8
0
100
AcDbLine
 10
55.3769115
 20
229.0
 30
0.0
 11
58.4292115
 21
233.5679999999999
 31
0.0
  0
LINE
  5
4B
330
1E
100
AcDbEntity
  8
0
100
AcDbLine
 10
33.5456115
 20
232.109
 30
0.0
 11
37.19041149999999
 21
239.5
 31
0.0
  0
LINE
  5
4C
330
1E
100
AcDbEntity
  8
0
100
AcDbLine
 10
58.4292115
 20
233.5679999999999
 30
0.0
 11
62.05151149999999
 21
237.6979999999999
 31
0.0
  0
LINE
  5
4D
330
1E
100
AcDbEntity
  8
0
100
AcDbLine
 10
37.19041149999999
 20
239.5
 30
0.0
 11
41.7687115
 21
246.3519999999999
 31
0.0
  0
LINE
  5
4E
330
1E
100
AcDbEntity
  8
0
100
AcDbLine
 10
41.7687115
 20
246.3519999999999
 30
0.0
 11
47.2023115
 21
252.5479999999999
 31
0.0
  0
LINE
  5
4F
330
1E
100
AcDbEntity
  8
0
100
AcDbLine
 10
62.05151149999999
 20
237.6979999999999
 30
0.0
 11
66.1820115
 21
241.3209999999999
 31
0.0
  0
LINE
  5
50
330
1E
100
AcDbEntity
  8
0
100
AcDbLine
 10
70.7500115
 20
244.3729999999999
 30
0.0
 11
75.6773115
 21
246.803
 31
0.0
  0
LINE
  5
51
330
1E
100
AcDbEntity
  8
0
100
AcDbLine
 10
75.6773115
 20
246.803
 30
0.0
 11
80.87961149999999
 21
248.569
 31
0.0
  0
LINE
  5
52
330
1E
100
AcDbEntity
  8
0
100
AcDbLine
 10
66.1820115
 20
241.3209999999999
 30
0.0
 11
70.7500115
 21
244.3729999999999
 31
0.0
  0
LINE
  5
53
330
1E
100
AcDbEntity
  8
0
100
AcDbLine
 10
86.2679115
 20
249.641
 30
0.0
 11
91.75001149999999
 21
250.0
 31
0.0
  0
LINE
  5
54
330
1E
100
AcDbEntity
  8
0
100
AcDbLine
 10
80.87961149999999
 20
248.569
 30
0.0
 11
86.2679115
 21
249.641
 31
0.0
  0
LINE
  5
55
330
1E
100
AcDbEntity
  8
0
100
AcDbLine
 10
47.2023115
 20
252.5479999999999
 30
0.0
 11
53.39801149999999
 21
257.981
 31
0.0
  0
LINE
  5
56
330
1E
100
AcDbEntity
  8
0
100
AcDbLine
 10
67.6409115
 20
266.204
 30
0.0
 11
75.4444115
 21
268.853
 31
0.0
  0
LINE
  5
57
330
1E
100
AcDbEntity
  8
0
100
AcDbLine
 10
60.2500115
 20
262.5599999999999
 30
0.0
 11
67.6409115
 21
266.204
 31
0.0
  0
LINE
  5
58
330
1E
100
AcDbEntity
  8
0
100
AcDbLine
 10
53.39801149999999
 20
257.981
 30
0.0
 11
60.2500115
 21
262.5599999999999
 31
0.0
  0
LINE
  5
59
330
1E
100
AcDbEntity
  8
0
100
AcDbLine
 10
83.5268115
 20
270.461
 30
0.0
 11
91.75001149999999
 21
271.0
 31
0.0
  0
LINE
  5
5A
330
1E
100
AcDbEntity
  8
0
100
AcDbLine
 10
75.4444115
 20
268.853
 30
0.0
 11
83.5268115
 21
270.461
 31
0.0
  0
LINE
  5
5B
330
1E
100
AcDbEntity
  8
0
100
AcDbLine
 10
91.75001149999999
 20
250.0
 30
0.0
 11
97.2321115
 21
249.641
 31
0.0
  0
LINE
  5
5C
330
1E
100
AcDbEntity
  8
0
100
AcDbLine
 10
102.6200114999999
 20
248.569
 30
0.0
 11
107.8230114999999
 21
246.803
 31
0.0
  0
LINE
  5
5D
330
1E
100
AcDbEntity
  8
0
100
AcDbLine
 10
108.0560114999999
 20
268.853
 30
0.0
 11
115.8590114999999
 21
266.204
 31
0.0
  0
LINE
  5
5E
330
1E
100
AcDbEntity
  8
0
100
AcDbLine
 10
99.97321150000001
 20
270.461
 30
0.0
 11
108.0560114999999
 21
268.853
 31
0.0
  0
LINE
  5
5F
330
1E
100
AcDbEntity
  8
0
100
AcDbLine
 10
97.2321115
 20
249.641
 30
0.0
 11
102.6200114999999
 21
248.569
 31
0.0
  0
LINE
  5
60
330
1E
100
AcDbEntity
  8
0
100
AcDbLine
 10
91.75001149999999
 20
271.0
 30
0.0
 11
99.97321150000001
 21
270.461
 31
0.0
  0
LINE
  5
61
330
1E
100
AcDbEntity
  8
0
100
AcDbLine
 10
107.8230114999999
 20
246.803
 30
0.0
 11
112.7500114999999
 21
244.3729999999999
 31
0.0
  0
LINE
  5
62
330
1E
100
AcDbEntity
  8
0
100
AcDbLine
 10
112.7500114999999
 20
244.3729999999999
 30
0.0
 11
117.3180115
 21
241.3209999999999
 31
0.0
  0
LINE
  5
63
330
1E
100
AcDbEntity
  8
0
100
AcDbLine
 10
12.6691278458037
 20
154.5477170361619
 30
0.0
 11
13.6333115
 21
154.0979999999999
 31
0.0
  0
LINE
  5
64
330
1E
100
AcDbEntity
  8
0
100
AcDbLine
 10
11.9113115
 20
154.901
 30
0.0
 11
12.6691278458037
 21
154.5477170361619
 31
0.0
  0
LINE
  5
65
330
1E
100
AcDbEntity
  8
0
100
AcDbLine
 10
11.9113115
 20
154.901
 30
0.0
 11
14.0864115
 21
153.887
 31
0.0
  0
LINE
  5
66
330
1E
100
AcDbEntity
  8
0
100
AcDbLine
 10
19.28241149999999
 20
152.0159999999999
 30
0.0
 11
52.9471115
 21
224.0729999999999
 31
0.0
  0
LINE
  5
67
330
1E
100
AcDbEntity
  8
0
100
AcDbLine
 10
114.5500114999999
 20
-0.0000000000000031
 30
0.0
 11
115.5500114999999
 21
-0.0000000000000031
 31
0.0
  0
LINE
  5
68
330
1E
100
AcDbEntity
  8
0
100
AcDbLine
 10
114.8500115
 20
6.7
 30
0.0
 11
115.7500114999999
 21
6.7
 31
0.0
  0
LINE
  5
69
330
1E
100
AcDbEntity
  8
0
100
AcDbLine
 10
115.4500115
 20
7.0
 30
0.0
 11
116.2500115
 21
7.0
 31
0.0
  0
LINE
  5
6A
330
1E
100
AcDbEntity
  8
0
100
AcDbLine
 10
114.9500115
 20
7.0
 30
0.0
 11
115.4500115
 21
7.0
 31
0.0
  0
LINE
  5
6B
330
1E
100
AcDbEntity
  8
0
100
AcDbLine
 10
114.2500115
 20
6.7
 30
0.0
 11
114.8500115
 21
6.7
 31
0.0
  0
LINE
  5
6C
330
1E
100
AcDbEntity
  8
0
100
AcDbLine
 10
116.2500115
 20
7.0
 30
0.0
 11
117.2500115
 21
7.0
 31
0.0
  0
LINE
  5
6D
330
1E
100
AcDbEntity
  8
0
100
AcDbLine
 10
115.7500114999999
 20
6.7
 30
0.0
 11
116.9500114999999
 21
6.7
 31
0.0
  0
LINE
  5
6E
330
1E
100
AcDbEntity
  8
0
100
AcDbLine
 10
115.8590114999999
 20
266.204
 30
0.0
 11
123.2500115
 21
262.5599999999999
 31
0.0
  0
LINE
  5
6F
330
1E
100
AcDbEntity
  8
0
100
AcDbLine
 10
114.7500114999999
 20
7.0
 30
0.0
 11
114.9500115
 21
7.0
 31
0.0
  0
LINE
  5
70
330
1E
100
AcDbEntity
  8
0
100
AcDbLine
 10
114.0500115
 20
6.7
 30
0.0
 11
114.7500114999999
 21
7.0
 31
0.0
  0
LINE
  5
71
330
1E
100
AcDbEntity
  8
0
100
AcDbLine
 10
114.0500115
 20
6.7
 30
0.0
 11
114.2500115
 21
6.7
 31
0.0
  0
LINE
  5
72
330
1E
100
AcDbEntity
  8
0
100
AcDbLine
 10
113.9500115
 20
-0.000000000000003
 30
0.0
 11
114.5500114999999
 21
-0.0000000000000031
 31
0.0
  0
LINE
  5
73
330
1E
100
AcDbEntity
  8
0
100
AcDbLine
 10
113.7500114999999
 20
-0.000000000000003
 30
0.0
 11
113.7500114999999
 21
6.0
 31
0.0
  0
LINE
  5
74
330
1E
100
AcDbEntity
  8
0
100
AcDbLine
 10
113.7500114999999
 20
-0.000000000000003
 30
0.0
 11
113.9500115
 21
-0.000000000000003
 31
0.0
  0
LINE
  5
75
330
1E
100
AcDbEntity
  8
0
100
AcDbLine
 10
115.5500114999999
 20
-0.0000000000000031
 30
0.0
 11
116.7500114999999
 21
-0.0000000000000032
 31
0.0
  0
LINE
  5
76
330
1E
100
AcDbEntity
  8
0
100
AcDbLine
 10
116.9500114999999
 20
6.7
 30
0.0
 11
118.2500115
 21
6.7
 31
0.0
  0
LINE
  5
77
330
1E
100
AcDbEntity
  8
0
100
AcDbLine
 10
117.2500115
 20
7.0
 30
0.0
 11
118.4500115
 21
7.0
 31
0.0
  0
LINE
  5
78
330
1E
100
AcDbEntity
  8
0
100
AcDbLine
 10
118.2500115
 20
6.7
 30
0.0
 11
119.7500114999999
 21
6.7
 31
0.0
  0
LINE
  5
79
330
1E
100
AcDbEntity
  8
0
100
AcDbLine
 10
118.4500115
 20
7.0
 30
0.0
 11
119.7500114999999
 21
7.0
 31
0.0
  0
LINE
  5
7A
330
1E
100
AcDbEntity
  8
0
100
AcDbLine
 10
130.7500115
 20
7.0
 30
0.0
 11
132.0500115
 21
7.4
 31
0.0
  0
LINE
  5
7B
330
1E
100
AcDbEntity
  8
0
100
AcDbLine
 10
140.1500115
 20
7.0
 30
0.0
 11
140.4500114999999
 21
7.0
 31
0.0
  0
LINE
  5
7C
330
1E
100
AcDbEntity
  8
0
100
AcDbLine
 10
137.0500115
 20
7.0
 30
0.0
 11
137.4500114999999
 21
7.0
 31
0.0
  0
LINE
  5
7D
330
1E
100
AcDbEntity
  8
0
100
AcDbLine
 10
124.4500115
 20
7.0
 30
0.0
 11
125.4500115
 21
7.0
 31
0.0
  0
LINE
  5
7E
330
1E
100
AcDbEntity
  8
0
100
AcDbLine
 10
137.4500114999999
 20
7.0
 30
0.0
 11
144.2500115
 21
6.99999999999999
 31
0.0
  0
LINE
  5
7F
330
1E
100
AcDbEntity
  8
0
100
AcDbLine
 10
119.7500114999999
 20
7.0
 30
0.0
 11
144.2500115
 21
6.99999999999999
 31
0.0
  0
LINE
  5
80
330
1E
100
AcDbEntity
  8
0
100
AcDbLine
 10
119.7500114999999
 20
6.7
 30
0.0
 11
144.2500115
 21
6.69999999999999
 31
0.0
  0
LINE
  5
81
330
1E
100
AcDbEntity
  8
0
100
AcDbLine
 10
118.2500115
 20
-0.0000000000000033
 30
0.0
 11
119.7500114999999
 21
-0.0000000000000034
 31
0.0
  0
LINE
  5
82
330
1E
100
AcDbEntity
  8
0
100
AcDbLine
 10
119.7500114999999
 20
-0.0000000000000034
 30
0.0
 11
144.2500115
 21
-0.0000000000000049
 31
0.0
  0
LINE
  5
83
330
1E
100
AcDbEntity
  8
0
100
AcDbLine
 10
144.2500115
 20
6.69999999999999
 30
0.0
 11
168.7500114999999
 21
6.69999999999999
 31
0.0
  0
LINE
  5
84
330
1E
100
AcDbEntity
  8
0
100
AcDbLine
 10
144.2500115
 20
6.99999999999999
 30
0.0
 11
168.7500114999999
 21
6.99999999999999
 31
0.0
  0
LINE
  5
85
330
1E
100
AcDbEntity
  8
0
100
AcDbLine
 10
140.7500114999999
 20
7.0
 30
0.0
 11
144.2500115
 21
6.99999999999999
 31
0.0
  0
LINE
  5
86
330
1E
100
AcDbEntity
  8
0
100
AcDbLine
 10
140.4500114999999
 20
7.0
 30
0.0
 11
144.2500115
 21
6.99999999999999
 31
0.0
  0
LINE
  5
87
330
1E
100
AcDbEntity
  8
0
100
AcDbLine
 10
140.4500114999999
 20
7.0
 30
0.0
 11
140.7500114999999
 21
7.0
 31
0.0
  0
LINE
  5
88
330
1E
100
AcDbEntity
  8
0
100
AcDbLine
 10
125.4500115
 20
7.0
 30
0.0
 11
132.9500114999999
 21
7.0
 31
0.0
  0
LINE
  5
89
330
1E
100
AcDbEntity
  8
0
100
AcDbLine
 10
170.2500115
 20
-0.0000000000000065
 30
0.0
 11
171.7500114999999
 21
-0.0000000000000066
 31
0.0
  0
LINE
  5
8A
330
1E
100
AcDbEntity
  8
0
100
AcDbLine
 10
174.5500115
 20
-0.0000000000000067
 30
0.0
 11
174.7500115
 21
-0.0000000000000067
 31
0.0
  0
LINE
  5
8B
330
1E
100
AcDbEntity
  8
0
100
AcDbLine
 10
174.7500115
 20
-0.0000000000000067
 30
0.0
 11
174.7500115
 21
5.99999999999999
 31
0.0
  0
LINE
  5
8C
330
1E
100
AcDbEntity
  8
0
100
AcDbLine
 10
173.9500115
 20
-0.0000000000000067
 30
0.0
 11
174.5500115
 21
-0.0000000000000067
 31
0.0
  0
LINE
  5
8D
330
1E
100
AcDbEntity
  8
0
100
AcDbLine
 10
172.9500115
 20
-0.0000000000000066
 30
0.0
 11
173.9500115
 21
-0.0000000000000067
 31
0.0
  0
LINE
  5
8E
330
1E
100
AcDbEntity
  8
0
100
AcDbLine
 10
171.7500114999999
 20
-0.0000000000000066
 30
0.0
 11
172.9500115
 21
-0.0000000000000066
 31
0.0
  0
LINE
  5
8F
330
1E
100
AcDbEntity
  8
0
100
AcDbLine
 10
172.7500114999999
 20
6.69999999999999
 30
0.0
 11
173.6500115
 21
6.69999999999999
 31
0.0
  0
LINE
  5
90
330
1E
100
AcDbEntity
  8
0
100
AcDbLine
 10
173.6500115
 20
6.69999999999999
 30
0.0
 11
174.2500115
 21
6.69999999999999
 31
0.0
  0
LINE
  5
91
330
1E
100
AcDbEntity
  8
0
100
AcDbLine
 10
174.2500115
 20
6.69999999999999
 30
0.0
 11
174.4500114999999
 21
6.69999999999999
 31
0.0
  0
LINE
  5
92
330
1E
100
AcDbEntity
  8
0
100
AcDbLine
 10
168.7500114999999
 20
6.69999999999999
 30
0.0
 11
170.2500115
 21
6.69999999999999
 31
0.0
  0
LINE
  5
93
330
1E
100
AcDbEntity
  8
0
100
AcDbLine
 10
171.5500115
 20
6.69999999999999
 30
0.0
 11
172.7500114999999
 21
6.69999999999999
 31
0.0
  0
LINE
  5
94
330
1E
100
AcDbEntity
  8
0
100
AcDbLine
 10
170.2500115
 20
6.69999999999999
 30
0.0
 11
171.5500115
 21
6.69999999999999
 31
0.0
  0
LINE
  5
95
330
1E
100
AcDbEntity
  8
0
100
AcDbLine
 10
171.2500115
 20
6.99999999999999
 30
0.0
 11
172.2500115
 21
6.99999999999999
 31
0.0
  0
LINE
  5
96
330
1E
100
AcDbEntity
  8
0
100
AcDbLine
 10
170.0500115
 20
6.99999999999999
 30
0.0
 11
171.2500115
 21
6.99999999999999
 31
0.0
  0
LINE
  5
97
330
1E
100
AcDbEntity
  8
0
100
AcDbLine
 10
168.7500114999999
 20
6.99999999999999
 30
0.0
 11
170.0500115
 21
6.99999999999999
 31
0.0
  0
LINE
  5
98
330
1E
100
AcDbEntity
  8
0
100
AcDbLine
 10
172.2500115
 20
6.99999999999999
 30
0.0
 11
173.0500115
 21
6.99999999999999
 31
0.0
  0
LINE
  5
99
330
1E
100
AcDbEntity
  8
0
100
AcDbLine
 10
156.4500114999999
 20
7.4
 30
0.0
 11
157.7500115
 21
6.99999999999999
 31
0.0
  0
LINE
  5
9A
330
1E
100
AcDbEntity
  8
0
100
AcDbLine
 10
159.7500115
 20
6.99999999999999
 30
0.0
 11
159.7500115
 21
16.0
 31
0.0
  0
LINE
  5
9B
330
1E
100
AcDbEntity
  8
0
100
AcDbLine
 10
158.1500115
 20
6.99999999999999
 30
0.0
 11
158.3500114999999
 21
6.99999999999999
 31
0.0
  0
LINE
  5
9C
330
1E
100
AcDbEntity
  8
0
100
AcDbLine
 10
173.0500115
 20
6.99999999999999
 30
0.0
 11
173.5500115
 21
6.99999999999999
 31
0.0
  0
LINE
  5
9D
330
1E
100
AcDbEntity
  8
0
100
AcDbLine
 10
173.5500115
 20
6.99999999999999
 30
0.0
 11
173.7500115
 21
6.99999999999999
 31
0.0
  0
LINE
  5
9E
330
1E
100
AcDbEntity
  8
0
100
AcDbLine
 10
174.4500114999999
 20
6.69999999999999
 30
0.0
 11
174.7500115
 21
5.99999999999999
 31
0.0
  0
LINE
  5
9F
330
1E
100
AcDbEntity
  8
0
100
AcDbLine
 10
174.7500115
 20
5.99999999999999
 30
0.0
 11
174.7500115
 21
-0.0000000000000066
 31
0.0
  0
LINE
  5
A0
330
1E
100
AcDbEntity
  8
0
100
AcDbLine
 10
168.7500114999999
 20
-0.0000000000000064
 30
0.0
 11
170.2500115
 21
-0.0000000000000065
 31
0.0
  0
LINE
  5
A1
330
1E
100
AcDbEntity
  8
0
100
AcDbLine
 10
144.2500115
 20
-0.0000000000000049
 30
0.0
 11
168.7500114999999
 21
-0.0000000000000064
 31
0.0
  0
LINE
  5
A2
330
1E
100
AcDbEntity
  8
0
100
AcDbLine
 10
117.3180115
 20
241.3209999999999
 30
0.0
 11
121.4480114999999
 21
237.6979999999999
 31
0.0
  0
LINE
  5
A3
330
1E
100
AcDbEntity
  8
0
100
AcDbLine
 10
130.5530115
 20
224.0729999999999
 30
0.0
 11
132.3190114999999
 21
218.87
 31
0.0
  0
LINE
  5
A4
330
1E
100
AcDbEntity
  8
0
100
AcDbLine
 10
128.1230114999999
 20
229.0
 30
0.0
 11
130.5530115
 21
224.0729999999999
 31
0.0
  0
LINE
  5
A5
330
1E
100
AcDbEntity
  8
0
100
AcDbLine
 10
132.3190114999999
 20
218.87
 30
0.0
 11
133.3910114999999
 21
213.4819999999999
 31
0.0
  0
LINE
  5
A6
330
1E
100
AcDbEntity
  8
0
100
AcDbLine
 10
133.3910114999999
 20
213.4819999999999
 30
0.0
 11
133.7500115
 21
208.0
 31
0.0
  0
LINE
  5
A7
330
1E
100
AcDbEntity
  8
0
100
AcDbLine
 10
123.2500115
 20
262.5599999999999
 30
0.0
 11
130.1020115
 21
257.981
 31
0.0
  0
LINE
  5
A8
330
1E
100
AcDbEntity
  8
0
100
AcDbLine
 10
130.1020115
 20
257.981
 30
0.0
 11
136.2980115
 21
252.5479999999999
 31
0.0
  0
LINE
  5
A9
330
1E
100
AcDbEntity
  8
0
100
AcDbLine
 10
125.0710114999999
 20
233.5679999999999
 30
0.0
 11
128.1230114999999
 21
229.0
 31
0.0
  0
LINE
  5
AA
330
1E
100
AcDbEntity
  8
0
100
AcDbLine
 10
121.4480114999999
 20
237.6979999999999
 30
0.0
 11
125.0710114999999
 21
233.5679999999999
 31
0.0
  0
LINE
  5
AB
330
1E
100
AcDbEntity
  8
0
100
AcDbLine
 10
133.0500115
 20
8.199999999999999
 30
0.0
 11
133.5500115
 21
9.199999999999999
 31
0.0
  0
LINE
  5
AC
330
1E
100
AcDbEntity
  8
0
100
AcDbLine
 10
155.7500115
 20
7.95999999999999
 30
0.0
 11
155.7500115
 21
16.0
 31
0.0
  0
LINE
  5
AD
330
1E
100
AcDbEntity
  8
0
100
AcDbLine
 10
154.9500114999999
 20
9.19999999999999
 30
0.0
 11
155.4500114999999
 21
8.19999999999999
 31
0.0
  0
LINE
  5
AE
330
1E
100
AcDbEntity
  8
0
100
AcDbLine
 10
155.4500114999999
 20
8.19999999999999
 30
0.0
 11
156.4500114999999
 21
7.4
 31
0.0
  0
LINE
  5
AF
330
1E
100
AcDbEntity
  8
0
100
AcDbLine
 10
154.7500115
 20
9.999999999999991
 30
0.0
 11
154.9500114999999
 21
9.19999999999999
 31
0.0
  0
LINE
  5
B0
330
1E
100
AcDbEntity
  8
0
100
AcDbLine
 10
154.7500115
 20
9.999999999999991
 30
0.0
 11
154.7500115
 21
10.5
 31
0.0
  0
LINE
  5
B1
330
1E
100
AcDbEntity
  8
0
100
AcDbLine
 10
133.7500115
 20
13.0
 30
0.0
 11
133.7500115
 21
36.0
 31
0.0
  0
LINE
  5
B2
330
1E
100
AcDbEntity
  8
0
100
AcDbLine
 10
133.7500115
 20
13.0
 30
0.0
 11
133.9500114999999
 21
12.6
 31
0.0
  0
LINE
  5
B3
330
1E
100
AcDbEntity
  8
0
100
AcDbLine
 10
133.9500114999999
 20
11.1
 30
0.0
 11
134.3500114999999
 21
11.1
 31
0.0
  0
LINE
  5
B4
330
1E
100
AcDbEntity
  8
0
100
AcDbLine
 10
133.9500114999999
 20
11.1
 30
0.0
 11
134.2500114999999
 21
11.1
 31
0.0
  0
LINE
  5
B5
330
1E
100
AcDbEntity
  8
0
100
AcDbLine
 10
133.9500114999999
 20
11.1
 30
0.0
 11
133.9500114999999
 21
12.4
 31
0.0
  0
LINE
  5
B6
330
1E
100
AcDbEntity
  8
0
100
AcDbLine
 10
133.9500114999999
 20
10.9
 30
0.0
 11
134.2500114999999
 21
11.1
 31
0.0
  0
LINE
  5
B7
330
1E
100
AcDbEntity
  8
0
100
AcDbLine
 10
134.3500114999999
 20
11.1
 30
0.0
 11
135.3500114999999
 21
11.1
 31
0.0
  0
LINE
  5
B8
330
1E
100
AcDbEntity
  8
0
100
AcDbLine
 10
135.3500114999999
 20
11.1
 30
0.0
 11
136.9500114999999
 21
11.1
 31
0.0
  0
LINE
  5
B9
330
1E
100
AcDbEntity
  8
0
100
AcDbLine
 10
136.9500114999999
 20
11.1
 30
0.0
 11
139.1500115
 21
11.1
 31
0.0
  0
LINE
  5
BA
330
1E
100
AcDbEntity
  8
0
100
AcDbLine
 10
139.1500115
 20
11.1
 30
0.0
 11
141.6500115
 21
11.1
 31
0.0
  0
LINE
  5
BB
330
1E
100
AcDbEntity
  8
0
100
AcDbLine
 10
135.5500115
 20
11.1
 30
0.0
 11
137.1500115
 21
11.1
 31
0.0
  0
LINE
  5
BC
330
1E
100
AcDbEntity
  8
0
100
AcDbLine
 10
134.6500114999999
 20
11.1
 30
0.0
 11
135.5500115
 21
11.1
 31
0.0
  0
LINE
  5
BD
330
1E
100
AcDbEntity
  8
0
100
AcDbLine
 10
134.2500114999999
 20
11.1
 30
0.0
 11
134.6500114999999
 21
11.1
 31
0.0
  0
LINE
  5
BE
330
1E
100
AcDbEntity
  8
0
100
AcDbLine
 10
137.1500115
 20
11.1
 30
0.0
 11
139.2500115
 21
11.1
 31
0.0
  0
LINE
  5
BF
330
1E
100
AcDbEntity
  8
0
100
AcDbLine
 10
149.3500114999999
 20
11.1
 30
0.0
 11
151.5500115
 21
11.1
 31
0.0
  0
LINE
  5
C0
330
1E
100
AcDbEntity
  8
0
100
AcDbLine
 10
154.1500115
 20
11.1
 30
0.0
 11
154.5500115
 21
11.1
 31
0.0
  0
LINE
  5
C1
330
1E
100
AcDbEntity
  8
0
100
AcDbLine
 10
153.1500115
 20
11.1
 30
0.0
 11
154.1500115
 21
11.1
 31
0.0
  0
LINE
  5
C2
330
1E
100
AcDbEntity
  8
0
100
AcDbLine
 10
151.5500115
 20
11.1
 30
0.0
 11
153.1500115
 21
11.1
 31
0.0
  0
LINE
  5
C3
330
1E
100
AcDbEntity
  8
0
100
AcDbLine
 10
151.3500115
 20
11.1
 30
0.0
 11
152.9500114999999
 21
11.1
 31
0.0
  0
LINE
  5
C4
330
1E
100
AcDbEntity
  8
0
100
AcDbLine
 10
152.9500114999999
 20
11.1
 30
0.0
 11
153.8500114999999
 21
11.1
 31
0.0
  0
LINE
  5
C5
330
1E
100
AcDbEntity
  8
0
100
AcDbLine
 10
154.5500115
 20
11.1
 30
0.0
 11
154.5500115
 21
12.4
 31
0.0
  0
LINE
  5
C6
330
1E
100
AcDbEntity
  8
0
100
AcDbLine
 10
154.2500114999999
 20
11.1
 30
0.0
 11
154.5500115
 21
10.9
 31
0.0
  0
LINE
  5
C7
330
1E
100
AcDbEntity
  8
0
100
AcDbLine
 10
154.2500114999999
 20
11.1
 30
0.0
 11
154.5500115
 21
11.1
 31
0.0
  0
LINE
  5
C8
330
1E
100
AcDbEntity
  8
0
100
AcDbLine
 10
153.8500114999999
 20
11.1
 30
0.0
 11
154.2500114999999
 21
11.1
 31
0.0
  0
LINE
  5
C9
330
1E
100
AcDbEntity
  8
0
100
AcDbLine
 10
154.7500115
 20
10.5
 30
0.0
 11
154.7500115
 21
9.999999999999991
 31
0.0
  0
LINE
  5
CA
330
1E
100
AcDbEntity
  8
0
100
AcDbLine
 10
154.7500115
 20
10.5
 30
0.0
 11
154.7500115
 21
13.0
 31
0.0
  0
LINE
  5
CB
330
1E
100
AcDbEntity
  8
0
100
AcDbLine
 10
154.5500115
 20
10.9
 30
0.0
 11
154.7500115
 21
10.5
 31
0.0
  0
LINE
  5
CC
330
1E
100
AcDbEntity
  8
0
100
AcDbLine
 10
149.2500115
 20
11.1
 30
0.0
 11
151.3500115
 21
11.1
 31
0.0
  0
LINE
  5
CD
330
1E
100
AcDbEntity
  8
0
100
AcDbLine
 10
146.8500114999999
 20
11.1
 30
0.0
 11
149.2500115
 21
11.1
 31
0.0
  0
LINE
  5
CE
330
1E
100
AcDbEntity
  8
0
100
AcDbLine
 10
146.8500114999999
 20
11.1
 30
0.0
 11
149.3500114999999
 21
11.1
 31
0.0
  0
LINE
  5
CF
330
1E
100
AcDbEntity
  8
0
100
AcDbLine
 10
144.2500115
 20
11.1
 30
0.0
 11
146.8500114999999
 21
11.1
 31
0.0
  0
LINE
  5
D0
330
1E
100
AcDbEntity
  8
0
100
AcDbLine
 10
139.2500115
 20
11.1
 30
0.0
 11
141.6500115
 21
11.1
 31
0.0
  0
LINE
  5
D1
330
1E
100
AcDbEntity
  8
0
100
AcDbLine
 10
133.9500114999999
 20
12.4
 30
0.0
 11
133.9500114999999
 21
11.1
 31
0.0
  0
LINE
  5
D2
330
1E
100
AcDbEntity
  8
0
100
AcDbLine
 10
133.9500114999999
 20
12.4
 30
0.0
 11
134.3500114999999
 21
12.4
 31
0.0
  0
LINE
  5
D3
330
1E
100
AcDbEntity
  8
0
100
AcDbLine
 10
134.3500114999999
 20
12.4
 30
0.0
 11
135.3500114999999
 21
12.4
 31
0.0
  0
LINE
  5
D4
330
1E
100
AcDbEntity
  8
0
100
AcDbLine
 10
135.3500114999999
 20
12.4
 30
0.0
 11
136.9500114999999
 21
12.4
 31
0.0
  0
LINE
  5
D5
330
1E
100
AcDbEntity
  8
0
100
AcDbLine
 10
136.9500114999999
 20
12.4
 30
0.0
 11
139.1500115
 21
12.4
 31
0.0
  0
LINE
  5
D6
330
1E
100
AcDbEntity
  8
0
100
AcDbLine
 10
154.1500115
 20
12.4
 30
0.0
 11
154.5500115
 21
12.4
 31
0.0
  0
LINE
  5
D7
330
1E
100
AcDbEntity
  8
0
100
AcDbLine
 10
153.1500115
 20
12.4
 30
0.0
 11
154.1500115
 21
12.4
 31
0.0
  0
LINE
  5
D8
330
1E
100
AcDbEntity
  8
0
100
AcDbLine
 10
151.5500115
 20
12.4
 30
0.0
 11
153.1500115
 21
12.4
 31
0.0
  0
LINE
  5
D9
330
1E
100
AcDbEntity
  8
0
100
AcDbLine
 10
149.3500114999999
 20
12.4
 30
0.0
 11
151.5500115
 21
12.4
 31
0.0
  0
LINE
  5
DA
330
1E
100
AcDbEntity
  8
0
100
AcDbLine
 10
146.8500114999999
 20
12.4
 30
0.0
 11
149.3500114999999
 21
12.4
 31
0.0
  0
LINE
  5
DB
330
1E
100
AcDbEntity
  8
0
100
AcDbLine
 10
144.2500115
 20
12.4
 30
0.0
 11
146.8500114999999
 21
12.4
 31
0.0
  0
LINE
  5
DC
330
1E
100
AcDbEntity
  8
0
100
AcDbLine
 10
139.1500115
 20
12.4
 30
0.0
 11
141.6500115
 21
12.4
 31
0.0
  0
LINE
  5
DD
330
1E
100
AcDbEntity
  8
0
100
AcDbLine
 10
141.6500115
 20
12.4
 30
0.0
 11
144.2500115
 21
12.4
 31
0.0
  0
LINE
  5
DE
330
1E
100
AcDbEntity
  8
0
100
AcDbLine
 10
154.5500115
 20
12.4
 30
0.0
 11
154.5500115
 21
11.1
 31
0.0
  0
LINE
  5
DF
330
1E
100
AcDbEntity
  8
0
100
AcDbLine
 10
154.5500115
 20
12.6
 30
0.0
 11
154.7500115
 21
13.0
 31
0.0
  0
LINE
  5
E0
330
1E
100
AcDbEntity
  8
0
100
AcDbLine
 10
154.2500114999999
 20
12.4
 30
0.0
 11
154.5500115
 21
12.6
 31
0.0
  0
LINE
  5
E1
330
1E
100
AcDbEntity
  8
0
100
AcDbLine
 10
154.7500115
 20
13.0
 30
0.0
 11
154.7500115
 21
36.0
 31
0.0
  0
LINE
  5
E2
330
1E
100
AcDbEntity
  8
0
100
AcDbLine
 10
133.9500114999999
 20
12.6
 30
0.0
 11
134.2500114999999
 21
12.4
 31
0.0
  0
LINE
  5
E3
330
1E
100
AcDbEntity
  8
0
100
AcDbLine
 10
141.6500115
 20
11.1
 30
0.0
 11
144.2500115
 21
11.1
 31
0.0
  0
LINE
  5
E4
330
1E
100
AcDbEntity
  8
0
100
AcDbLine
 10
133.7500115
 20
10.5
 30
0.0
 11
133.7500115
 21
208.0
 31
0.0
  0
LINE
  5
E5
330
1E
100
AcDbEntity
  8
0
100
AcDbLine
 10
133.7500115
 20
10.5
 30
0.0
 11
133.7500115
 21
10.0
 31
0.0
  0
LINE
  5
E6
330
1E
100
AcDbEntity
  8
0
100
AcDbLine
 10
133.7500115
 20
10.5
 30
0.0
 11
133.9500114999999
 21
10.9
 31
0.0
  0
LINE
  5
E7
330
1E
100
AcDbEntity
  8
0
100
AcDbLine
 10
133.7500115
 20
48.79999999999999
 30
0.0
 11
133.7500115
 21
49.0
 31
0.0
  0
LINE
  5
E8
330
1E
100
AcDbEntity
  8
0
100
AcDbLine
 10
133.7500115
 20
36.0
 30
0.0
 11
133.7500115
 21
13.0
 31
0.0
  0
LINE
  5
E9
330
1E
100
AcDbEntity
  8
0
100
AcDbLine
 10
133.7500115
 20
36.0
 30
0.0
 11
133.7500115
 21
49.0
 31
0.0
  0
LINE
  5
EA
330
1E
100
AcDbEntity
  8
0
100
AcDbLine
 10
133.7500115
 20
208.0
 30
0.0
 11
133.7500115
 21
10.5
 31
0.0
  0
LINE
  5
EB
330
1E
100
AcDbEntity
  8
0
100
AcDbLine
 10
133.7500115
 20
50.5
 30
0.0
 11
133.7500115
 21
49.0
 31
0.0
  0
LINE
  5
EC
330
1E
100
AcDbEntity
  8
0
100
AcDbLine
 10
133.7500115
 20
50.5
 30
0.0
 11
133.9500114999999
 21
50.8
 31
0.0
  0
LINE
  5
F2
330
1E
100
AcDbEntity
  8
0
100
AcDbLine
 10
154.7500115
 20
36.0
 30
0.0
 11
154.7500115
 21
38.39999999999999
 31
0.0
  0
LINE
  5
F3
330
1E
100
AcDbEntity
  8
0
100
AcDbLine
 10
154.7500115
 20
36.0
 30
0.0
 11
154.7500115
 21
13.0
 31
0.0
  0
LINE
  5
F4
330
1E
100
AcDbEntity
  8
0
100
AcDbLine
 10
154.7500115
 20
38.39999999999999
 30
0.0
 11
154.7500115
 21
41.39999999999999
 31
0.0
  0
LINE
  5
F5
330
1E
100
AcDbEntity
  8
0
100
AcDbLine
 10
154.7500115
 20
38.39999999999999
 30
0.0
 11
154.7500115
 21
36.0
 31
0.0
  0
LINE
  5
F6
330
1E
100
AcDbEntity
  8
0
100
AcDbLine
 10
154.7500115
 20
41.39999999999999
 30
0.0
 11
154.7500115
 21
44.2
 31
0.0
  0
LINE
  5
F7
330
1E
100
AcDbEntity
  8
0
100
AcDbLine
 10
154.7500115
 20
41.39999999999999
 30
0.0
 11
154.7500115
 21
38.39999999999999
 31
0.0
  0
LINE
  5
F8
330
1E
100
AcDbEntity
  8
0
100
AcDbLine
 10
154.7500115
 20
44.2
 30
0.0
 11
154.7500115
 21
46.7
 31
0.0
  0
LINE
  5
F9
330
1E
100
AcDbEntity
  8
0
100
AcDbLine
 10
154.7500115
 20
44.2
 30
0.0
 11
154.7500115
 21
41.39999999999999
 31
0.0
  0
LINE
  5
FA
330
1E
100
AcDbEntity
  8
0
100
AcDbLine
 10
154.7500115
 20
46.7
 30
0.0
 11
154.7500115
 21
48.1
 31
0.0
  0
LINE
  5
FB
330
1E
100
AcDbEntity
  8
0
100
AcDbLine
 10
154.7500115
 20
46.7
 30
0.0
 11
154.7500115
 21
44.2
 31
0.0
  0
LINE
  5
FC
330
1E
100
AcDbEntity
  8
0
100
AcDbLine
 10
154.7500115
 20
48.1
 30
0.0
 11
154.7500115
 21
48.79999999999999
 31
0.0
  0
LINE
  5
FD
330
1E
100
AcDbEntity
  8
0
100
AcDbLine
 10
154.7500115
 20
48.1
 30
0.0
 11
154.7500115
 21
46.7
 31
0.0
  0
LINE
  5
102
330
1E
100
AcDbEntity
  8
0
100
AcDbLine
 10
154.7500115
 20
48.79999999999999
 30
0.0
 11
154.7500115
 21
49.0
 31
0.0
  0
LINE
  5
103
330
1E
100
AcDbEntity
  8
0
100
AcDbLine
 10
154.7500115
 20
48.79999999999999
 30
0.0
 11
154.7500115
 21
48.1
 31
0.0
  0
LINE
  5
106
330
1E
100
AcDbEntity
  8
0
100
AcDbLine
 10
134.2500114999999
 20
51.0
 30
0.0
 11
134.6500114999999
 21
51.0
 31
0.0
  0
LINE
  5
107
330
1E
100
AcDbEntity
  8
0
100
AcDbLine
 10
133.9500114999999
 20
50.8
 30
0.0
 11
134.2500114999999
 21
51.0
 31
0.0
  0
LINE
  5
108
330
1E
100
AcDbEntity
  8
0
100
AcDbLine
 10
134.6500114999999
 20
51.0
 30
0.0
 11
135.5500115
 21
51.0
 31
0.0
  0
LINE
  5
10A
330
1E
100
AcDbEntity
  8
0
100
AcDbLine
 10
134.0500115
 20
49.0
 30
0.0
 11
135.1500115
 21
49.0
 31
0.0
  0
LINE
  5
10B
330
1E
100
AcDbEntity
  8
0
100
AcDbLine
 10
154.4500114999999
 20
49.0
 30
0.0
 11
154.7500115
 21
49.0
 31
0.0
  0
LINE
  5
10C
330
1E
100
AcDbEntity
  8
0
100
AcDbLine
 10
153.3500115
 20
49.0
 30
0.0
 11
154.4500114999999
 21
49.0
 31
0.0
  0
LINE
  5
10D
330
1E
100
AcDbEntity
  8
0
100
AcDbLine
 10
136.7500115
 20
49.0
 30
0.0
 11
153.3500115
 21
49.0
 31
0.0
  0
LINE
  5
110
330
1E
100
AcDbEntity
  8
0
100
AcDbLine
 10
154.7500115
 20
49.0
 30
0.0
 11
154.7500115
 21
48.79999999999999
 31
0.0
  0
LINE
  5
111
330
1E
100
AcDbEntity
  8
0
100
AcDbLine
 10
154.7500115
 20
49.0
 30
0.0
 11
154.7500115
 21
50.5
 31
0.0
  0
LINE
  5
112
330
1E
100
AcDbEntity
  8
0
100
AcDbLine
 10
154.7500115
 20
50.5
 30
0.0
 11
154.7500115
 21
49.0
 31
0.0
  0
LINE
  5
113
330
1E
100
AcDbEntity
  8
0
100
AcDbLine
 10
154.7500115
 20
50.5
 30
0.0
 11
154.7500115
 21
208.0
 31
0.0
  0
LINE
  5
114
330
1E
100
AcDbEntity
  8
0
100
AcDbLine
 10
135.5500115
 20
51.0
 30
0.0
 11
137.1500115
 21
51.0
 31
0.0
  0
LINE
  5
115
330
1E
100
AcDbEntity
  8
0
100
AcDbLine
 10
137.1500115
 20
51.0
 30
0.0
 11
139.2500115
 21
51.0
 31
0.0
  0
LINE
  5
116
330
1E
100
AcDbEntity
  8
0
100
AcDbLine
 10
136.2980115
 20
252.5479999999999
 30
0.0
 11
141.7310115
 21
246.3519999999999
 31
0.0
  0
LINE
  5
117
330
1E
100
AcDbEntity
  8
0
100
AcDbLine
 10
139.2500115
 20
51.0
 30
0.0
 11
141.6500115
 21
51.0
 31
0.0
  0
LINE
  5
118
330
1E
100
AcDbEntity
  8
0
100
AcDbLine
 10
153.8500114999999
 20
51.0
 30
0.0
 11
154.2500114999999
 21
51.0
 31
0.0
  0
LINE
  5
119
330
1E
100
AcDbEntity
  8
0
100
AcDbLine
 10
152.9500114999999
 20
51.0
 30
0.0
 11
153.8500114999999
 21
51.0
 31
0.0
  0
LINE
  5
11A
330
1E
100
AcDbEntity
  8
0
100
AcDbLine
 10
151.3500115
 20
51.0
 30
0.0
 11
152.9500114999999
 21
51.0
 31
0.0
  0
LINE
  5
11B
330
1E
100
AcDbEntity
  8
0
100
AcDbLine
 10
149.2500115
 20
51.0
 30
0.0
 11
151.3500115
 21
51.0
 31
0.0
  0
LINE
  5
11C
330
1E
100
AcDbEntity
  8
0
100
AcDbLine
 10
146.8500114999999
 20
51.0
 30
0.0
 11
149.2500115
 21
51.0
 31
0.0
  0
LINE
  5
11D
330
1E
100
AcDbEntity
  8
0
100
AcDbLine
 10
144.2500115
 20
51.0
 30
0.0
 11
146.8500114999999
 21
51.0
 31
0.0
  0
LINE
  5
11E
330
1E
100
AcDbEntity
  8
0
100
AcDbLine
 10
154.5500115
 20
50.8
 30
0.0
 11
154.7500115
 21
50.5
 31
0.0
  0
LINE
  5
11F
330
1E
100
AcDbEntity
  8
0
100
AcDbLine
 10
149.9540115
 20
232.109
 30
0.0
 11
152.6030115
 21
224.3059999999999
 31
0.0
  0
LINE
  5
120
330
1E
100
AcDbEntity
  8
0
100
AcDbLine
 10
146.3100115
 20
239.5
 30
0.0
 11
149.9540115
 21
232.109
 31
0.0
  0
LINE
  5
121
330
1E
100
AcDbEntity
  8
0
100
AcDbLine
 10
152.6030115
 20
224.3059999999999
 30
0.0
 11
154.2110115
 21
216.223
 31
0.0
  0
LINE
  5
122
330
1E
100
AcDbEntity
  8
0
100
AcDbLine
 10
154.2110115
 20
216.223
 30
0.0
 11
154.7500115
 21
208.0
 31
0.0
  0
LINE
  5
123
330
1E
100
AcDbEntity
  8
0
100
AcDbLine
 10
141.7310115
 20
246.3519999999999
 30
0.0
 11
146.3100115
 21
239.5
 31
0.0
  0
LINE
  5
124
330
1E
100
AcDbEntity
  8
0
100
AcDbLine
 10
154.2500114999999
 20
51.0
 30
0.0
 11
154.5500115
 21
50.8
 31
0.0
  0
LINE
  5
125
330
1E
100
AcDbEntity
  8
0
100
AcDbLine
 10
141.6500115
 20
51.0
 30
0.0
 11
144.2500115
 21
51.0
 31
0.0
  0
LINE
  5
127
330
1E
100
AcDbEntity
  8
0
100
AcDbLine
 10
135.1500115
 20
49.0
 30
0.0
 11
136.7500115
 21
49.0
 31
0.0
  0
LINE
  5
129
330
1E
100
AcDbEntity
  8
0
100
AcDbLine
 10
133.7500115
 20
49.0
 30
0.0
 11
133.7500115
 21
48.79999999999999
 31
0.0
  0
LINE
  5
12A
330
1E
100
AcDbEntity
  8
0
100
AcDbLine
 10
133.7500115
 20
49.0
 30
0.0
 11
133.7500115
 21
50.5
 31
0.0
  0
LINE
  5
12B
330
1E
100
AcDbEntity
  8
0
100
AcDbLine
 10
133.7500115
 20
49.0
 30
0.0
 11
133.7500115
 21
36.0
 31
0.0
  0
LINE
  5
12C
330
1E
100
AcDbEntity
  8
0
100
AcDbLine
 10
133.7500115
 20
49.0
 30
0.0
 11
134.0500115
 21
49.0
 31
0.0
  0
LINE
  5
12D
330
1E
100
AcDbEntity
  8
0
100
AcDbLine
 10
154.7500115
 20
13.0
 30
0.0
 11
154.7500115
 21
10.5
 31
0.0
  0
LINE
  5
12E
330
1E
100
AcDbEntity
  8
0
100
AcDbLine
 10
155.7500115
 20
16.0
 30
0.0
 11
155.9200114999999
 21
17.2941
 31
0.0
  0
LINE
  5
12F
330
1E
100
AcDbEntity
  8
0
100
AcDbLine
 10
155.7500115
 20
16.0
 30
0.0
 11
155.7500115
 21
7.95999999999999
 31
0.0
  0
LINE
  5
130
330
1E
100
AcDbEntity
  8
0
100
AcDbLine
 10
159.8840114999999
 20
16.5
 30
0.0
 11
160.0430114999999
 21
16.7071
 31
0.0
  0
LINE
  5
131
330
1E
100
AcDbEntity
  8
0
100
AcDbLine
 10
159.7840114999999
 20
16.2588
 30
0.0
 11
159.8840114999999
 21
16.5
 31
0.0
  0
LINE
  5
132
330
1E
100
AcDbEntity
  8
0
100
AcDbLine
 10
159.7500115
 20
16.0
 30
0.0
 11
159.7840114999999
 21
16.2588
 31
0.0
  0
LINE
  5
133
330
1E
100
AcDbEntity
  8
0
100
AcDbLine
 10
159.7500115
 20
16.0
 30
0.0
 11
159.7500115
 21
6.99999999999999
 31
0.0
  0
LINE
  5
134
330
1E
100
AcDbEntity
  8
0
100
AcDbLine
 10
160.2500114999999
 20
16.866
 30
0.0
 11
160.4910115
 21
16.9659
 31
0.0
  0
LINE
  5
135
330
1E
100
AcDbEntity
  8
0
100
AcDbLine
 10
160.4910115
 20
16.9659
 30
0.0
 11
160.7500115
 21
17.0
 31
0.0
  0
LINE
  5
136
330
1E
100
AcDbEntity
  8
0
100
AcDbLine
 10
160.0430114999999
 20
16.7071
 30
0.0
 11
160.2500114999999
 21
16.866
 31
0.0
  0
LINE
  5
137
330
1E
100
AcDbEntity
  8
0
100
AcDbLine
 10
156.4200115
 20
18.5
 30
0.0
 11
157.2140115
 21
19.53549999999999
 31
0.0
  0
LINE
  5
138
330
1E
100
AcDbEntity
  8
0
100
AcDbLine
 10
155.9200114999999
 20
17.2941
 30
0.0
 11
156.4200115
 21
18.5
 31
0.0
  0
LINE
  5
139
330
1E
100
AcDbEntity
  8
0
100
AcDbLine
 10
158.2500115
 20
20.3301
 30
0.0
 11
159.4560114999999
 21
20.82959999999999
 31
0.0
  0
LINE
  5
13A
330
1E
100
AcDbEntity
  8
0
100
AcDbLine
 10
159.4560114999999
 20
20.82959999999999
 30
0.0
 11
160.7500115
 21
21.0
 31
0.0
  0
LINE
  5
13B
330
1E
100
AcDbEntity
  8
0
100
AcDbLine
 10
157.2140115
 20
19.53549999999999
 30
0.0
 11
158.2500115
 21
20.3301
 31
0.0
  0
LINE
  5
13C
330
1E
100
AcDbEntity
  8
0
100
AcDbLine
 10
160.7500115
 20
21.0
 30
0.0
 11
172.6220114999999
 21
21.0
 31
0.0
  0
LINE
  5
13D
330
1E
100
AcDbEntity
  8
0
100
AcDbLine
 10
172.7500114999999
 20
19.504
 30
0.0
 11
172.7500114999999
 21
19.968
 31
0.0
  0
LINE
  5
13E
330
1E
100
AcDbEntity
  8
0
100
AcDbLine
 10
172.7500114999999
 20
19.504
 30
0.0
 11
172.7500114999999
 21
19.0
 31
0.0
  0
LINE
  5
13F
330
1E
100
AcDbEntity
  8
0
100
AcDbLine
 10
172.7500114999999
 20
19.968
 30
0.0
 11
172.7500114999999
 21
20.37599999999999
 31
0.0
  0
LINE
  5
140
330
1E
100
AcDbEntity
  8
0
100
AcDbLine
 10
172.7500114999999
 20
19.968
 30
0.0
 11
172.7500114999999
 21
19.504
 31
0.0
  0
LINE
  5
141
330
1E
100
AcDbEntity
  8
0
100
AcDbLine
 10
172.7500114999999
 20
20.37599999999999
 30
0.0
 11
172.7500114999999
 21
20.688
 31
0.0
  0
LINE
  5
142
330
1E
100
AcDbEntity
  8
0
100
AcDbLine
 10
172.7500114999999
 20
20.37599999999999
 30
0.0
 11
172.7500114999999
 21
19.968
 31
0.0
  0
LINE
  5
143
330
1E
100
AcDbEntity
  8
0
100
AcDbLine
 10
172.7500114999999
 20
20.688
 30
0.0
 11
172.7500114999999
 21
20.88
 31
0.0
  0
LINE
  5
144
330
1E
100
AcDbEntity
  8
0
100
AcDbLine
 10
172.7500114999999
 20
20.688
 30
0.0
 11
172.7500114999999
 21
20.37599999999999
 31
0.0
  0
LINE
  5
145
330
1E
100
AcDbEntity
  8
0
100
AcDbLine
 10
172.7500114999999
 20
20.95199999999999
 30
0.0
 11
172.7500114999999
 21
20.88
 31
0.0
  0
LINE
  5
146
330
1E
100
AcDbEntity
  8
0
100
AcDbLine
 10
172.7500114999999
 20
20.88
 30
0.0
 11
172.7500114999999
 21
20.95199999999999
 31
0.0
  0
LINE
  5
147
330
1E
100
AcDbEntity
  8
0
100
AcDbLine
 10
172.7500114999999
 20
20.88
 30
0.0
 11
172.7500114999999
 21
20.688
 31
0.0
  0
LINE
  5
148
330
1E
100
AcDbEntity
  8
0
100
AcDbLine
 10
172.7500114999999
 20
19.0
 30
0.0
 11
172.7500114999999
 21
18.49599999999999
 31
0.0
  0
LINE
  5
149
330
1E
100
AcDbEntity
  8
0
100
AcDbLine
 10
172.7500114999999
 20
19.0
 30
0.0
 11
172.7500114999999
 21
19.504
 31
0.0
  0
LINE
  5
14A
330
1E
100
AcDbEntity
  8
0
100
AcDbLine
 10
172.7500114999999
 20
18.49599999999999
 30
0.0
 11
172.7500114999999
 21
19.0
 31
0.0
  0
LINE
  5
14B
330
1E
100
AcDbEntity
  8
0
100
AcDbLine
 10
172.7500114999999
 20
18.49599999999999
 30
0.0
 11
172.7500114999999
 21
18.032
 31
0.0
  0
LINE
  5
14C
330
1E
100
AcDbEntity
  8
0
100
AcDbLine
 10
172.7500114999999
 20
18.032
 30
0.0
 11
172.7500114999999
 21
18.49599999999999
 31
0.0
  0
LINE
  5
14D
330
1E
100
AcDbEntity
  8
0
100
AcDbLine
 10
172.7500114999999
 20
18.032
 30
0.0
 11
172.7500114999999
 21
17.624
 31
0.0
  0
LINE
  5
14E
330
1E
100
AcDbEntity
  8
0
100
AcDbLine
 10
172.7500114999999
 20
17.624
 30
0.0
 11
172.7500114999999
 21
18.032
 31
0.0
  0
LINE
  5
14F
330
1E
100
AcDbEntity
  8
0
100
AcDbLine
 10
172.7500114999999
 20
17.624
 30
0.0
 11
172.7500114999999
 21
17.312
 31
0.0
  0
LINE
  5
150
330
1E
100
AcDbEntity
  8
0
100
AcDbLine
 10
172.7500114999999
 20
17.312
 30
0.0
 11
172.7500114999999
 21
17.624
 31
0.0
  0
LINE
  5
151
330
1E
100
AcDbEntity
  8
0
100
AcDbLine
 10
172.7500114999999
 20
17.312
 30
0.0
 11
172.7500114999999
 21
17.12
 31
0.0
  0
LINE
  5
152
330
1E
100
AcDbEntity
  8
0
100
AcDbLine
 10
172.7500114999999
 20
17.12
 30
0.0
 11
172.7500114999999
 21
17.312
 31
0.0
  0
LINE
  5
153
330
1E
100
AcDbEntity
  8
0
100
AcDbLine
 10
172.7500114999999
 20
17.12
 30
0.0
 11
172.7500114999999
 21
17.04799999999999
 31
0.0
  0
LINE
  5
154
330
1E
100
AcDbEntity
  8
0
100
AcDbLine
 10
172.7500114999999
 20
17.04799999999999
 30
0.0
 11
172.7500114999999
 21
17.12
 31
0.0
  0
LINE
  5
155
330
1E
100
AcDbEntity
  8
0
100
AcDbLine
 10
172.6220114999999
 20
21.0
 30
0.0
 11
172.7500114999999
 21
20.95199999999999
 31
0.0
  0
LINE
  5
156
330
1E
100
AcDbEntity
  8
0
100
AcDbLine
 10
160.7500115
 20
17.0
 30
0.0
 11
172.6220114999999
 21
17.0
 31
0.0
  0
LINE
  5
157
330
1E
100
AcDbEntity
  8
0
100
AcDbLine
 10
172.6220114999999
 20
17.0
 30
0.0
 11
172.7500114999999
 21
17.04799999999999
 31
0.0
  0
LINE
  5
158
330
1E
100
AcDbEntity
  8
0
100
AcDbLine
 10
154.7500115
 20
208.0
 30
0.0
 11
154.7500115
 21
50.5
 31
0.0
  0
LINE
  5
159
330
1E
100
AcDbEntity
  8
0
100
AcDbLine
 10
133.7500115
 20
10.0
 30
0.0
 11
133.7500115
 21
10.5
 31
0.0
  0
LINE
  5
15A
330
1E
100
AcDbEntity
  8
0
100
AcDbLine
 10
133.5500115
 20
9.199999999999999
 30
0.0
 11
133.7500115
 21
10.0
 31
0.0
  0
LINE
  5
15B
330
1E
100
AcDbEntity
  8
0
100
AcDbLine
 10
132.0500115
 20
7.4
 30
0.0
 11
133.0500115
 21
8.199999999999999
 31
0.0
  0
LINE
  5
15C
330
1E
100
AcDbEntity
  8
0
100
AcDbLine
 10
116.7500114999999
 20
-0.0000000000000032
 30
0.0
 11
118.2500115
 21
-0.0000000000000033
 31
0.0
  0
LINE
  5
161
330
1E
100
AcDbEntity
  8
0
100
AcDbLine
 10
173.7500115
 20
6.99999999999999
 30
0.0
 11
174.4500114999999
 21
6.69999999999999
 31
0.0
  0
ENDSEC
  0
SECTION
  2
OBJECTS
  0
DICTIONARY
  5
C
330
0
100
AcDbDictionary
281
     1
  3
ACAD_GROUP
350
D
  3
ACAD_LAYOUT
350
19
  3
ACAD_MLINESTYLE
350
16
  3
ACAD_PLOTSETTINGS
350
18
  3
ACAD_PLOTSTYLENAME
350
E
  3
AcDbVariableDictionary
350
162
  0
DICTIONARY
  5
D
102
{ACAD_REACTORS
330
C
102
}
330
C
100
AcDbDictionary
281
     1
  0
DICTIONARY
  5
19
102
{ACAD_REACTORS
330
C
102
}
330
C
100
AcDbDictionary
281
     1
  3
Layout1
350
1D
  3
Model
350
21
  0
DICTIONARY
  5
16
102
{ACAD_REACTORS
330
C
102
}
330
C
100
AcDbDictionary
281
     1
  3
Standard
350
17
  0
DICTIONARY
  5
18
102
{ACAD_REACTORS
330
C
102
}
330
C
100
AcDbDictionary
281
     1
  0
ACDBDICTIONARYWDFLT
  5
E
102
{ACAD_REACTORS
330
C
102
}
330
C
100
AcDbDictionary
281
     1
  3
Normal
350
F
100
AcDbDictionaryWithDefault
340
F
  0
DICTIONARY
  5
162
102
{ACAD_REACTORS
330
C
102
}
330
C
100
AcDbDictionary
281
     1
  3
DIMASSOC
350
163
  0
LAYOUT
  5
1D
102
{ACAD_REACTORS
330
19
102
}
330
19
100
AcDbPlotSettings
  1

  2
hp deskjet 980c series
  4

  6

 40
0.0
 41
0.0
 42
0.0
 43
0.0
 44
0.0
 45
0.0
 46
0.0
 47
0.0
 48
0.0
 49
0.0
140
0.0
141
0.0
142
1.0
143
1.0
 70
   688
 72
     0
 73
     0
 74
     5
  7

 75
    16
147
1.0
148
0.0
149
0.0
100
AcDbLayout
  1
Layout1
 70
     1
 71
     1
 10
0.0
 20
0.0
 11
12.0
 21
9.0
 12
0.0
 22
0.0
 32
0.0
 14
1.000000000000000E+20
 24
1.000000000000000E+20
 34
1.000000000000000E+20
 15
-1.000000000000000E+20
 25
-1.000000000000000E+20
 35
-1.000000000000000E+20
146
0.0
 13
0.0
 23
0.0
 33
0.0
 16
1.0
 26
0.0
 36
0.0
 17
0.0
 27
1.0
 37
0.0
 76
     0
330
1A
  0
LAYOUT
  5
21
102
{ACAD_REACTORS
330
19
102
}
330
19
100
AcDbPlotSettings
  1

  2
hp deskjet 980c series
  4

  6

 40
0.0
 41
0.0
 42
0.0
 43
0.0
 44
0.0
 45
0.0
 46
0.0
 47
0.0
 48
0.0
 49
0.0
140
0.0
141
0.0
142
1.0
143
1.0
 70
  1712
 72
     0
 73
     0
 74
     0
  7

 75
     0
147
1.0
148
0.0
149
0.0
100
AcDbLayout
  1
Model
 70
     1
 71
     0
 10
0.0
 20
0.0
 11
12.0
 21
9.0
 12
0.0
 22
0.0
 32
0.0
 14
0.0
 24
0.0
 34
0.0
 15
0.0
 25
0.0
 35
0.0
146
0.0
 13
0.0
 23
0.0
 33
0.0
 16
1.0
 26
0.0
 36
0.0
 17
0.0
 27
1.0
 37
0.0
 76
     0
330
1E
  0
MLINESTYLE
  5
17
102
{ACAD_REACTORS
330
16
102
}
330
16
100
AcDbMlineStyle
  2
STANDARD
 70
     0
  3

 62
   256
 51
90.0
 52
90.0
 71
     2
 49
0.5
 62
   256
  6
BYLAYER
 49
-0.5
 62
   256
  6
BYLAYER
  0
ACDBPLACEHOLDER
  5
F
102
{ACAD_REACTORS
330
E
102
}
330
E
  0
DICTIONARYVAR
  5
163
102
{ACAD_REACTORS
330
162
102
}
330
162
100
DictionaryVariables
280
     0
  1
1
  0
ENDSEC
  0
EOF
