  0
SECTION
  2
HEADER
  9
$ACADVER
  1
AC1015
  9
$ACADMAINTVER
 70
    13
  9
$DWGCODEPAGE
  3
ANSI_1252
  9
$INSBASE
 10
0.0
 20
0.0
 30
0.0
  9
$EXTMIN
 10
-0.143699999999999
 20
0.0849999999999968
 30
0.0
  9
$EXTMAX
 10
51.1437
 20
332.915
 30
0.0
  9
$LIMMIN
 10
0.0
 20
0.0
  9
$LIMMAX
 10
12.0
 20
9.0
  9
$ORTHOMODE
 70
     0
  9
$REGENMODE
 70
     1
  9
$FILLMODE
 70
     1
  9
$QTEXTMODE
 70
     0
  9
$MIRRTEXT
 70
     1
  9
$LTSCALE
 40
1.0
  9
$ATTMODE
 70
     1
  9
$TEXTSIZE
 40
0.2
  9
$TRACEWID
 40
0.05
  9
$TEXTSTYLE
  7
Standard
  9
$CLAYER
  8
0
  9
$CELTYPE
  6
Continuous
  9
$CECOLOR
 62
   256
  9
$CELTSCALE
 40
1.0
  9
$DISPSILH
 70
     0
  9
$DIMSCALE
 40
1.0
  9
$DIMASZ
 40
0.18
  9
$DIMEXO
 40
0.0625
  9
$DIMDLI
 40
0.38
  9
$DIMRND
 40
0.0
  9
$DIMDLE
 40
0.0
  9
$DIMEXE
 40
0.18
  9
$DIMTP
 40
0.0
  9
$DIMTM
 40
0.0
  9
$DIMTXT
 40
0.18
  9
$DIMCEN
 40
0.09
  9
$DIMTSZ
 40
0.0
  9
$DIMTOL
 70
     0
  9
$DIMLIM
 70
     0
  9
$DIMTIH
 70
     1
  9
$DIMTOH
 70
     1
  9
$DIMSE1
 70
     0
  9
$DIMSE2
 70
     0
  9
$DIMTAD
 70
     0
  9
$DIMZIN
 70
     0
  9
$DIMBLK
  1

  9
$DIMASO
 70
     1
  9
$DIMSHO
 70
     1
  9
$DIMPOST
  1

  9
$DIMAPOST
  1

  9
$DIMALT
 70
     0
  9
$DIMALTD
 70
     2
  9
$DIMALTF
 40
25.4
  9
$DIMLFAC
 40
1.0
  9
$DIMTOFL
 70
     0
  9
$DIMTVP
 40
0.0
  9
$DIMTIX
 70
     0
  9
$DIMSOXD
 70
     0
  9
$DIMSAH
 70
     0
  9
$DIMBLK1
  1

  9
$DIMBLK2
  1

  9
$DIMSTYLE
  2
Standard
  9
$DIMCLRD
 70
     0
  9
$DIMCLRE
 70
     0
  9
$DIMCLRT
 70
     0
  9
$DIMTFAC
 40
1.0
  9
$DIMGAP
 40
0.09
  9
$DIMJUST
 70
     0
  9
$DIMSD1
 70
     0
  9
$DIMSD2
 70
     0
  9
$DIMTOLJ
 70
     1
  9
$DIMTZIN
 70
     0
  9
$DIMALTZ
 70
     0
  9
$DIMALTTZ
 70
     0
  9
$DIMUPT
 70
     0
  9
$DIMDEC
 70
     4
  9
$DIMTDEC
 70
     4
  9
$DIMALTU
 70
     2
  9
$DIMALTTD
 70
     2
  9
$DIMTXSTY
  7
Standard
  9
$DIMAUNIT
 70
     0
  9
$DIMADEC
 70
     0
  9
$DIMALTRND
 40
0.0
  9
$DIMAZIN
 70
     0
  9
$DIMDSEP
 70
    46
  9
$DIMATFIT
 70
     3
  9
$DIMFRAC
 70
     0
  9
$DIMLDRBLK
  1

  9
$DIMLUNIT
 70
     2
  9
$DIMLWD
 70
    -2
  9
$DIMLWE
 70
    -2
  9
$DIMTMOVE
 70
     0
  9
$LUNITS
 70
     2
  9
$LUPREC
 70
     4
  9
$SKETCHINC
 40
0.1
  9
$FILLETRAD
 40
0.0
  9
$AUNITS
 70
     0
  9
$AUPREC
 70
     0
  9
$MENU
  1
.
  9
$ELEVATION
 40
0.0
  9
$PELEVATION
 40
0.0
  9
$THICKNESS
 40
0.0
  9
$LIMCHECK
 70
     0
  9
$CHAMFERA
 40
0.0
  9
$CHAMFERB
 40
0.0
  9
$CHAMFERC
 40
0.0
  9
$CHAMFERD
 40
0.0
  9
$SKPOLY
 70
     0
  9
$TDCREATE
 40
2454637.697426365
  9
$TDUCREATE
 40
2454637.614093032
  9
$TDUPDATE
 40
2454637.702483692
  9
$TDUUPDATE
 40
2454637.619150358
  9
$TDINDWG
 40
0.0050573264
  9
$TDUSRTIMER
 40
0.0050573264
  9
$USRTIMER
 70
     1
  9
$ANGBASE
 50
0.0
  9
$ANGDIR
 70
     0
  9
$PDMODE
 70
     0
  9
$PDSIZE
 40
0.0
  9
$PLINEWID
 40
0.0
  9
$SPLFRAME
 70
     0
  9
$SPLINETYPE
 70
     6
  9
$SPLINESEGS
 70
     8
  9
$HANDSEED
  5
150
  9
$SURFTAB1
 70
     6
  9
$SURFTAB2
 70
     6
  9
$SURFTYPE
 70
     6
  9
$SURFU
 70
     6
  9
$SURFV
 70
     6
  9
$UCSBASE
  2

  9
$UCSNAME
  2

  9
$UCSORG
 10
0.0
 20
0.0
 30
0.0
  9
$UCSXDIR
 10
1.0
 20
0.0
 30
0.0
  9
$UCSYDIR
 10
0.0
 20
1.0
 30
0.0
  9
$UCSORTHOREF
  2

  9
$UCSORTHOVIEW
 70
     1
  9
$UCSORGTOP
 10
0.0
 20
0.0
 30
0.0
  9
$UCSORGBOTTOM
 10
0.0
 20
0.0
 30
0.0
  9
$UCSORGLEFT
 10
0.0
 20
0.0
 30
0.0
  9
$UCSORGRIGHT
 10
0.0
 20
0.0
 30
0.0
  9
$UCSORGFRONT
 10
0.0
 20
0.0
 30
0.0
  9
$UCSORGBACK
 10
0.0
 20
0.0
 30
0.0
  9
$PUCSBASE
  2

  9
$PUCSNAME
  2

  9
$PUCSORG
 10
0.0
 20
0.0
 30
0.0
  9
$PUCSXDIR
 10
1.0
 20
0.0
 30
0.0
  9
$PUCSYDIR
 10
0.0
 20
1.0
 30
0.0
  9
$PUCSORTHOREF
  2

  9
$PUCSORTHOVIEW
 70
     0
  9
$PUCSORGTOP
 10
0.0
 20
0.0
 30
0.0
  9
$PUCSORGBOTTOM
 10
0.0
 20
0.0
 30
0.0
  9
$PUCSORGLEFT
 10
0.0
 20
0.0
 30
0.0
  9
$PUCSORGRIGHT
 10
0.0
 20
0.0
 30
0.0
  9
$PUCSORGFRONT
 10
0.0
 20
0.0
 30
0.0
  9
$PUCSORGBACK
 10
0.0
 20
0.0
 30
0.0
  9
$USERI1
 70
     0
  9
$USERI2
 70
     0
  9
$USERI3
 70
     0
  9
$USERI4
 70
     0
  9
$USERI5
 70
     0
  9
$USERR1
 40
0.0
  9
$USERR2
 40
0.0
  9
$USERR3
 40
0.0
  9
$USERR4
 40
0.0
  9
$USERR5
 40
0.0
  9
$WORLDVIEW
 70
     1
  9
$SHADEDGE
 70
     3
  9
$SHADEDIF
 70
    70
  9
$TILEMODE
 70
     1
  9
$MAXACTVP
 70
    64
  9
$PINSBASE
 10
0.0
 20
0.0
 30
0.0
  9
$PLIMCHECK
 70
     0
  9
$PEXTMIN
 10
1.000000000000000E+20
 20
1.000000000000000E+20
 30
1.000000000000000E+20
  9
$PEXTMAX
 10
-1.000000000000000E+20
 20
-1.000000000000000E+20
 30
-1.000000000000000E+20
  9
$PLIMMIN
 10
0.0
 20
0.0
  9
$PLIMMAX
 10
12.0
 20
9.0
  9
$UNITMODE
 70
     0
  9
$VISRETAIN
 70
     1
  9
$PLINEGEN
 70
     0
  9
$PSLTSCALE
 70
     1
  9
$TREEDEPTH
 70
  3020
  9
$CMLSTYLE
  2
Standard
  9
$CMLJUST
 70
     0
  9
$CMLSCALE
 40
1.0
  9
$PROXYGRAPHICS
 70
     1
  9
$MEASUREMENT
 70
     0
  9
$CELWEIGHT
370
    -1
  9
$ENDCAPS
280
     0
  9
$JOINSTYLE
280
     0
  9
$LWDISPLAY
290
     0
  9
$INSUNITS
 70
     0
  9
$HYPERLINKBASE
  1

  9
$STYLESHEET
  1

  9
$XEDIT
290
     1
  9
$CEPSNTYPE
380
     0
  9
$PSTYLEMODE
290
     1
  9
$FINGERPRINTGUID
  2
{E20CF5DC-DF1E-4A69-AB37-E4CFE7022B2B}
  9
$VERSIONGUID
  2
{DCADB52C-4171-4ACC-9545-AFE205DE85DD}
  9
$EXTNAMES
290
     1
  9
$PSVPSCALE
 40
0.0
  9
$OLESTARTUP
290
     0
  0
ENDSEC
  0
SECTION
  2
CLASSES
  0
CLASS
  1
ACDBDICTIONARYWDFLT
  2
AcDbDictionaryWithDefault
  3
AutoCAD 2000
 90
        0
280
     0
281
     0
  0
CLASS
  1
ACDBPLACEHOLDER
  2
AcDbPlaceHolder
  3
AutoCAD 2000
 90
        0
280
     0
281
     0
  0
CLASS
  1
LAYOUT
  2
AcDbLayout
  3
AutoCAD 2000
 90
        0
280
     0
281
     0
  0
CLASS
  1
DICTIONARYVAR
  2
AcDbDictionaryVar
  3
AutoCAD 2000
 90
        0
280
     0
281
     0
  0
ENDSEC
  0
SECTION
  2
TABLES
  0
TABLE
  2
VPORT
  5
8
330
0
100
AcDbSymbolTable
 70
     2
  0
VPORT
  5
14F
330
8
100
AcDbSymbolTableRecord
100
AcDbViewportTableRecord
  2
*Active
 70
     0
 10
0.0
 20
0.0
 11
1.0
 21
1.0
 12
25.5
 22
166.5
 13
0.0
 23
0.0
 14
1.0
 24
1.0
 15
0.0
 25
0.0
 16
0.0
 26
0.0
 36
1.0
 17
0.0
 27
0.0
 37
0.0
 40
335.3836828644501
 41
2.043533930857874
 42
50.0
 43
0.0
 44
0.0
 50
0.0
 51
0.0
 71
     0
 72
   100
 73
     1
 74
     3
 75
     0
 76
     0
 77
     0
 78
     0
281
     0
 65
     1
110
0.0
120
0.0
130
0.0
111
1.0
121
0.0
131
0.0
112
0.0
122
1.0
132
0.0
 79
     1
146
0.0
  0
ENDTAB
  0
TABLE
  2
LTYPE
  5
5
330
0
100
AcDbSymbolTable
 70
     1
  0
LTYPE
  5
13
330
5
100
AcDbSymbolTableRecord
100
AcDbLinetypeTableRecord
  2
ByBlock
 70
     0
  3

 72
    65
 73
     0
 40
0.0
  0
LTYPE
  5
14
330
5
100
AcDbSymbolTableRecord
100
AcDbLinetypeTableRecord
  2
ByLayer
 70
     0
  3

 72
    65
 73
     0
 40
0.0
  0
LTYPE
  5
15
330
5
100
AcDbSymbolTableRecord
100
AcDbLinetypeTableRecord
  2
Continuous
 70
     0
  3
Solid line
 72
    65
 73
     0
 40
0.0
  0
ENDTAB
  0
TABLE
  2
LAYER
  5
2
330
0
100
AcDbSymbolTable
 70
     1
  0
LAYER
  5
10
330
2
100
AcDbSymbolTableRecord
100
AcDbLayerTableRecord
  2
0
 70
     0
 62
     7
  6
Continuous
370
    -3
390
F
  0
ENDTAB
  0
TABLE
  2
STYLE
  5
3
330
0
100
AcDbSymbolTable
 70
     1
  0
STYLE
  5
11
330
3
100
AcDbSymbolTableRecord
100
AcDbTextStyleTableRecord
  2
Standard
 70
     0
 40
0.0
 41
1.0
 50
0.0
 71
     0
 42
0.2
  3
txt
  4

  0
ENDTAB
  0
TABLE
  2
VIEW
  5
6
330
0
100
AcDbSymbolTable
 70
     0
  0
ENDTAB
  0
TABLE
  2
UCS
  5
7
330
0
100
AcDbSymbolTable
 70
     0
  0
ENDTAB
  0
TABLE
  2
APPID
  5
9
330
0
100
AcDbSymbolTable
 70
     1
  0
APPID
  5
12
330
9
100
AcDbSymbolTableRecord
100
AcDbRegAppTableRecord
  2
ACAD
 70
     0
  0
ENDTAB
  0
TABLE
  2
DIMSTYLE
  5
A
330
0
100
AcDbSymbolTable
 70
     1
100
AcDbDimStyleTable
 71
     0
  0
DIMSTYLE
105
147
330
A
100
AcDbSymbolTableRecord
100
AcDbDimStyleTableRecord
  2
Standard
 70
     0
340
11
  0
ENDTAB
  0
TABLE
  2
BLOCK_RECORD
  5
1
330
0
100
AcDbSymbolTable
 70
     0
  0
BLOCK_RECORD
  5
1E
330
1
100
AcDbSymbolTableRecord
100
AcDbBlockTableRecord
  2
*Model_Space
340
21
  0
BLOCK_RECORD
  5
1A
330
1
100
AcDbSymbolTableRecord
100
AcDbBlockTableRecord
  2
*Paper_Space
340
1D
  0
ENDTAB
  0
ENDSEC
  0
SECTION
  2
BLOCKS
  0
BLOCK
  5
1F
330
1E
100
AcDbEntity
  8
0
100
AcDbBlockBegin
  2
*Model_Space
 70
     0
 10
0.0
 20
0.0
 30
0.0
  3
*Model_Space
  1

  0
ENDBLK
  5
20
330
1E
100
AcDbEntity
  8
0
100
AcDbBlockEnd
  0
BLOCK
  5
1B
330
1A
100
AcDbEntity
 67
     1
  8
0
100
AcDbBlockBegin
  2
*Paper_Space
 70
     0
 10
0.0
 20
0.0
 30
0.0
  3
*Paper_Space
  1

  0
ENDBLK
  5
1C
330
1A
100
AcDbEntity
 67
     1
  8
0
100
AcDbBlockEnd
  0
ENDSEC
  0
SECTION
  2
ENTITIES
  0
LINE
  5
22
330
1E
100
AcDbEntity
  8
0
100
AcDbLine
 10
0.0202340000000014
 20
0.084999999999997
 30
0.0
 11
0.5120380000000021
 21
0.0849999999999969
 31
0.0
  0
LINE
  5
23
330
1E
100
AcDbEntity
  8
0
100
AcDbLine
 10
0.5120380000000021
 20
0.0849999999999969
 30
0.0
 11
1.331709999999999
 21
0.0849999999999969
 31
0.0
  0
LINE
  5
24
330
1E
100
AcDbEntity
  8
0
100
AcDbLine
 10
0.0202340000000013
 20
0.084999999999997
 30
0.0
 11
0.5120380000000021
 21
0.0849999999999969
 31
0.0
  0
LINE
  5
25
330
1E
100
AcDbEntity
  8
0
100
AcDbLine
 10
-0.143699999999999
 20
0.0849999999999971
 30
0.0
 11
0.0202340000000014
 21
0.084999999999997
 31
0.0
  0
LINE
  5
26
330
1E
100
AcDbEntity
  8
0
100
AcDbLine
 10
-0.143699999999999
 20
0.0849999999999971
 30
0.0
 11
0.0202340000000014
 21
0.084999999999997
 31
0.0
  0
LINE
  5
27
330
1E
100
AcDbEntity
  8
0
100
AcDbLine
 10
1.331709999999999
 20
0.0849999999999969
 30
0.0
 11
2.31532
 21
0.0849999999999968
 31
0.0
  0
LINE
  5
28
330
1E
100
AcDbEntity
  8
0
100
AcDbLine
 10
0.0202340000000013
 20
0.0849999999999996
 30
0.0
 11
0.5120380000000021
 21
0.0849999999999997
 31
0.0
  0
LINE
  5
29
330
1E
100
AcDbEntity
  8
0
100
AcDbLine
 10
0.5120380000000021
 20
0.0849999999999997
 30
0.0
 11
1.331709999999999
 21
0.0849999999999998
 31
0.0
  0
LINE
  5
2A
330
1E
100
AcDbEntity
  8
0
100
AcDbLine
 10
0.0202340000000014
 20
0.0849999999999996
 30
0.0
 11
0.5120380000000021
 21
0.0849999999999997
 31
0.0
  0
LINE
  5
2B
330
1E
100
AcDbEntity
  8
0
100
AcDbLine
 10
-0.143699999999999
 20
0.0849999999999995
 30
0.0
 11
-0.143699999999999
 21
5.227859999999999
 31
0.0
  0
LINE
  5
2C
330
1E
100
AcDbEntity
  8
0
100
AcDbLine
 10
-0.143699999999999
 20
0.0849999999999995
 30
0.0
 11
0.0202340000000014
 21
0.0849999999999996
 31
0.0
  0
LINE
  5
2D
330
1E
100
AcDbEntity
  8
0
100
AcDbLine
 10
-0.143699999999999
 20
0.0849999999999995
 30
0.0
 11
0.0202340000000014
 21
0.0849999999999996
 31
0.0
  0
LINE
  5
2E
330
1E
100
AcDbEntity
  8
0
100
AcDbLine
 10
2.31532
 20
0.0849999999999968
 30
0.0
 11
3.544819999999999
 21
0.0849999999999968
 31
0.0
  0
LINE
  5
2F
330
1E
100
AcDbEntity
  8
0
100
AcDbLine
 10
3.544819999999999
 20
0.0849999999999968
 30
0.0
 11
4.774329999999999
 21
0.0849999999999968
 31
0.0
  0
LINE
  5
30
330
1E
100
AcDbEntity
  8
0
100
AcDbLine
 10
1.331709999999999
 20
0.0849999999999998
 30
0.0
 11
2.31532
 21
0.0849999999999998
 31
0.0
  0
LINE
  5
31
330
1E
100
AcDbEntity
  8
0
100
AcDbLine
 10
2.31532
 20
0.0849999999999998
 30
0.0
 11
3.544819999999999
 21
0.0849999999999998
 31
0.0
  0
LINE
  5
32
330
1E
100
AcDbEntity
  8
0
100
AcDbLine
 10
4.774329999999999
 20
0.0849999999999968
 30
0.0
 11
24.8563
 21
0.0849999999999968
 31
0.0
  0
LINE
  5
33
330
1E
100
AcDbEntity
  8
0
100
AcDbLine
 10
4.774329999999999
 20
0.0849999999999968
 30
0.0
 11
24.8563
 21
0.0849999999999968
 31
0.0
  0
LINE
  5
34
330
1E
100
AcDbEntity
  8
0
100
AcDbLine
 10
4.774329999999999
 20
0.0849999999999998
 30
0.0
 11
24.8563
 21
0.0849999999999998
 31
0.0
  0
LINE
  5
35
330
1E
100
AcDbEntity
  8
0
100
AcDbLine
 10
3.544819999999999
 20
0.0849999999999998
 30
0.0
 11
4.774329999999999
 21
0.0849999999999998
 31
0.0
  0
LINE
  5
36
330
1E
100
AcDbEntity
  8
0
100
AcDbLine
 10
0.102202000000001
 20
5.82786
 30
0.0
 11
0.6759720000000011
 21
6.084999999999999
 31
0.0
  0
LINE
  5
3A
330
1E
100
AcDbEntity
  8
0
100
AcDbLine
 10
0.102202000000001
 20
5.82786
 30
0.0
 11
0.6759720000000011
 21
6.084999999999999
 31
0.0
  0
LINE
  5
3B
330
1E
100
AcDbEntity
  8
0
100
AcDbLine
 10
-0.143699999999999
 20
5.227859999999999
 30
0.0
 11
-0.143699999999999
 21
0.0849999999999995
 31
0.0
  0
LINE
  5
3C
330
1E
100
AcDbEntity
  8
0
100
AcDbLine
 10
-0.143699999999999
 20
5.227859999999999
 30
0.0
 11
0.102202000000001
 21
5.82786
 31
0.0
  0
LINE
  5
42
330
1E
100
AcDbEntity
  8
0
100
AcDbLine
 10
4.774329999999999
 20
0.0849999999999998
 30
0.0
 11
24.8563
 21
0.0849999999999998
 31
0.0
  0
LINE
  5
43
330
1E
100
AcDbEntity
  8
0
100
AcDbLine
 10
24.8563
 20
0.0849999999999968
 30
0.0
 11
44.93829999999999
 21
0.0849999999999968
 31
0.0
  0
LINE
  5
44
330
1E
100
AcDbEntity
  8
0
100
AcDbLine
 10
1.24974
 20
6.084999999999999
 30
0.0
 11
1.905479999999999
 21
6.084999999999999
 31
0.0
  0
LINE
  5
45
330
1E
100
AcDbEntity
  8
0
100
AcDbLine
 10
0.839907000000001
 20
6.084999999999999
 30
0.0
 11
1.24974
 21
6.084999999999999
 31
0.0
  0
LINE
  5
46
330
1E
100
AcDbEntity
  8
0
100
AcDbLine
 10
0.6759720000000011
 20
6.084999999999999
 30
0.0
 11
0.839907000000001
 21
6.084999999999999
 31
0.0
  0
LINE
  5
47
330
1E
100
AcDbEntity
  8
0
100
AcDbLine
 10
1.905479999999999
 20
6.084999999999999
 30
0.0
 11
2.72515
 21
6.084999999999999
 31
0.0
  0
LINE
  5
48
330
1E
100
AcDbEntity
  8
0
100
AcDbLine
 10
2.72515
 20
6.084999999999999
 30
0.0
 11
3.708759999999999
 21
6.084999999999999
 31
0.0
  0
LINE
  5
49
330
1E
100
AcDbEntity
  8
0
100
AcDbLine
 10
3.708759999999999
 20
6.084999999999999
 30
0.0
 11
4.774329999999999
 21
6.084999999999999
 31
0.0
  0
LINE
  5
4A
330
1E
100
AcDbEntity
  8
0
100
AcDbLine
 10
5.289633333333339
 20
6.084999999999999
 30
0.0
 11
5.7563
 21
6.184999999999999
 31
0.0
  0
LINE
  5
4B
330
1E
100
AcDbEntity
  8
0
100
AcDbLine
 10
5.289633333333339
 20
6.084999999999999
 30
0.0
 11
5.7563
 21
6.184999999999999
 31
0.0
  0
LINE
  5
51
330
1E
100
AcDbEntity
  8
0
100
AcDbLine
 10
5.7563
 20
6.184999999999999
 30
0.0
 11
7.5563
 21
8.685
 31
0.0
  0
LINE
  5
53
330
1E
100
AcDbEntity
  8
0
100
AcDbLine
 10
4.774329999999999
 20
6.084999999999999
 30
0.0
 11
24.8563
 21
6.084999999999999
 31
0.0
  0
LINE
  5
54
330
1E
100
AcDbEntity
  8
0
100
AcDbLine
 10
4.774329999999999
 20
6.084999999999999
 30
0.0
 11
24.8563
 21
6.084999999999999
 31
0.0
  0
LINE
  5
55
330
1E
100
AcDbEntity
  8
0
100
AcDbLine
 10
7.5563
 20
8.685
 30
0.0
 11
7.8563
 21
10.885
 31
0.0
  0
LINE
  5
56
330
1E
100
AcDbEntity
  8
0
100
AcDbLine
 10
7.8563
 20
10.885
 30
0.0
 11
7.8563
 21
238.085
 31
0.0
  0
LINE
  5
57
330
1E
100
AcDbEntity
  8
0
100
AcDbLine
 10
7.8563
 20
238.085
 30
0.0
 11
7.8563
 21
10.885
 31
0.0
  0
LINE
  5
58
330
1E
100
AcDbEntity
  8
0
100
AcDbLine
 10
7.8563
 20
238.085
 30
0.0
 11
7.8563
 21
274.5849999999999
 31
0.0
  0
LINE
  5
5A
330
1E
100
AcDbEntity
  8
0
100
AcDbLine
 10
24.8563
 20
6.084999999999999
 30
0.0
 11
46.0038
 21
6.084999999999999
 31
0.0
  0
LINE
  5
5E
330
1E
100
AcDbEntity
  8
0
100
AcDbLine
 10
24.8563
 20
0.0849999999999998
 30
0.0
 11
44.93829999999999
 21
0.0849999999999998
 31
0.0
  0
LINE
  5
5F
330
1E
100
AcDbEntity
  8
0
100
AcDbLine
 10
21.88489999999999
 20
247.244
 30
0.0
 11
24.8563
 21
247.126
 31
0.0
  0
LINE
  5
60
330
1E
100
AcDbEntity
  8
0
100
AcDbLine
 10
14.9134
 20
249.394
 30
0.0
 11
15.942
 21
248.746
 31
0.0
  0
LINE
  5
61
330
1E
100
AcDbEntity
  8
0
100
AcDbLine
 10
13.8849
 20
249.3059999999999
 30
0.0
 11
14.9134
 21
248.599
 31
0.0
  0
LINE
  5
62
330
1E
100
AcDbEntity
  8
0
100
AcDbLine
 10
15.942
 20
248.746
 30
0.0
 11
17.542
 21
248.187
 31
0.0
  0
LINE
  5
63
330
1E
100
AcDbEntity
  8
0
100
AcDbLine
 10
17.542
 20
248.187
 30
0.0
 11
19.7134
 21
247.774
 31
0.0
  0
LINE
  5
64
330
1E
100
AcDbEntity
  8
0
100
AcDbLine
 10
14.9134
 20
248.599
 30
0.0
 11
16.742
 21
247.981
 31
0.0
  0
LINE
  5
65
330
1E
100
AcDbEntity
  8
0
100
AcDbLine
 10
16.742
 20
247.981
 30
0.0
 11
19.142
 21
247.509
 31
0.0
  0
LINE
  5
66
330
1E
100
AcDbEntity
  8
0
100
AcDbLine
 10
19.7134
 20
247.774
 30
0.0
 11
22.2277
 21
247.509
 31
0.0
  0
LINE
  5
67
330
1E
100
AcDbEntity
  8
0
100
AcDbLine
 10
22.2277
 20
247.509
 30
0.0
 11
24.8563
 21
247.4209999999999
 31
0.0
  0
LINE
  5
68
330
1E
100
AcDbEntity
  8
0
100
AcDbLine
 10
19.142
 20
247.509
 30
0.0
 11
21.88489999999999
 21
247.244
 31
0.0
  0
LINE
  5
69
330
1E
100
AcDbEntity
  8
0
100
AcDbLine
 10
22.45629999999999
 20
249.754
 30
0.0
 11
24.8563
 21
249.6659999999999
 31
0.0
  0
LINE
  5
6A
330
1E
100
AcDbEntity
  8
0
100
AcDbLine
 10
13.31339999999999
 20
251.354
 30
0.0
 11
14.4563
 21
252.0909999999999
 31
0.0
  0
LINE
  5
6B
330
1E
100
AcDbEntity
  8
0
100
AcDbLine
 10
20.2849
 20
249.99
 30
0.0
 11
22.45629999999999
 21
249.754
 31
0.0
  0
LINE
  5
6C
330
1E
100
AcDbEntity
  8
0
100
AcDbLine
 10
14.9134
 20
250.749
 30
0.0
 11
15.942
 21
251.397
 31
0.0
  0
LINE
  5
6D
330
1E
100
AcDbEntity
  8
0
100
AcDbLine
 10
13.8849
 20
250.837
 30
0.0
 11
14.9134
 21
251.544
 31
0.0
  0
LINE
  5
6E
330
1E
100
AcDbEntity
  8
0
100
AcDbLine
 10
15.942
 20
251.397
 30
0.0
 11
17.542
 21
251.9569999999999
 31
0.0
  0
LINE
  5
6F
330
1E
100
AcDbEntity
  8
0
100
AcDbLine
 10
14.9134
 20
251.544
 30
0.0
 11
16.742
 21
252.163
 31
0.0
  0
LINE
  5
70
330
1E
100
AcDbEntity
  8
0
100
AcDbLine
 10
14.4563
 20
252.0909999999999
 30
0.0
 11
16.3992
 21
252.739
 31
0.0
  0
LINE
  5
71
330
1E
100
AcDbEntity
  8
0
100
AcDbLine
 10
17.542
 20
251.9569999999999
 30
0.0
 11
19.7134
 21
252.369
 31
0.0
  0
LINE
  5
72
330
1E
100
AcDbEntity
  8
0
100
AcDbLine
 10
16.742
 20
252.163
 30
0.0
 11
19.142
 21
252.634
 31
0.0
  0
LINE
  5
73
330
1E
100
AcDbEntity
  8
0
100
AcDbLine
 10
16.0563
 20
251.4029999999999
 30
0.0
 11
16.9706
 21
250.844
 31
0.0
  0
LINE
  5
74
330
1E
100
AcDbEntity
  8
0
100
AcDbLine
 10
16.9706
 20
250.844
 30
0.0
 11
18.45629999999999
 21
250.373
 31
0.0
  0
LINE
  5
75
330
1E
100
AcDbEntity
  8
0
100
AcDbLine
 10
19.7134
 20
252.369
 30
0.0
 11
22.2277
 21
252.634
 31
0.0
  0
LINE
  5
76
330
1E
100
AcDbEntity
  8
0
100
AcDbLine
 10
22.2277
 20
252.634
 30
0.0
 11
24.8563
 21
252.722
 31
0.0
  0
LINE
  5
77
330
1E
100
AcDbEntity
  8
0
100
AcDbLine
 10
19.142
 20
252.634
 30
0.0
 11
21.88489999999999
 21
252.8989999999999
 31
0.0
  0
LINE
  5
78
330
1E
100
AcDbEntity
  8
0
100
AcDbLine
 10
18.45629999999999
 20
250.373
 30
0.0
 11
20.2849
 21
249.99
 31
0.0
  0
LINE
  5
79
330
1E
100
AcDbEntity
  8
0
100
AcDbLine
 10
14.5706
 20
250.072
 30
0.0
 11
14.9134
 21
249.394
 31
0.0
  0
LINE
  5
7A
330
1E
100
AcDbEntity
  8
0
100
AcDbLine
 10
14.5706
 20
250.072
 30
0.0
 11
14.9134
 21
250.749
 31
0.0
  0
LINE
  5
7B
330
1E
100
AcDbEntity
  8
0
100
AcDbLine
 10
13.4277
 20
250.072
 30
0.0
 11
13.8849
 21
249.3059999999999
 31
0.0
  0
LINE
  5
7C
330
1E
100
AcDbEntity
  8
0
100
AcDbLine
 10
13.4277
 20
250.072
 30
0.0
 11
13.8849
 21
250.837
 31
0.0
  0
LINE
  5
7D
330
1E
100
AcDbEntity
  8
0
100
AcDbLine
 10
13.31339999999999
 20
249.764
 30
0.0
 11
13.8849
 21
249.3059999999999
 31
0.0
  0
LINE
  5
7E
330
1E
100
AcDbEntity
  8
0
100
AcDbLine
 10
12.8563
 20
250.559
 30
0.0
 11
13.31339999999999
 21
249.764
 31
0.0
  0
LINE
  5
7F
330
1E
100
AcDbEntity
  8
0
100
AcDbLine
 10
12.8563
 20
250.559
 30
0.0
 11
12.8563
 21
258.3849999999999
 31
0.0
  0
LINE
  5
80
330
1E
100
AcDbEntity
  8
0
100
AcDbLine
 10
12.8563
 20
250.559
 30
0.0
 11
13.31339999999999
 21
251.354
 31
0.0
  0
LINE
  5
81
330
1E
100
AcDbEntity
  8
0
100
AcDbLine
 10
16.3992
 20
252.739
 30
0.0
 11
18.91339999999999
 21
253.2389999999999
 31
0.0
  0
LINE
  5
82
330
1E
100
AcDbEntity
  8
0
100
AcDbLine
 10
18.91339999999999
 20
253.2389999999999
 30
0.0
 11
21.7706
 21
253.534
 31
0.0
  0
LINE
  5
83
330
1E
100
AcDbEntity
  8
0
100
AcDbLine
 10
21.88489999999999
 20
252.8989999999999
 30
0.0
 11
24.8563
 21
253.017
 31
0.0
  0
LINE
  5
84
330
1E
100
AcDbEntity
  8
0
100
AcDbLine
 10
21.7706
 20
253.534
 30
0.0
 11
24.8563
 21
253.652
 31
0.0
  0
LINE
  5
85
330
1E
100
AcDbEntity
  8
0
100
AcDbLine
 10
24.8563
 20
252.722
 30
0.0
 11
27.4849
 21
252.634
 31
0.0
  0
LINE
  5
86
330
1E
100
AcDbEntity
  8
0
100
AcDbLine
 10
24.8563
 20
253.017
 30
0.0
 11
27.8277
 21
252.8989999999999
 31
0.0
  0
LINE
  5
87
330
1E
100
AcDbEntity
  8
0
100
AcDbLine
 10
9.4563
 20
274.5849999999999
 30
0.0
 11
12.8563
 21
274.5849999999999
 31
0.0
  0
LINE
  5
88
330
1E
100
AcDbEntity
  8
0
100
AcDbLine
 10
8.856299999999999
 20
275.0849999999999
 30
0.0
 11
8.856299999999999
 21
276.085
 31
0.0
  0
LINE
  5
89
330
1E
100
AcDbEntity
  8
0
100
AcDbLine
 10
7.8563
 20
274.5849999999999
 30
0.0
 11
8.356299999999999
 21
275.0849999999999
 31
0.0
  0
LINE
  5
8A
330
1E
100
AcDbEntity
  8
0
100
AcDbLine
 10
7.8563
 20
274.5849999999999
 30
0.0
 11
9.4563
 21
274.5849999999999
 31
0.0
  0
LINE
  5
8B
330
1E
100
AcDbEntity
  8
0
100
AcDbLine
 10
7.8563
 20
274.5849999999999
 30
0.0
 11
7.8563
 21
238.085
 31
0.0
  0
LINE
  5
8C
330
1E
100
AcDbEntity
  8
0
100
AcDbLine
 10
12.6563
 20
262.485
 30
0.0
 11
12.8563
 21
258.3849999999999
 31
0.0
  0
LINE
  5
8D
330
1E
100
AcDbEntity
  8
0
100
AcDbLine
 10
12.4563
 20
265.285
 30
0.0
 11
12.6563
 21
262.485
 31
0.0
  0
LINE
  5
8E
330
1E
100
AcDbEntity
  8
0
100
AcDbLine
 10
12.25629999999999
 20
266.8849999999999
 30
0.0
 11
12.4563
 21
265.285
 31
0.0
  0
LINE
  5
8F
330
1E
100
AcDbEntity
  8
0
100
AcDbLine
 10
12.8563
 20
274.5849999999999
 30
0.0
 11
13.2563
 21
274.5849999999999
 31
0.0
  0
LINE
  5
90
330
1E
100
AcDbEntity
  8
0
100
AcDbLine
 10
12.15629999999999
 20
267.785
 30
0.0
 11
12.25629999999999
 21
266.8849999999999
 31
0.0
  0
LINE
  5
91
330
1E
100
AcDbEntity
  8
0
100
AcDbLine
 10
12.8563
 20
258.3849999999999
 30
0.0
 11
12.8563
 21
250.559
 31
0.0
  0
LINE
  5
92
330
1E
100
AcDbEntity
  8
0
100
AcDbLine
 10
13.2563
 20
274.5849999999999
 30
0.0
 11
35.2563
 21
274.5849999999999
 31
0.0
  0
LINE
  5
93
330
1E
100
AcDbEntity
  8
0
100
AcDbLine
 10
9.9563
 20
275.0849999999999
 30
0.0
 11
13.3563
 21
275.0849999999999
 31
0.0
  0
LINE
  5
94
330
1E
100
AcDbEntity
  8
0
100
AcDbLine
 10
21.8563
 20
275.0849999999999
 30
0.0
 11
24.8563
 21
275.0849999999999
 31
0.0
  0
LINE
  5
95
330
1E
100
AcDbEntity
  8
0
100
AcDbLine
 10
19.0563
 20
275.0849999999999
 30
0.0
 11
21.8563
 21
275.0849999999999
 31
0.0
  0
LINE
  5
96
330
1E
100
AcDbEntity
  8
0
100
AcDbLine
 10
16.6563
 20
275.0849999999999
 30
0.0
 11
19.0563
 21
275.0849999999999
 31
0.0
  0
LINE
  5
97
330
1E
100
AcDbEntity
  8
0
100
AcDbLine
 10
14.8563
 20
275.0849999999999
 30
0.0
 11
16.6563
 21
275.0849999999999
 31
0.0
  0
LINE
  5
98
330
1E
100
AcDbEntity
  8
0
100
AcDbLine
 10
13.7563
 20
275.0849999999999
 30
0.0
 11
14.8563
 21
275.0849999999999
 31
0.0
  0
LINE
  5
99
330
1E
100
AcDbEntity
  8
0
100
AcDbLine
 10
13.3563
 20
275.0849999999999
 30
0.0
 11
13.7563
 21
275.0849999999999
 31
0.0
  0
LINE
  5
9A
330
1E
100
AcDbEntity
  8
0
100
AcDbLine
 10
8.356299999999999
 20
275.0849999999999
 30
0.0
 11
9.9563
 21
275.0849999999999
 31
0.0
  0
LINE
  5
9B
330
1E
100
AcDbEntity
  8
0
100
AcDbLine
 10
24.8563
 20
275.0849999999999
 30
0.0
 11
27.8563
 21
275.0849999999999
 31
0.0
  0
LINE
  5
9C
330
1E
100
AcDbEntity
  8
0
100
AcDbLine
 10
24.8563
 20
253.652
 30
0.0
 11
27.942
 21
253.534
 31
0.0
  0
LINE
  5
9D
330
1E
100
AcDbEntity
  8
0
100
AcDbLine
 10
27.4849
 20
252.634
 30
0.0
 11
29.99919999999999
 21
252.369
 31
0.0
  0
LINE
  5
9E
330
1E
100
AcDbEntity
  8
0
100
AcDbLine
 10
27.2563
 20
249.754
 30
0.0
 11
29.4277
 21
249.99
 31
0.0
  0
LINE
  5
9F
330
1E
100
AcDbEntity
  8
0
100
AcDbLine
 10
24.8563
 20
249.6659999999999
 30
0.0
 11
27.2563
 21
249.754
 31
0.0
  0
LINE
  5
A0
330
1E
100
AcDbEntity
  8
0
100
AcDbLine
 10
27.8277
 20
252.8989999999999
 30
0.0
 11
30.57059999999999
 21
252.634
 31
0.0
  0
LINE
  5
A1
330
1E
100
AcDbEntity
  8
0
100
AcDbLine
 10
27.4849
 20
247.509
 30
0.0
 11
29.99919999999999
 21
247.774
 31
0.0
  0
LINE
  5
A2
330
1E
100
AcDbEntity
  8
0
100
AcDbLine
 10
24.8563
 20
247.4209999999999
 30
0.0
 11
27.4849
 21
247.509
 31
0.0
  0
LINE
  5
A3
330
1E
100
AcDbEntity
  8
0
100
AcDbLine
 10
29.99919999999999
 20
252.369
 30
0.0
 11
32.1706
 21
251.9569999999999
 31
0.0
  0
LINE
  5
A4
330
1E
100
AcDbEntity
  8
0
100
AcDbLine
 10
30.57059999999999
 20
252.634
 30
0.0
 11
32.9706
 21
252.163
 31
0.0
  0
LINE
  5
A5
330
1E
100
AcDbEntity
  8
0
100
AcDbLine
 10
30.79919999999999
 20
253.2389999999999
 30
0.0
 11
33.3134
 21
252.739
 31
0.0
  0
LINE
  5
A6
330
1E
100
AcDbEntity
  8
0
100
AcDbLine
 10
27.8563
 20
275.0849999999999
 30
0.0
 11
30.6563
 21
275.0849999999999
 31
0.0
  0
LINE
  5
A7
330
1E
100
AcDbEntity
  8
0
100
AcDbLine
 10
30.6563
 20
275.0849999999999
 30
0.0
 11
33.0563
 21
275.0849999999999
 31
0.0
  0
LINE
  5
A8
330
1E
100
AcDbEntity
  8
0
100
AcDbLine
 10
27.942
 20
253.534
 30
0.0
 11
30.79919999999999
 21
253.2389999999999
 31
0.0
  0
LINE
  5
A9
330
1E
100
AcDbEntity
  8
0
100
AcDbLine
 10
32.1706
 20
251.9569999999999
 30
0.0
 11
33.7706
 21
251.397
 31
0.0
  0
LINE
  5
AA
330
1E
100
AcDbEntity
  8
0
100
AcDbLine
 10
31.2563
 20
250.373
 30
0.0
 11
32.74199999999999
 21
250.844
 31
0.0
  0
LINE
  5
AB
330
1E
100
AcDbEntity
  8
0
100
AcDbLine
 10
29.4277
 20
249.99
 30
0.0
 11
31.2563
 21
250.373
 31
0.0
  0
LINE
  5
AC
330
1E
100
AcDbEntity
  8
0
100
AcDbLine
 10
32.9706
 20
252.163
 30
0.0
 11
34.79919999999999
 21
251.544
 31
0.0
  0
LINE
  5
AD
330
1E
100
AcDbEntity
  8
0
100
AcDbLine
 10
32.74199999999999
 20
250.844
 30
0.0
 11
33.6563
 21
251.4029999999999
 31
0.0
  0
LINE
  5
AE
330
1E
100
AcDbEntity
  8
0
100
AcDbLine
 10
32.1706
 20
248.187
 30
0.0
 11
33.7706
 21
248.746
 31
0.0
  0
LINE
  5
AF
330
1E
100
AcDbEntity
  8
0
100
AcDbLine
 10
29.99919999999999
 20
247.774
 30
0.0
 11
32.1706
 21
248.187
 31
0.0
  0
LINE
  5
B0
330
1E
100
AcDbEntity
  8
0
100
AcDbLine
 10
34.79919999999999
 20
250.749
 30
0.0
 11
35.14199999999999
 21
250.072
 31
0.0
  0
LINE
  5
B1
330
1E
100
AcDbEntity
  8
0
100
AcDbLine
 10
33.7706
 20
251.397
 30
0.0
 11
34.79919999999999
 21
250.749
 31
0.0
  0
LINE
  5
B2
330
1E
100
AcDbEntity
  8
0
100
AcDbLine
 10
33.0563
 20
275.0849999999999
 30
0.0
 11
34.8563
 21
275.0849999999999
 31
0.0
  0
LINE
  5
B3
330
1E
100
AcDbEntity
  8
0
100
AcDbLine
 10
34.79919999999999
 20
251.544
 30
0.0
 11
35.8277
 21
250.837
 31
0.0
  0
LINE
  5
B4
330
1E
100
AcDbEntity
  8
0
100
AcDbLine
 10
33.3134
 20
252.739
 30
0.0
 11
35.2563
 21
252.0909999999999
 31
0.0
  0
LINE
  5
B5
330
1E
100
AcDbEntity
  8
0
100
AcDbLine
 10
35.8277
 20
250.837
 30
0.0
 11
36.2849
 21
250.072
 31
0.0
  0
LINE
  5
B6
330
1E
100
AcDbEntity
  8
0
100
AcDbLine
 10
34.8563
 20
275.0849999999999
 30
0.0
 11
35.95629999999999
 21
275.0849999999999
 31
0.0
  0
LINE
  5
B7
330
1E
100
AcDbEntity
  8
0
100
AcDbLine
 10
35.2563
 20
274.5849999999999
 30
0.0
 11
36.4563
 21
274.5849999999999
 31
0.0
  0
LINE
  5
B8
330
1E
100
AcDbEntity
  8
0
100
AcDbLine
 10
35.2563
 20
252.0909999999999
 30
0.0
 11
36.3992
 21
251.354
 31
0.0
  0
LINE
  5
B9
330
1E
100
AcDbEntity
  8
0
100
AcDbLine
 10
34.79919999999999
 20
249.394
 30
0.0
 11
35.14199999999999
 21
250.072
 31
0.0
  0
LINE
  5
BA
330
1E
100
AcDbEntity
  8
0
100
AcDbLine
 10
33.7706
 20
248.746
 30
0.0
 11
34.79919999999999
 21
249.394
 31
0.0
  0
LINE
  5
BB
330
1E
100
AcDbEntity
  8
0
100
AcDbLine
 10
35.95629999999999
 20
275.0849999999999
 30
0.0
 11
36.35629999999999
 21
275.0849999999999
 31
0.0
  0
LINE
  5
BC
330
1E
100
AcDbEntity
  8
0
100
AcDbLine
 10
36.3992
 20
251.354
 30
0.0
 11
36.85629999999999
 21
250.559
 31
0.0
  0
LINE
  5
BD
330
1E
100
AcDbEntity
  8
0
100
AcDbLine
 10
35.8277
 20
249.3059999999999
 30
0.0
 11
36.3992
 21
249.764
 31
0.0
  0
LINE
  5
BE
330
1E
100
AcDbEntity
  8
0
100
AcDbLine
 10
35.8277
 20
249.3059999999999
 30
0.0
 11
36.2849
 21
250.072
 31
0.0
  0
LINE
  5
BF
330
1E
100
AcDbEntity
  8
0
100
AcDbLine
 10
34.79919999999999
 20
248.599
 30
0.0
 11
35.8277
 21
249.3059999999999
 31
0.0
  0
LINE
  5
C0
330
1E
100
AcDbEntity
  8
0
100
AcDbLine
 10
32.9706
 20
247.981
 30
0.0
 11
34.79919999999999
 21
248.599
 31
0.0
  0
LINE
  5
C1
330
1E
100
AcDbEntity
  8
0
100
AcDbLine
 10
30.57059999999999
 20
247.509
 30
0.0
 11
32.9706
 21
247.981
 31
0.0
  0
LINE
  5
C2
330
1E
100
AcDbEntity
  8
0
100
AcDbLine
 10
27.8277
 20
247.244
 30
0.0
 11
30.57059999999999
 21
247.509
 31
0.0
  0
LINE
  5
C3
330
1E
100
AcDbEntity
  8
0
100
AcDbLine
 10
24.8563
 20
247.126
 30
0.0
 11
27.8277
 21
247.244
 31
0.0
  0
LINE
  5
C4
330
1E
100
AcDbEntity
  8
0
100
AcDbLine
 10
36.85629999999999
 20
250.559
 30
0.0
 11
36.85629999999999
 21
258.3849999999999
 31
0.0
  0
LINE
  5
C5
330
1E
100
AcDbEntity
  8
0
100
AcDbLine
 10
36.4563
 20
274.5849999999999
 30
0.0
 11
36.85629999999999
 21
274.5849999999999
 31
0.0
  0
LINE
  5
C6
330
1E
100
AcDbEntity
  8
0
100
AcDbLine
 10
36.85629999999999
 20
258.3849999999999
 30
0.0
 11
36.85629999999999
 21
250.559
 31
0.0
  0
LINE
  5
C7
330
1E
100
AcDbEntity
  8
0
100
AcDbLine
 10
36.85629999999999
 20
258.3849999999999
 30
0.0
 11
37.0563
 21
262.485
 31
0.0
  0
LINE
  5
C8
330
1E
100
AcDbEntity
  8
0
100
AcDbLine
 10
36.3992
 20
249.764
 30
0.0
 11
36.85629999999999
 21
250.559
 31
0.0
  0
LINE
  5
C9
330
1E
100
AcDbEntity
  8
0
100
AcDbLine
 10
7.8563
 20
276.085
 30
0.0
 11
7.8563
 21
290.1379999999999
 31
0.0
  0
LINE
  5
CA
330
1E
100
AcDbEntity
  8
0
100
AcDbLine
 10
7.8563
 20
276.085
 30
0.0
 11
8.503899999999999
 21
276.085
 31
0.0
  0
LINE
  5
CB
330
1E
100
AcDbEntity
  8
0
100
AcDbLine
 10
7.8563
 20
290.1379999999999
 30
0.0
 11
7.8563
 21
310.0969999999999
 31
0.0
  0
LINE
  5
CC
330
1E
100
AcDbEntity
  8
0
100
AcDbLine
 10
7.8563
 20
290.1379999999999
 30
0.0
 11
7.8563
 21
276.085
 31
0.0
  0
LINE
  5
CD
330
1E
100
AcDbEntity
  8
0
100
AcDbLine
 10
7.8563
 20
310.0969999999999
 30
0.0
 11
9.30832
 21
318.579
 31
0.0
  0
LINE
  5
CE
330
1E
100
AcDbEntity
  8
0
100
AcDbLine
 10
7.8563
 20
310.0969999999999
 30
0.0
 11
7.8563
 21
290.1379999999999
 31
0.0
  0
LINE
  5
CF
330
1E
100
AcDbEntity
  8
0
100
AcDbLine
 10
8.503899999999999
 20
276.085
 30
0.0
 11
10.12299999999999
 21
276.085
 31
0.0
  0
LINE
  5
D0
330
1E
100
AcDbEntity
  8
0
100
AcDbLine
 10
10.12299999999999
 20
276.085
 30
0.0
 11
12.8753
 21
276.085
 31
0.0
  0
LINE
  5
D4
330
1E
100
AcDbEntity
  8
0
100
AcDbLine
 10
10.85629999999999
 20
328.874
 30
0.0
 11
11.25629999999999
 21
329.8169999999999
 31
0.0
  0
LINE
  5
D5
330
1E
100
AcDbEntity
  8
0
100
AcDbLine
 10
11.25629999999999
 20
329.8169999999999
 30
0.0
 11
11.523
 21
330.1459999999999
 31
0.0
  0
LINE
  5
D6
330
1E
100
AcDbEntity
  8
0
100
AcDbLine
 10
11.523
 20
330.1459999999999
 30
0.0
 11
12.8563
 21
330.984
 31
0.0
  0
LINE
  5
D9
330
1E
100
AcDbEntity
  8
0
100
AcDbLine
 10
12.8563
 20
330.984
 30
0.0
 11
13.2563
 21
331.1679999999999
 31
0.0
  0
LINE
  5
DA
330
1E
100
AcDbEntity
  8
0
100
AcDbLine
 10
9.30832
 20
318.579
 30
0.0
 11
10.85629999999999
 21
328.874
 31
0.0
  0
LINE
  5
DD
330
1E
100
AcDbEntity
  8
0
100
AcDbLine
 10
12.8753
 20
276.085
 30
0.0
 11
16.4372
 21
276.085
 31
0.0
  0
LINE
  5
DE
330
1E
100
AcDbEntity
  8
0
100
AcDbLine
 10
8.856299999999999
 20
276.085
 30
0.0
 11
8.856299999999999
 21
275.0849999999999
 31
0.0
  0
LINE
  5
E0
330
1E
100
AcDbEntity
  8
0
100
AcDbLine
 10
13.2563
 20
331.1679999999999
 30
0.0
 11
15.3896
 21
331.901
 31
0.0
  0
LINE
  5
E1
330
1E
100
AcDbEntity
  8
0
100
AcDbLine
 10
16.4372
 20
276.085
 30
0.0
 11
20.4849
 21
276.085
 31
0.0
  0
LINE
  5
E2
330
1E
100
AcDbEntity
  8
0
100
AcDbLine
 10
20.4849
 20
276.085
 30
0.0
 11
24.8563
 21
276.085
 31
0.0
  0
LINE
  5
E6
330
1E
100
AcDbEntity
  8
0
100
AcDbLine
 10
18.18959999999999
 20
332.4599999999999
 30
0.0
 11
21.3896
 21
332.7749999999999
 31
0.0
  0
LINE
  5
E7
330
1E
100
AcDbEntity
  8
0
100
AcDbLine
 10
15.3896
 20
331.901
 30
0.0
 11
18.18959999999999
 21
332.4599999999999
 31
0.0
  0
LINE
  5
E8
330
1E
100
AcDbEntity
  8
0
100
AcDbLine
 10
21.3896
 20
332.7749999999999
 30
0.0
 11
24.8563
 21
332.915
 31
0.0
  0
LINE
  5
E9
330
1E
100
AcDbEntity
  8
0
100
AcDbLine
 10
24.8563
 20
332.915
 30
0.0
 11
28.323
 21
332.7749999999999
 31
0.0
  0
LINE
  5
EB
330
1E
100
AcDbEntity
  8
0
100
AcDbLine
 10
36.8373
 20
276.085
 30
0.0
 11
39.58959999999999
 21
276.085
 31
0.0
  0
LINE
  5
EC
330
1E
100
AcDbEntity
  8
0
100
AcDbLine
 10
33.27539999999999
 20
276.085
 30
0.0
 11
36.8373
 21
276.085
 31
0.0
  0
LINE
  5
F0
330
1E
100
AcDbEntity
  8
0
100
AcDbLine
 10
36.4563
 20
331.1679999999999
 30
0.0
 11
36.85629999999999
 21
330.984
 31
0.0
  0
LINE
  5
F1
330
1E
100
AcDbEntity
  8
0
100
AcDbLine
 10
36.85629999999999
 20
330.984
 30
0.0
 11
38.1896
 21
330.1459999999999
 31
0.0
  0
LINE
  5
F4
330
1E
100
AcDbEntity
  8
0
100
AcDbLine
 10
31.523
 20
332.4599999999999
 30
0.0
 11
34.323
 21
331.901
 31
0.0
  0
LINE
  5
F5
330
1E
100
AcDbEntity
  8
0
100
AcDbLine
 10
28.323
 20
332.7749999999999
 30
0.0
 11
31.523
 21
332.4599999999999
 31
0.0
  0
LINE
  5
F6
330
1E
100
AcDbEntity
  8
0
100
AcDbLine
 10
34.323
 20
331.901
 30
0.0
 11
36.4563
 21
331.1679999999999
 31
0.0
  0
LINE
  5
F8
330
1E
100
AcDbEntity
  8
0
100
AcDbLine
 10
29.22769999999999
 20
276.085
 30
0.0
 11
33.27539999999999
 21
276.085
 31
0.0
  0
LINE
  5
F9
330
1E
100
AcDbEntity
  8
0
100
AcDbLine
 10
24.8563
 20
276.085
 30
0.0
 11
29.22769999999999
 21
276.085
 31
0.0
  0
LINE
  5
FA
330
1E
100
AcDbEntity
  8
0
100
AcDbLine
 10
36.35629999999999
 20
275.0849999999999
 30
0.0
 11
39.7563
 21
275.0849999999999
 31
0.0
  0
LINE
  5
FB
330
1E
100
AcDbEntity
  8
0
100
AcDbLine
 10
37.0563
 20
262.485
 30
0.0
 11
37.2563
 21
265.285
 31
0.0
  0
LINE
  5
FD
330
1E
100
AcDbEntity
  8
0
100
AcDbLine
 10
37.2563
 20
265.285
 30
0.0
 11
37.4563
 21
266.8849999999999
 31
0.0
  0
LINE
  5
FE
330
1E
100
AcDbEntity
  8
0
100
AcDbLine
 10
37.4563
 20
266.8849999999999
 30
0.0
 11
37.5563
 21
267.785
 31
0.0
  0
LINE
  5
FF
330
1E
100
AcDbEntity
  8
0
100
AcDbLine
 10
41.85629999999999
 20
52.174
 30
0.0
 11
49.6727
 21
52.174
 31
0.0
  0
LINE
  5
100
330
1E
100
AcDbEntity
  8
0
100
AcDbLine
 10
41.85629999999999
 20
48.174
 30
0.0
 11
49.6727
 21
48.174
 31
0.0
  0
LINE
  5
102
330
1E
100
AcDbEntity
  8
0
100
AcDbLine
 10
41.85629999999999
 20
10.885
 30
0.0
 11
41.85629999999999
 21
238.085
 31
0.0
  0
LINE
  5
103
330
1E
100
AcDbEntity
  8
0
100
AcDbLine
 10
41.85629999999999
 20
10.885
 30
0.0
 11
42.15629999999999
 21
8.685
 31
0.0
  0
LINE
  5
104
330
1E
100
AcDbEntity
  8
0
100
AcDbLine
 10
40.8563
 20
275.0849999999999
 30
0.0
 11
40.8563
 21
276.085
 31
0.0
  0
LINE
  5
105
330
1E
100
AcDbEntity
  8
0
100
AcDbLine
 10
41.85629999999999
 20
238.085
 30
0.0
 11
41.85629999999999
 21
274.5849999999999
 31
0.0
  0
LINE
  5
106
330
1E
100
AcDbEntity
  8
0
100
AcDbLine
 10
41.85629999999999
 20
238.085
 30
0.0
 11
41.85629999999999
 21
10.885
 31
0.0
  0
LINE
  5
107
330
1E
100
AcDbEntity
  8
0
100
AcDbLine
 10
46.1678
 20
0.0849999999999968
 30
0.0
 11
47.3973
 21
0.0849999999999968
 31
0.0
  0
LINE
  5
108
330
1E
100
AcDbEntity
  8
0
100
AcDbLine
 10
44.93829999999999
 20
0.0849999999999968
 30
0.0
 11
46.1678
 21
0.0849999999999968
 31
0.0
  0
LINE
  5
109
330
1E
100
AcDbEntity
  8
0
100
AcDbLine
 10
48.3809
 20
0.0849999999999969
 30
0.0
 11
49.2006
 21
0.0849999999999969
 31
0.0
  0
LINE
  5
10A
330
1E
100
AcDbEntity
  8
0
100
AcDbLine
 10
49.2006
 20
0.0849999999999969
 30
0.0
 11
49.6924
 21
0.084999999999997
 31
0.0
  0
LINE
  5
10B
330
1E
100
AcDbEntity
  8
0
100
AcDbLine
 10
49.6924
 20
0.084999999999997
 30
0.0
 11
49.8563
 21
0.0849999999999971
 31
0.0
  0
LINE
  5
10C
330
1E
100
AcDbEntity
  8
0
100
AcDbLine
 10
47.3973
 20
0.0849999999999968
 30
0.0
 11
48.3809
 21
0.0849999999999969
 31
0.0
  0
LINE
  5
10D
330
1E
100
AcDbEntity
  8
0
100
AcDbLine
 10
48.3809
 20
0.0849999999999998
 30
0.0
 11
49.2006
 21
0.0849999999999997
 31
0.0
  0
LINE
  5
10E
330
1E
100
AcDbEntity
  8
0
100
AcDbLine
 10
49.2006
 20
0.0849999999999997
 30
0.0
 11
49.6924
 21
0.0849999999999996
 31
0.0
  0
LINE
  5
10F
330
1E
100
AcDbEntity
  8
0
100
AcDbLine
 10
49.6924
 20
0.0849999999999996
 30
0.0
 11
49.8563
 21
0.0849999999999995
 31
0.0
  0
LINE
  5
110
330
1E
100
AcDbEntity
  8
0
100
AcDbLine
 10
49.8563
 20
0.0849999999999995
 30
0.0
 11
49.8563
 21
5.227859999999999
 31
0.0
  0
LINE
  5
111
330
1E
100
AcDbEntity
  8
0
100
AcDbLine
 10
47.3973
 20
0.0849999999999998
 30
0.0
 11
48.3809
 21
0.0849999999999998
 31
0.0
  0
LINE
  5
112
330
1E
100
AcDbEntity
  8
0
100
AcDbLine
 10
46.1678
 20
0.0849999999999998
 30
0.0
 11
47.3973
 21
0.0849999999999998
 31
0.0
  0
LINE
  5
114
330
1E
100
AcDbEntity
  8
0
100
AcDbLine
 10
43.95629999999999
 20
6.184999999999999
 30
0.0
 11
44.4229666666667
 21
6.084999999999999
 31
0.0
  0
LINE
  5
115
330
1E
100
AcDbEntity
  8
0
100
AcDbLine
 10
42.15629999999999
 20
8.685
 30
0.0
 11
43.95629999999999
 21
6.184999999999999
 31
0.0
  0
LINE
  5
119
330
1E
100
AcDbEntity
  8
0
100
AcDbLine
 10
49.6104
 20
5.82786
 30
0.0
 11
49.8563
 21
5.227859999999999
 31
0.0
  0
LINE
  5
11A
330
1E
100
AcDbEntity
  8
0
100
AcDbLine
 10
49.8563
 20
5.227859999999999
 30
0.0
 11
49.8563
 21
0.0849999999999995
 31
0.0
  0
LINE
  5
11C
330
1E
100
AcDbEntity
  8
0
100
AcDbLine
 10
47.8071
 20
6.084999999999999
 30
0.0
 11
48.46289999999999
 21
6.084999999999999
 31
0.0
  0
LINE
  5
11D
330
1E
100
AcDbEntity
  8
0
100
AcDbLine
 10
48.46289999999999
 20
6.084999999999999
 30
0.0
 11
48.8727
 21
6.084999999999999
 31
0.0
  0
LINE
  5
11E
330
1E
100
AcDbEntity
  8
0
100
AcDbLine
 10
48.8727
 20
6.084999999999999
 30
0.0
 11
49.0366
 21
6.084999999999999
 31
0.0
  0
LINE
  5
11F
330
1E
100
AcDbEntity
  8
0
100
AcDbLine
 10
49.0366
 20
6.084999999999999
 30
0.0
 11
49.6104
 21
5.82786
 31
0.0
  0
LINE
  5
120
330
1E
100
AcDbEntity
  8
0
100
AcDbLine
 10
49.6727
 20
52.174
 30
0.0
 11
50.03479999999999
 21
52.102
 31
0.0
  0
LINE
  5
121
330
1E
100
AcDbEntity
  8
0
100
AcDbLine
 10
50.03479999999999
 20
48.246
 30
0.0
 11
50.3742
 21
48.438
 31
0.0
  0
LINE
  5
122
330
1E
100
AcDbEntity
  8
0
100
AcDbLine
 10
50.3742
 20
51.90999999999999
 30
0.0
 11
50.44789999999999
 21
51.86199999999999
 31
0.0
  0
LINE
  5
123
330
1E
100
AcDbEntity
  8
0
100
AcDbLine
 10
50.03479999999999
 20
52.102
 30
0.0
 11
50.3742
 21
51.90999999999999
 31
0.0
  0
LINE
  5
124
330
1E
100
AcDbEntity
  8
0
100
AcDbLine
 10
50.44789999999999
 20
51.86199999999999
 30
0.0
 11
50.73640000000001
 21
51.55
 31
0.0
  0
LINE
  5
125
330
1E
100
AcDbEntity
  8
0
100
AcDbLine
 10
50.38430323168261
 20
51.89921603022529
 30
0.0
 11
50.44789999999999
 21
51.86199999999999
 31
0.0
  0
LINE
  5
126
330
1E
100
AcDbEntity
  8
0
100
AcDbLine
 10
50.957
 20
51.142
 30
0.0
 11
51.0928
 21
50.678
 31
0.0
  0
LINE
  5
127
330
1E
100
AcDbEntity
  8
0
100
AcDbLine
 10
50.73640000000001
 20
51.55
 30
0.0
 11
50.957
 21
51.142
 31
0.0
  0
LINE
  5
128
330
1E
100
AcDbEntity
  8
0
100
AcDbLine
 10
51.0928
 20
50.678
 30
0.0
 11
51.1437
 21
50.174
 31
0.0
  0
LINE
  5
129
330
1E
100
AcDbEntity
  8
0
100
AcDbLine
 10
51.0928
 20
49.67
 30
0.0
 11
51.1437
 21
50.174
 31
0.0
  0
LINE
  5
12A
330
1E
100
AcDbEntity
  8
0
100
AcDbLine
 10
50.957
 20
49.206
 30
0.0
 11
51.0928
 21
49.67
 31
0.0
  0
LINE
  5
12B
330
1E
100
AcDbEntity
  8
0
100
AcDbLine
 10
50.73640000000001
 20
48.798
 30
0.0
 11
50.957
 21
49.206
 31
0.0
  0
LINE
  5
12C
330
1E
100
AcDbEntity
  8
0
100
AcDbLine
 10
50.44789999999999
 20
48.48600000000001
 30
0.0
 11
50.73640000000001
 21
48.798
 31
0.0
  0
LINE
  5
12D
330
1E
100
AcDbEntity
  8
0
100
AcDbLine
 10
50.38430323168261
 20
48.4487839697747
 30
0.0
 11
50.44789999999999
 21
48.48600000000001
 31
0.0
  0
LINE
  5
12E
330
1E
100
AcDbEntity
  8
0
100
AcDbLine
 10
50.3742
 20
48.438
 30
0.0
 11
50.44789999999999
 21
48.48600000000001
 31
0.0
  0
LINE
  5
12F
330
1E
100
AcDbEntity
  8
0
100
AcDbLine
 10
49.6727
 20
48.174
 30
0.0
 11
50.03479999999999
 21
48.246
 31
0.0
  0
LINE
  5
130
330
1E
100
AcDbEntity
  8
0
100
AcDbLine
 10
46.98739999999999
 20
6.084999999999999
 30
0.0
 11
47.8071
 21
6.084999999999999
 31
0.0
  0
LINE
  5
131
330
1E
100
AcDbEntity
  8
0
100
AcDbLine
 10
46.0038
 20
6.084999999999999
 30
0.0
 11
46.98739999999999
 21
6.084999999999999
 31
0.0
  0
LINE
  5
134
330
1E
100
AcDbEntity
  8
0
100
AcDbLine
 10
44.93829999999999
 20
0.0849999999999998
 30
0.0
 11
46.1678
 21
0.0849999999999998
 31
0.0
  0
LINE
  5
135
330
1E
100
AcDbEntity
  8
0
100
AcDbLine
 10
41.85629999999999
 20
274.5849999999999
 30
0.0
 11
41.85629999999999
 21
238.085
 31
0.0
  0
LINE
  5
136
330
1E
100
AcDbEntity
  8
0
100
AcDbLine
 10
41.35629999999999
 20
275.0849999999999
 30
0.0
 11
41.85629999999999
 21
274.5849999999999
 31
0.0
  0
LINE
  5
137
330
1E
100
AcDbEntity
  8
0
100
AcDbLine
 10
40.2563
 20
274.5849999999999
 30
0.0
 11
41.85629999999999
 21
274.5849999999999
 31
0.0
  0
LINE
  5
138
330
1E
100
AcDbEntity
  8
0
100
AcDbLine
 10
38.45629999999999
 20
329.8169999999999
 30
0.0
 11
38.85629999999999
 21
328.874
 31
0.0
  0
LINE
  5
13A
330
1E
100
AcDbEntity
  8
0
100
AcDbLine
 10
38.1896
 20
330.1459999999999
 30
0.0
 11
38.45629999999999
 21
329.8169999999999
 31
0.0
  0
LINE
  5
13D
330
1E
100
AcDbEntity
  8
0
100
AcDbLine
 10
41.2087
 20
276.085
 30
0.0
 11
41.85629999999999
 21
276.085
 31
0.0
  0
LINE
  5
13E
330
1E
100
AcDbEntity
  8
0
100
AcDbLine
 10
40.8563
 20
276.085
 30
0.0
 11
40.8563
 21
275.0849999999999
 31
0.0
  0
LINE
  5
140
330
1E
100
AcDbEntity
  8
0
100
AcDbLine
 10
41.85629999999999
 20
310.0969999999999
 30
0.0
 11
41.85629999999999
 21
276.085
 31
0.0
  0
LINE
  5
141
330
1E
100
AcDbEntity
  8
0
100
AcDbLine
 10
41.85629999999999
 20
276.085
 30
0.0
 11
41.85629999999999
 21
310.0969999999999
 31
0.0
  0
LINE
  5
142
330
1E
100
AcDbEntity
  8
0
100
AcDbLine
 10
39.58959999999999
 20
276.085
 30
0.0
 11
41.2087
 21
276.085
 31
0.0
  0
LINE
  5
143
330
1E
100
AcDbEntity
  8
0
100
AcDbLine
 10
40.40429999999999
 20
318.579
 30
0.0
 11
41.85629999999999
 21
310.0969999999999
 31
0.0
  0
LINE
  5
144
330
1E
100
AcDbEntity
  8
0
100
AcDbLine
 10
38.85629999999999
 20
328.874
 30
0.0
 11
40.40429999999999
 21
318.579
 31
0.0
  0
LINE
  5
145
330
1E
100
AcDbEntity
  8
0
100
AcDbLine
 10
39.7563
 20
275.0849999999999
 30
0.0
 11
41.35629999999999
 21
275.0849999999999
 31
0.0
  0
LINE
  5
146
330
1E
100
AcDbEntity
  8
0
100
AcDbLine
 10
36.85629999999999
 20
274.5849999999999
 30
0.0
 11
40.2563
 21
274.5849999999999
 31
0.0
  0
LINE
  5
14B
330
1E
100
AcDbEntity
  8
0
100
AcDbLine
 10
12.15629999999999
 20
267.785
 30
0.0
 11
10.13732083348054
 21
274.5667301247113
 31
0.0
  0
LINE
  5
14C
330
1E
100
AcDbEntity
  8
0
100
AcDbLine
 10
37.5563
 20
267.785
 30
0.0
 11
38.58386050014496
 21
274.5323551828324
 31
0.0
  0
ENDSEC
  0
SECTION
  2
OBJECTS
  0
DICTIONARY
  5
C
330
0
100
AcDbDictionary
281
     1
  3
ACAD_GROUP
350
D
  3
ACAD_LAYOUT
350
19
  3
ACAD_MLINESTYLE
350
16
  3
ACAD_PLOTSETTINGS
350
18
  3
ACAD_PLOTSTYLENAME
350
E
  3
AcDbVariableDictionary
350
14D
  0
DICTIONARY
  5
D
102
{ACAD_REACTORS
330
C
102
}
330
C
100
AcDbDictionary
281
     1
  0
DICTIONARY
  5
19
102
{ACAD_REACTORS
330
C
102
}
330
C
100
AcDbDictionary
281
     1
  3
Layout1
350
1D
  3
Model
350
21
  0
DICTIONARY
  5
16
102
{ACAD_REACTORS
330
C
102
}
330
C
100
AcDbDictionary
281
     1
  3
Standard
350
17
  0
DICTIONARY
  5
18
102
{ACAD_REACTORS
330
C
102
}
330
C
100
AcDbDictionary
281
     1
  0
ACDBDICTIONARYWDFLT
  5
E
102
{ACAD_REACTORS
330
C
102
}
330
C
100
AcDbDictionary
281
     1
  3
Normal
350
F
100
AcDbDictionaryWithDefault
340
F
  0
DICTIONARY
  5
14D
102
{ACAD_REACTORS
330
C
102
}
330
C
100
AcDbDictionary
281
     1
  3
DIMASSOC
350
14E
  0
LAYOUT
  5
1D
102
{ACAD_REACTORS
330
19
102
}
330
19
100
AcDbPlotSettings
  1

  2
hp deskjet 980c series
  4

  6

 40
0.0
 41
0.0
 42
0.0
 43
0.0
 44
0.0
 45
0.0
 46
0.0
 47
0.0
 48
0.0
 49
0.0
140
0.0
141
0.0
142
1.0
143
1.0
 70
   688
 72
     0
 73
     0
 74
     5
  7

 75
    16
147
1.0
148
0.0
149
0.0
100
AcDbLayout
  1
Layout1
 70
     1
 71
     1
 10
0.0
 20
0.0
 11
12.0
 21
9.0
 12
0.0
 22
0.0
 32
0.0
 14
1.000000000000000E+20
 24
1.000000000000000E+20
 34
1.000000000000000E+20
 15
-1.000000000000000E+20
 25
-1.000000000000000E+20
 35
-1.000000000000000E+20
146
0.0
 13
0.0
 23
0.0
 33
0.0
 16
1.0
 26
0.0
 36
0.0
 17
0.0
 27
1.0
 37
0.0
 76
     0
330
1A
  0
LAYOUT
  5
21
102
{ACAD_REACTORS
330
19
102
}
330
19
100
AcDbPlotSettings
  1

  2
hp deskjet 980c series
  4

  6

 40
0.0
 41
0.0
 42
0.0
 43
0.0
 44
0.0
 45
0.0
 46
0.0
 47
0.0
 48
0.0
 49
0.0
140
0.0
141
0.0
142
1.0
143
1.0
 70
  1712
 72
     0
 73
     0
 74
     0
  7

 75
     0
147
1.0
148
0.0
149
0.0
100
AcDbLayout
  1
Model
 70
     1
 71
     0
 10
0.0
 20
0.0
 11
12.0
 21
9.0
 12
0.0
 22
0.0
 32
0.0
 14
0.0
 24
0.0
 34
0.0
 15
0.0
 25
0.0
 35
0.0
146
0.0
 13
0.0
 23
0.0
 33
0.0
 16
1.0
 26
0.0
 36
0.0
 17
0.0
 27
1.0
 37
0.0
 76
     0
330
1E
  0
MLINESTYLE
  5
17
102
{ACAD_REACTORS
330
16
102
}
330
16
100
AcDbMlineStyle
  2
STANDARD
 70
     0
  3

 62
   256
 51
90.0
 52
90.0
 71
     2
 49
0.5
 62
   256
  6
BYLAYER
 49
-0.5
 62
   256
  6
BYLAYER
  0
ACDBPLACEHOLDER
  5
F
102
{ACAD_REACTORS
330
E
102
}
330
E
  0
DICTIONARYVAR
  5
14E
102
{ACAD_REACTORS
330
14D
102
}
330
14D
100
DictionaryVariables
280
     0
  1
1
  0
ENDSEC
  0
EOF
