  0
SECTION
  2
HEADER
  9
$ACADVER
  1
AC1014
  9
$ACADMAINTVER
 70
     9
  9
$DWGCODEPAGE
  3
ANSI_1252
  9
$INSBASE
 10
0.0
 20
0.0
 30
0.0
  9
$EXTMIN
 10
-0.0000000000000005
 20
0.0000000000000017
 30
0.0
  9
$EXTMAX
 10
69.0
 20
119.0
 30
0.0
  9
$LIMMIN
 10
0.0
 20
0.0
  9
$LIMMAX
 10
12.0
 20
9.0
  9
$ORTHOMODE
 70
     0
  9
$REGENMODE
 70
     1
  9
$FILLMODE
 70
     1
  9
$QTEXTMODE
 70
     0
  9
$MIRRTEXT
 70
     1
  9
$DRAGMODE
 70
     2
  9
$LTSCALE
 40
1.0
  9
$OSMODE
 70
    37
  9
$ATTMODE
 70
     1
  9
$TEXTSIZE
 40
0.2
  9
$TRACEWID
 40
0.05
  9
$TEXTSTYLE
  7
STANDARD
  9
$CLAYER
  8
0
  9
$CELTYPE
  6
CONTINUOUS
  9
$CECOLOR
 62
   256
  9
$CELTSCALE
 40
1.0
  9
$DELOBJ
 70
     1
  9
$DISPSILH
 70
     0
  9
$DIMSCALE
 40
1.0
  9
$DIMASZ
 40
0.18
  9
$DIMEXO
 40
0.0625
  9
$DIMDLI
 40
0.38
  9
$DIMRND
 40
0.0
  9
$DIMDLE
 40
0.0
  9
$DIMEXE
 40
0.18
  9
$DIMTP
 40
0.0
  9
$DIMTM
 40
0.0
  9
$DIMTXT
 40
0.18
  9
$DIMCEN
 40
0.09
  9
$DIMTSZ
 40
0.0
  9
$DIMTOL
 70
     0
  9
$DIMLIM
 70
     0
  9
$DIMTIH
 70
     1
  9
$DIMTOH
 70
     1
  9
$DIMSE1
 70
     0
  9
$DIMSE2
 70
     0
  9
$DIMTAD
 70
     0
  9
$DIMZIN
 70
     0
  9
$DIMBLK
  1

  9
$DIMASO
 70
     1
  9
$DIMSHO
 70
     1
  9
$DIMPOST
  1

  9
$DIMAPOST
  1

  9
$DIMALT
 70
     0
  9
$DIMALTD
 70
     2
  9
$DIMALTF
 40
25.4
  9
$DIMLFAC
 40
1.0
  9
$DIMTOFL
 70
     0
  9
$DIMTVP
 40
0.0
  9
$DIMTIX
 70
     0
  9
$DIMSOXD
 70
     0
  9
$DIMSAH
 70
     0
  9
$DIMBLK1
  1

  9
$DIMBLK2
  1

  9
$DIMSTYLE
  2
STANDARD
  9
$DIMCLRD
 70
     0
  9
$DIMCLRE
 70
     0
  9
$DIMCLRT
 70
     0
  9
$DIMTFAC
 40
1.0
  9
$DIMGAP
 40
0.09
  9
$DIMJUST
 70
     0
  9
$DIMSD1
 70
     0
  9
$DIMSD2
 70
     0
  9
$DIMTOLJ
 70
     1
  9
$DIMTZIN
 70
     0
  9
$DIMALTZ
 70
     0
  9
$DIMALTTZ
 70
     0
  9
$DIMFIT
 70
     3
  9
$DIMUPT
 70
     0
  9
$DIMUNIT
 70
     2
  9
$DIMDEC
 70
     4
  9
$DIMTDEC
 70
     4
  9
$DIMALTU
 70
     2
  9
$DIMALTTD
 70
     2
  9
$DIMTXSTY
  7
STANDARD
  9
$DIMAUNIT
 70
     0
  9
$LUNITS
 70
     2
  9
$LUPREC
 70
     4
  9
$SKETCHINC
 40
0.1
  9
$FILLETRAD
 40
0.0
  9
$AUNITS
 70
     0
  9
$AUPREC
 70
     0
  9
$MENU
  1
.
  9
$ELEVATION
 40
0.0
  9
$PELEVATION
 40
0.0
  9
$THICKNESS
 40
0.0
  9
$LIMCHECK
 70
     0
  9
$BLIPMODE
 70
     0
  9
$CHAMFERA
 40
0.0
  9
$CHAMFERB
 40
0.0
  9
$CHAMFERC
 40
0.0
  9
$CHAMFERD
 40
0.0
  9
$SKPOLY
 70
     0
  9
$TDCREATE
 40
2454690.652307581
  9
$TDUPDATE
 40
2454690.654811921
  9
$TDINDWG
 40
0.0025045139
  9
$TDUSRTIMER
 40
0.0025045139
  9
$USRTIMER
 70
     1
  9
$ANGBASE
 50
0.0
  9
$ANGDIR
 70
     0
  9
$PDMODE
 70
     0
  9
$PDSIZE
 40
0.0
  9
$PLINEWID
 40
0.0
  9
$COORDS
 70
     1
  9
$SPLFRAME
 70
     0
  9
$SPLINETYPE
 70
     6
  9
$SPLINESEGS
 70
     8
  9
$ATTDIA
 70
     0
  9
$ATTREQ
 70
     1
  9
$HANDLING
 70
 22529
  9
$HANDSEED
  5
180
  9
$SURFTAB1
 70
     6
  9
$SURFTAB2
 70
     6
  9
$SURFTYPE
 70
     6
  9
$SURFU
 70
     6
  9
$SURFV
 70
     6
  9
$UCSNAME
  2

  9
$UCSORG
 10
0.0
 20
0.0
 30
0.0
  9
$UCSXDIR
 10
1.0
 20
0.0
 30
0.0
  9
$UCSYDIR
 10
0.0
 20
1.0
 30
0.0
  9
$PUCSNAME
  2

  9
$PUCSORG
 10
0.0
 20
0.0
 30
0.0
  9
$PUCSXDIR
 10
1.0
 20
0.0
 30
0.0
  9
$PUCSYDIR
 10
0.0
 20
1.0
 30
0.0
  9
$USERI1
 70
     0
  9
$USERI2
 70
     0
  9
$USERI3
 70
     0
  9
$USERI4
 70
     0
  9
$USERI5
 70
     0
  9
$USERR1
 40
0.0
  9
$USERR2
 40
0.0
  9
$USERR3
 40
0.0
  9
$USERR4
 40
0.0
  9
$USERR5
 40
0.0
  9
$WORLDVIEW
 70
     1
  9
$SHADEDGE
 70
     3
  9
$SHADEDIF
 70
    70
  9
$TILEMODE
 70
     1
  9
$MAXACTVP
 70
    64
  9
$PINSBASE
 10
0.0
 20
0.0
 30
0.0
  9
$PLIMCHECK
 70
     0
  9
$PEXTMIN
 10
1.000000000000000E+20
 20
1.000000000000000E+20
 30
1.000000000000000E+20
  9
$PEXTMAX
 10
-1.000000000000000E+20
 20
-1.000000000000000E+20
 30
-1.000000000000000E+20
  9
$PLIMMIN
 10
0.0
 20
0.0
  9
$PLIMMAX
 10
12.0
 20
9.0
  9
$UNITMODE
 70
     0
  9
$VISRETAIN
 70
     1
  9
$PLINEGEN
 70
     0
  9
$PSLTSCALE
 70
     1
  9
$TREEDEPTH
 70
  3020
  9
$PICKSTYLE
 70
     1
  9
$CMLSTYLE
  2
STANDARD
  9
$CMLJUST
 70
     0
  9
$CMLSCALE
 40
1.0
  9
$PROXYGRAPHICS
 70
     1
  9
$MEASUREMENT
 70
     0
  0
ENDSEC
  0
SECTION
  2
CLASSES
  0
CLASS
  1
ACDBDICTIONARYWDFLT
  2
AcDbDictionaryWithDefault
  3
AutoCAD 2000
 90
        0
280
     0
281
     0
  0
CLASS
  1
ACDBPLACEHOLDER
  2
AcDbPlaceHolder
  3
AutoCAD 2000
 90
        0
280
     0
281
     0
  0
CLASS
  1
LAYOUT
  2
AcDbLayout
  3
AutoCAD 2000
 90
        0
280
     0
281
     0
  0
CLASS
  1
DICTIONARYVAR
  2
AcDbDictionaryVar
  3
AutoCAD 2000
 90
        0
280
     0
281
     0
  0
CLASS
  1
LONG_TRANSACTION
  2
AcDbLongTransaction
  3
AutoCAD 2000
 90
        0
280
     0
281
     0
  0
CLASS
  1
LWPOLYLINE
  2
AcDbPolyline
  3
AutoCAD 2000
 90
        0
280
     0
281
     1
  0
CLASS
  1
HATCH
  2
AcDbHatch
  3
AutoCAD 2000
 90
        0
280
     0
281
     1
  0
CLASS
  1
XRECORD
  2
AcDbXrecord
  3
AutoCAD 2000
 90
        0
280
     0
281
     0
  0
ENDSEC
  0
SECTION
  2
TABLES
  0
TABLE
  2
VPORT
  5
8
330
0
100
AcDbSymbolTable
 70
     2
  0
VPORT
  5
15B
330
8
100
AcDbSymbolTableRecord
100
AcDbViewportTableRecord
  2
*ACTIVE
 70
     0
 10
0.0
 20
0.0
 11
1.0
 21
1.0
 12
34.5
 22
59.5
 13
0.0
 23
0.0
 14
1.0
 24
1.0
 15
0.0
 25
0.0
 16
0.0
 26
0.0
 36
1.0
 17
0.0
 27
0.0
 37
0.0
 40
119.9130434782608
 41
2.043533930857874
 42
50.0
 43
0.0
 44
0.0
 50
0.0
 51
0.0
 71
     0
 72
   100
 73
     1
 74
     3
 75
     0
 76
     0
 77
     0
 78
     0
  0
ENDTAB
  0
TABLE
  2
LTYPE
  5
5
330
0
100
AcDbSymbolTable
 70
     1
  0
LTYPE
  5
13
330
5
100
AcDbSymbolTableRecord
100
AcDbLinetypeTableRecord
  2
BYBLOCK
 70
     0
  3

 72
    65
 73
     0
 40
0.0
  0
LTYPE
  5
14
330
5
100
AcDbSymbolTableRecord
100
AcDbLinetypeTableRecord
  2
BYLAYER
 70
     0
  3

 72
    65
 73
     0
 40
0.0
  0
LTYPE
  5
15
330
5
100
AcDbSymbolTableRecord
100
AcDbLinetypeTableRecord
  2
CONTINUOUS
 70
     0
  3
Solid line
 72
    65
 73
     0
 40
0.0
  0
ENDTAB
  0
TABLE
  2
LAYER
  5
2
330
0
100
AcDbSymbolTable
 70
     1
  0
LAYER
  5
10
330
2
100
AcDbSymbolTableRecord
100
AcDbLayerTableRecord
  2
0
 70
     0
 62
     7
  6
CONTINUOUS
  0
ENDTAB
  0
TABLE
  2
STYLE
  5
3
330
0
100
AcDbSymbolTable
 70
     1
  0
STYLE
  5
11
330
3
100
AcDbSymbolTableRecord
100
AcDbTextStyleTableRecord
  2
STANDARD
 70
     0
 40
0.0
 41
1.0
 50
0.0
 71
     0
 42
0.2
  3
txt
  4

  0
ENDTAB
  0
TABLE
  2
VIEW
  5
6
330
0
100
AcDbSymbolTable
 70
     0
  0
ENDTAB
  0
TABLE
  2
UCS
  5
7
330
0
100
AcDbSymbolTable
 70
     0
  0
ENDTAB
  0
TABLE
  2
APPID
  5
9
330
0
100
AcDbSymbolTable
 70
     1
  0
APPID
  5
12
330
9
100
AcDbSymbolTableRecord
100
AcDbRegAppTableRecord
  2
ACAD
 70
     0
  0
ENDTAB
  0
TABLE
  2
DIMSTYLE
  5
A
330
0
100
AcDbSymbolTable
 70
     1
  0
DIMSTYLE
105
155
330
A
100
AcDbSymbolTableRecord
100
AcDbDimStyleTableRecord
  2
STANDARD
 70
     0
  3

  4

  5

  6

  7

 40
1.0
 41
0.18
 42
0.0625
 43
0.38
 44
0.18
 45
0.0
 46
0.0
 47
0.0
 48
0.0
140
0.18
141
0.09
142
0.0
143
25.4
144
1.0
145
0.0
146
1.0
147
0.09
 71
     0
 72
     0
 73
     1
 74
     1
 75
     0
 76
     0
 77
     0
 78
     0
170
     0
171
     2
172
     0
173
     0
174
     0
175
     0
176
     0
177
     0
178
     0
270
     2
271
     4
272
     4
273
     2
274
     2
340
11
275
     0
280
     0
281
     0
282
     0
283
     1
284
     0
285
     0
286
     0
287
     3
288
     0
  0
ENDTAB
  0
TABLE
  2
BLOCK_RECORD
  5
1
330
0
100
AcDbSymbolTable
 70
     0
  0
BLOCK_RECORD
  5
1E
102
{ACAD_XDICTIONARY
360
17E
102
}
330
1
100
AcDbSymbolTableRecord
100
AcDbBlockTableRecord
  2
*MODEL_SPACE
  0
BLOCK_RECORD
  5
1A
102
{ACAD_XDICTIONARY
360
17C
102
}
330
1
100
AcDbSymbolTableRecord
100
AcDbBlockTableRecord
  2
*PAPER_SPACE
  0
ENDTAB
  0
ENDSEC
  0
SECTION
  2
BLOCKS
  0
BLOCK
  5
1F
330
1E
100
AcDbEntity
  8
0
100
AcDbBlockBegin
  2
*MODEL_SPACE
 70
     0
 10
0.0
 20
0.0
 30
0.0
  3
*MODEL_SPACE
  1

  0
ENDBLK
  5
20
330
1E
100
AcDbEntity
  8
0
100
AcDbBlockEnd
  0
BLOCK
  5
1B
330
1A
100
AcDbEntity
 67
     1
  8
0
100
AcDbBlockBegin
  2
*PAPER_SPACE
 70
     0
 10
0.0
 20
0.0
 30
0.0
  3
*PAPER_SPACE
  1

  0
ENDBLK
  5
1C
330
1A
100
AcDbEntity
 67
     1
  8
0
100
AcDbBlockEnd
  0
ENDSEC
  0
SECTION
  2
ENTITIES
  0
LINE
  5
22
330
1E
100
AcDbEntity
  8
0
100
AcDbLine
 10
2.5
 20
21.3
 30
0.0
 11
4.42573
 21
17.3136
 31
0.0
  0
LINE
  5
23
330
1E
100
AcDbEntity
  8
0
100
AcDbLine
 10
4.42573
 20
17.3136
 30
0.0
 11
6.91903
 21
13.4609
 31
0.0
  0
LINE
  5
24
330
1E
100
AcDbEntity
  8
0
100
AcDbLine
 10
1.1
 20
25.5
 30
0.0
 11
2.5
 21
21.3
 31
0.0
  0
LINE
  5
25
330
1E
100
AcDbEntity
  8
0
100
AcDbLine
 10
1.199999999999999
 20
25.5
 30
0.0
 11
4.599999999999999
 21
17.3
 31
0.0
  0
LINE
  5
26
330
1E
100
AcDbEntity
  8
0
100
AcDbLine
 10
13.4609
 20
6.91903
 30
0.0
 11
17.3136
 21
4.42573
 31
0.0
  0
LINE
  5
27
330
1E
100
AcDbEntity
  8
0
100
AcDbLine
 10
9.913999999999999
 20
10.0963
 30
0.0
 11
13.4609
 21
6.91903
 31
0.0
  0
LINE
  5
28
330
1E
100
AcDbEntity
  8
0
100
AcDbLine
 10
34.5
 20
0.0000000000000017
 30
0.0
 11
39.0
 21
0.200000000000002
 31
0.0
  0
LINE
  5
29
330
1E
100
AcDbEntity
  8
0
100
AcDbLine
 10
34.5
 20
0.0000000000000017
 30
0.0
 11
39.0
 21
0.200000000000002
 31
0.0
  0
LINE
  5
2A
330
1E
100
AcDbEntity
  8
0
100
AcDbLine
 10
25.5
 20
1.1
 30
0.0
 11
30.0
 21
0.200000000000002
 31
0.0
  0
LINE
  5
2B
330
1E
100
AcDbEntity
  8
0
100
AcDbLine
 10
25.5
 20
1.1
 30
0.0
 11
30.0
 21
0.200000000000002
 31
0.0
  0
LINE
  5
2C
330
1E
100
AcDbEntity
  8
0
100
AcDbLine
 10
30.0
 20
0.200000000000002
 30
0.0
 11
34.5
 21
0.0000000000000017
 31
0.0
  0
LINE
  5
2D
330
1E
100
AcDbEntity
  8
0
100
AcDbLine
 10
30.0
 20
0.200000000000002
 30
0.0
 11
34.5
 21
0.0000000000000017
 31
0.0
  0
LINE
  5
2E
330
1E
100
AcDbEntity
  8
0
100
AcDbLine
 10
34.5
 20
0.600000000000005
 30
0.0
 11
43.3
 21
1.800000000000009
 31
0.0
  0
LINE
  5
2F
330
1E
100
AcDbEntity
  8
0
100
AcDbLine
 10
34.5
 20
0.000000000000002
 30
0.0
 11
43.5
 21
1.199999999999999
 31
0.0
  0
LINE
  5
30
330
1E
100
AcDbEntity
  8
0
100
AcDbLine
 10
39.0
 20
0.200000000000002
 30
0.0
 11
43.5
 21
1.1
 31
0.0
  0
LINE
  5
31
330
1E
100
AcDbEntity
  8
0
100
AcDbLine
 10
43.5
 20
1.1
 30
0.0
 11
47.7
 21
2.5
 31
0.0
  0
LINE
  5
32
330
1E
100
AcDbEntity
  8
0
100
AcDbLine
 10
39.0
 20
0.200000000000002
 30
0.0
 11
43.5
 21
1.1
 31
0.0
  0
LINE
  5
33
330
1E
100
AcDbEntity
  8
0
100
AcDbLine
 10
43.5
 20
1.199999999999999
 30
0.0
 11
51.7
 21
4.599999999999999
 31
0.0
  0
LINE
  5
34
330
1E
100
AcDbEntity
  8
0
100
AcDbLine
 10
34.5
 20
0.0000000000000021
 30
0.0
 11
43.5
 21
1.199999999999999
 31
0.0
  0
LINE
  5
35
330
1E
100
AcDbEntity
  8
0
100
AcDbLine
 10
17.3136
 20
4.42573
 30
0.0
 11
21.3
 21
2.5
 31
0.0
  0
LINE
  5
36
330
1E
100
AcDbEntity
  8
0
100
AcDbLine
 10
43.3
 20
1.800000000000009
 30
0.0
 11
51.4
 21
5.100000000000009
 31
0.0
  0
LINE
  5
37
330
1E
100
AcDbEntity
  8
0
100
AcDbLine
 10
43.3
 20
1.800000000000009
 30
0.0
 11
51.4
 21
5.100000000000009
 31
0.0
  0
LINE
  5
38
330
1E
100
AcDbEntity
  8
0
100
AcDbLine
 10
43.5
 20
1.199999999999999
 30
0.0
 11
51.7
 21
4.599999999999999
 31
0.0
  0
LINE
  5
39
330
1E
100
AcDbEntity
  8
0
100
AcDbLine
 10
21.3
 20
2.5
 30
0.0
 11
25.5
 21
1.1
 31
0.0
  0
LINE
  5
3A
330
1E
100
AcDbEntity
  8
0
100
AcDbLine
 10
47.7
 20
2.5
 30
0.0
 11
51.68639999999999
 21
4.42573
 31
0.0
  0
LINE
  5
3B
330
1E
100
AcDbEntity
  8
0
100
AcDbLine
 10
34.5
 20
5.000000000000009
 30
0.0
 11
42.2
 21
6.000000000000009
 31
0.0
  0
LINE
  5
3C
330
1E
100
AcDbEntity
  8
0
100
AcDbLine
 10
42.2
 20
6.000000000000009
 30
0.0
 11
49.2
 21
8.900000000000009
 31
0.0
  0
LINE
  5
3D
330
1E
100
AcDbEntity
  8
0
100
AcDbLine
 10
51.4
 20
5.100000000000009
 30
0.0
 11
58.5
 21
10.5
 31
0.0
  0
LINE
  5
3E
330
1E
100
AcDbEntity
  8
0
100
AcDbLine
 10
51.68639999999999
 20
4.42573
 30
0.0
 11
55.5391
 21
6.91903
 31
0.0
  0
LINE
  5
3F
330
1E
100
AcDbEntity
  8
0
100
AcDbLine
 10
51.7
 20
4.600000000000009
 30
0.0
 11
58.9
 21
10.1
 31
0.0
  0
LINE
  5
40
330
1E
100
AcDbEntity
  8
0
100
AcDbLine
 10
51.4
 20
5.099999999999999
 30
0.0
 11
58.5
 21
10.5
 31
0.0
  0
LINE
  5
41
330
1E
100
AcDbEntity
  8
0
100
AcDbLine
 10
55.5391
 20
6.91903
 30
0.0
 11
59.086
 21
10.0963
 31
0.0
  0
LINE
  5
42
330
1E
100
AcDbEntity
  8
0
100
AcDbLine
 10
34.5
 20
9.5
 30
0.0
 11
40.89999999999999
 21
10.4
 31
0.0
  0
LINE
  5
43
330
1E
100
AcDbEntity
  8
0
100
AcDbLine
 10
49.2
 20
8.900000000000009
 30
0.0
 11
55.4
 21
13.6
 31
0.0
  0
LINE
  5
44
330
1E
100
AcDbEntity
  8
0
100
AcDbLine
 10
59.086
 20
10.0963
 30
0.0
 11
62.081
 21
13.4609
 31
0.0
  0
LINE
  5
45
330
1E
100
AcDbEntity
  8
0
100
AcDbLine
 10
58.9
 20
10.1
 30
0.0
 11
64.40000000000001
 21
17.3
 31
0.0
  0
LINE
  5
46
330
1E
100
AcDbEntity
  8
0
100
AcDbLine
 10
26.8
 20
6.000000000000009
 30
0.0
 11
34.5
 21
5.000000000000009
 31
0.0
  0
LINE
  5
47
330
1E
100
AcDbEntity
  8
0
100
AcDbLine
 10
19.8
 20
8.900000000000009
 30
0.0
 11
26.8
 21
6.000000000000009
 31
0.0
  0
LINE
  5
48
330
1E
100
AcDbEntity
  8
0
100
AcDbLine
 10
25.7
 20
1.800000000000009
 30
0.0
 11
34.5
 21
0.600000000000005
 31
0.0
  0
LINE
  5
49
330
1E
100
AcDbEntity
  8
0
100
AcDbLine
 10
17.6
 20
5.100000000000009
 30
0.0
 11
25.7
 21
1.800000000000009
 31
0.0
  0
LINE
  5
4A
330
1E
100
AcDbEntity
  8
0
100
AcDbLine
 10
17.6
 20
5.100000000000009
 30
0.0
 11
25.7
 21
1.800000000000009
 31
0.0
  0
LINE
  5
4B
330
1E
100
AcDbEntity
  8
0
100
AcDbLine
 10
25.5
 20
1.199999999999999
 30
0.0
 11
34.5
 21
0.000000000000002
 31
0.0
  0
LINE
  5
4C
330
1E
100
AcDbEntity
  8
0
100
AcDbLine
 10
25.5
 20
1.199999999999999
 30
0.0
 11
34.5
 21
0.0000000000000021
 31
0.0
  0
LINE
  5
4D
330
1E
100
AcDbEntity
  8
0
100
AcDbLine
 10
17.3
 20
4.599999999999999
 30
0.0
 11
25.5
 21
1.199999999999999
 31
0.0
  0
LINE
  5
4E
330
1E
100
AcDbEntity
  8
0
100
AcDbLine
 10
17.3
 20
4.599999999999999
 30
0.0
 11
25.5
 21
1.199999999999999
 31
0.0
  0
LINE
  5
4F
330
1E
100
AcDbEntity
  8
0
100
AcDbLine
 10
40.89999999999999
 20
10.4
 30
0.0
 11
46.9
 21
12.8
 31
0.0
  0
LINE
  5
50
330
1E
100
AcDbEntity
  8
0
100
AcDbLine
 10
58.5
 20
10.5
 30
0.0
 11
63.9
 21
17.6
 31
0.0
  0
LINE
  5
51
330
1E
100
AcDbEntity
  8
0
100
AcDbLine
 10
28.1
 20
10.4
 30
0.0
 11
34.5
 21
9.5
 31
0.0
  0
LINE
  5
52
330
1E
100
AcDbEntity
  8
0
100
AcDbLine
 10
6.91903
 20
13.4609
 30
0.0
 11
9.913999999999999
 21
10.0963
 31
0.0
  0
LINE
  5
53
330
1E
100
AcDbEntity
  8
0
100
AcDbLine
 10
46.9
 20
12.8
 30
0.0
 11
52.1
 21
16.89999999999999
 31
0.0
  0
LINE
  5
54
330
1E
100
AcDbEntity
  8
0
100
AcDbLine
 10
62.081
 20
13.4609
 30
0.0
 11
64.57429999999999
 21
17.3136
 31
0.0
  0
LINE
  5
55
330
1E
100
AcDbEntity
  8
0
100
AcDbLine
 10
55.4
 20
13.6
 30
0.0
 11
60.1
 21
19.8
 31
0.0
  0
LINE
  5
56
330
1E
100
AcDbEntity
  8
0
100
AcDbLine
 10
55.4
 20
13.6
 30
0.0
 11
60.1
 21
19.8
 31
0.0
  0
LINE
  5
57
330
1E
100
AcDbEntity
  8
0
100
AcDbLine
 10
22.1
 20
12.8
 30
0.0
 11
28.1
 21
10.4
 31
0.0
  0
LINE
  5
58
330
1E
100
AcDbEntity
  8
0
100
AcDbLine
 10
52.1
 20
16.89999999999999
 30
0.0
 11
56.2
 21
22.1
 31
0.0
  0
LINE
  5
59
330
1E
100
AcDbEntity
  8
0
100
AcDbLine
 10
56.2
 20
22.1
 30
0.0
 11
58.6
 21
28.1
 31
0.0
  0
LINE
  5
5A
330
1E
100
AcDbEntity
  8
0
100
AcDbLine
 10
60.1
 20
19.8
 30
0.0
 11
63.0
 21
26.8
 31
0.0
  0
LINE
  5
5B
330
1E
100
AcDbEntity
  8
0
100
AcDbLine
 10
63.9
 20
17.6
 30
0.0
 11
67.2
 21
25.7
 31
0.0
  0
LINE
  5
5C
330
1E
100
AcDbEntity
  8
0
100
AcDbLine
 10
64.57429999999999
 20
17.3136
 30
0.0
 11
66.5
 21
21.3
 31
0.0
  0
LINE
  5
5D
330
1E
100
AcDbEntity
  8
0
100
AcDbLine
 10
66.5
 20
21.3
 30
0.0
 11
67.9
 21
25.5
 31
0.0
  0
LINE
  5
5E
330
1E
100
AcDbEntity
  8
0
100
AcDbLine
 10
67.9
 20
25.5
 30
0.0
 11
68.79999999999999
 21
30.0
 31
0.0
  0
LINE
  5
5F
330
1E
100
AcDbEntity
  8
0
100
AcDbLine
 10
64.40000000000001
 20
17.3
 30
0.0
 11
67.8
 21
25.5
 31
0.0
  0
LINE
  5
60
330
1E
100
AcDbEntity
  8
0
100
AcDbLine
 10
16.89999999999999
 20
16.89999999999999
 30
0.0
 11
22.1
 21
12.8
 31
0.0
  0
LINE
  5
61
330
1E
100
AcDbEntity
  8
0
100
AcDbLine
 10
12.8
 20
22.1
 30
0.0
 11
16.89999999999999
 21
16.89999999999999
 31
0.0
  0
LINE
  5
62
330
1E
100
AcDbEntity
  8
0
100
AcDbLine
 10
13.6
 20
13.6
 30
0.0
 11
19.8
 21
8.900000000000009
 31
0.0
  0
LINE
  5
63
330
1E
100
AcDbEntity
  8
0
100
AcDbLine
 10
8.9
 20
19.8
 30
0.0
 11
13.6
 21
13.6
 31
0.0
  0
LINE
  5
64
330
1E
100
AcDbEntity
  8
0
100
AcDbLine
 10
10.5
 20
10.5
 30
0.0
 11
17.6
 21
5.100000000000009
 31
0.0
  0
LINE
  5
65
330
1E
100
AcDbEntity
  8
0
100
AcDbLine
 10
5.099999999999999
 20
17.6
 30
0.0
 11
10.5
 21
10.5
 31
0.0
  0
LINE
  5
66
330
1E
100
AcDbEntity
  8
0
100
AcDbLine
 10
10.1
 20
10.1
 30
0.0
 11
17.3
 21
4.599999999999999
 31
0.0
  0
LINE
  5
67
330
1E
100
AcDbEntity
  8
0
100
AcDbLine
 10
4.599999999999999
 20
17.3
 30
0.0
 11
10.1
 21
10.1
 31
0.0
  0
LINE
  5
68
330
1E
100
AcDbEntity
  8
0
100
AcDbLine
 10
0.2
 20
30.0
 30
0.0
 11
1.1
 21
25.5
 31
0.0
  0
LINE
  5
69
330
1E
100
AcDbEntity
  8
0
100
AcDbLine
 10
0.2
 20
30.0
 30
0.0
 11
1.1
 21
25.5
 31
0.0
  0
LINE
  5
6A
330
1E
100
AcDbEntity
  8
0
100
AcDbLine
 10
67.8
 20
25.5
 30
0.0
 11
69.0
 21
34.5
 31
0.0
  0
LINE
  5
6B
330
1E
100
AcDbEntity
  8
0
100
AcDbLine
 10
58.6
 20
28.1
 30
0.0
 11
59.5
 21
34.5
 31
0.0
  0
LINE
  5
6C
330
1E
100
AcDbEntity
  8
0
100
AcDbLine
 10
63.0
 20
26.8
 30
0.0
 11
64.0
 21
34.5
 31
0.0
  0
LINE
  5
6D
330
1E
100
AcDbEntity
  8
0
100
AcDbLine
 10
68.79999999999999
 20
30.0
 30
0.0
 11
69.0
 21
34.5
 31
0.0
  0
LINE
  5
6E
330
1E
100
AcDbEntity
  8
0
100
AcDbLine
 10
67.2
 20
25.7
 30
0.0
 11
68.4
 21
34.5
 31
0.0
  0
LINE
  5
6F
330
1E
100
AcDbEntity
  8
0
100
AcDbLine
 10
67.8
 20
25.5
 30
0.0
 11
69.0
 21
34.5
 31
0.0
  0
LINE
  5
70
330
1E
100
AcDbEntity
  8
0
100
AcDbLine
 10
10.4
 20
28.1
 30
0.0
 11
12.8
 21
22.1
 31
0.0
  0
LINE
  5
71
330
1E
100
AcDbEntity
  8
0
100
AcDbLine
 10
9.5
 20
34.5
 30
0.0
 11
10.4
 21
28.1
 31
0.0
  0
LINE
  5
72
330
1E
100
AcDbEntity
  8
0
100
AcDbLine
 10
9.5
 20
34.5
 30
0.0
 11
10.4
 21
40.89999999999999
 31
0.0
  0
LINE
  5
73
330
1E
100
AcDbEntity
  8
0
100
AcDbLine
 10
9.5
 20
34.5
 30
0.0
 11
10.4
 21
40.89999999999999
 31
0.0
  0
LINE
  5
74
330
1E
100
AcDbEntity
  8
0
100
AcDbLine
 10
6.0
 20
26.8
 30
0.0
 11
8.9
 21
19.8
 31
0.0
  0
LINE
  5
75
330
1E
100
AcDbEntity
  8
0
100
AcDbLine
 10
5.0
 20
34.5
 30
0.0
 11
6.0
 21
26.8
 31
0.0
  0
LINE
  5
76
330
1E
100
AcDbEntity
  8
0
100
AcDbLine
 10
5.0
 20
34.5
 30
0.0
 11
6.0
 21
42.2
 31
0.0
  0
LINE
  5
77
330
1E
100
AcDbEntity
  8
0
100
AcDbLine
 10
5.0
 20
34.5
 30
0.0
 11
6.0
 21
42.2
 31
0.0
  0
LINE
  5
78
330
1E
100
AcDbEntity
  8
0
100
AcDbLine
 10
1.8
 20
25.7
 30
0.0
 11
5.099999999999999
 21
17.6
 31
0.0
  0
LINE
  5
79
330
1E
100
AcDbEntity
  8
0
100
AcDbLine
 10
0.2
 20
39.0
 30
0.0
 11
1.1
 21
43.5
 31
0.0
  0
LINE
  5
7A
330
1E
100
AcDbEntity
  8
0
100
AcDbLine
 10
1.1
 20
43.5
 30
0.0
 11
2.5
 21
47.7
 31
0.0
  0
LINE
  5
7B
330
1E
100
AcDbEntity
  8
0
100
AcDbLine
 10
0.2
 20
39.0
 30
0.0
 11
1.1
 21
43.5
 31
0.0
  0
LINE
  5
7C
330
1E
100
AcDbEntity
  8
0
100
AcDbLine
 10
6.0
 20
42.2
 30
0.0
 11
8.9
 21
49.2
 31
0.0
  0
LINE
  5
7D
330
1E
100
AcDbEntity
  8
0
100
AcDbLine
 10
68.79999999999999
 20
39.0
 30
0.0
 11
69.0
 21
34.5
 31
0.0
  0
LINE
  5
7E
330
1E
100
AcDbEntity
  8
0
100
AcDbLine
 10
58.6
 20
40.89999999999999
 30
0.0
 11
59.5
 21
34.5
 31
0.0
  0
LINE
  5
7F
330
1E
100
AcDbEntity
  8
0
100
AcDbLine
 10
58.6
 20
40.89999999999999
 30
0.0
 11
59.5
 21
34.5
 31
0.0
  0
LINE
  5
80
330
1E
100
AcDbEntity
  8
0
100
AcDbLine
 10
10.4
 20
40.89999999999999
 30
0.0
 11
12.8
 21
46.9
 31
0.0
  0
LINE
  5
81
330
1E
100
AcDbEntity
  8
0
100
AcDbLine
 10
63.0
 20
42.2
 30
0.0
 11
64.0
 21
34.5
 31
0.0
  0
LINE
  5
82
330
1E
100
AcDbEntity
  8
0
100
AcDbLine
 10
67.2
 20
43.3
 30
0.0
 11
68.4
 21
34.5
 31
0.0
  0
LINE
  5
83
330
1E
100
AcDbEntity
  8
0
100
AcDbLine
 10
10.4
 20
40.89999999999999
 30
0.0
 11
12.8
 21
46.9
 31
0.0
  0
LINE
  5
84
330
1E
100
AcDbEntity
  8
0
100
AcDbLine
 10
6.0
 20
42.2
 30
0.0
 11
8.9
 21
49.2
 31
0.0
  0
LINE
  5
85
330
1E
100
AcDbEntity
  8
0
100
AcDbLine
 10
2.5
 20
47.7
 30
0.0
 11
4.42573
 21
51.68639999999999
 31
0.0
  0
LINE
  5
86
330
1E
100
AcDbEntity
  8
0
100
AcDbLine
 10
4.42573
 20
51.68639999999999
 30
0.0
 11
6.91903
 21
55.5391
 31
0.0
  0
LINE
  5
87
330
1E
100
AcDbEntity
  8
0
100
AcDbLine
 10
56.2
 20
46.9
 30
0.0
 11
58.6
 21
40.89999999999999
 31
0.0
  0
LINE
  5
88
330
1E
100
AcDbEntity
  8
0
100
AcDbLine
 10
56.2
 20
46.9
 30
0.0
 11
58.6
 21
40.89999999999999
 31
0.0
  0
LINE
  5
89
330
1E
100
AcDbEntity
  8
0
100
AcDbLine
 10
67.9
 20
43.5
 30
0.0
 11
68.79999999999999
 21
39.0
 31
0.0
  0
LINE
  5
8A
330
1E
100
AcDbEntity
  8
0
100
AcDbLine
 10
67.8
 20
43.5
 30
0.0
 11
69.0
 21
34.5
 31
0.0
  0
LINE
  5
8B
330
1E
100
AcDbEntity
  8
0
100
AcDbLine
 10
60.1
 20
49.2
 30
0.0
 11
63.0
 21
42.2
 31
0.0
  0
LINE
  5
8C
330
1E
100
AcDbEntity
  8
0
100
AcDbLine
 10
66.5
 20
47.7
 30
0.0
 11
67.9
 21
43.5
 31
0.0
  0
LINE
  5
8D
330
1E
100
AcDbEntity
  8
0
100
AcDbLine
 10
60.1
 20
49.2
 30
0.0
 11
63.0
 21
42.2
 31
0.0
  0
LINE
  5
8E
330
1E
100
AcDbEntity
  8
0
100
AcDbLine
 10
12.8
 20
46.9
 30
0.0
 11
16.89999999999999
 21
52.1
 31
0.0
  0
LINE
  5
8F
330
1E
100
AcDbEntity
  8
0
100
AcDbLine
 10
8.9
 20
49.2
 30
0.0
 11
13.6
 21
55.4
 31
0.0
  0
LINE
  5
90
330
1E
100
AcDbEntity
  8
0
100
AcDbLine
 10
63.9
 20
51.4
 30
0.0
 11
67.2
 21
43.3
 31
0.0
  0
LINE
  5
91
330
1E
100
AcDbEntity
  8
0
100
AcDbLine
 10
64.57429999999999
 20
51.68639999999999
 30
0.0
 11
66.5
 21
47.7
 31
0.0
  0
LINE
  5
92
330
1E
100
AcDbEntity
  8
0
100
AcDbLine
 10
64.40000000000001
 20
51.7
 30
0.0
 11
67.8
 21
43.5
 31
0.0
  0
LINE
  5
93
330
1E
100
AcDbEntity
  8
0
100
AcDbLine
 10
8.9
 20
49.2
 30
0.0
 11
13.6
 21
55.4
 31
0.0
  0
LINE
  5
94
330
1E
100
AcDbEntity
  8
0
100
AcDbLine
 10
5.099999999999999
 20
51.4
 30
0.0
 11
10.5
 21
58.5
 31
0.0
  0
LINE
  5
95
330
1E
100
AcDbEntity
  8
0
100
AcDbLine
 10
1.8
 20
43.3
 30
0.0
 11
5.099999999999999
 21
51.4
 31
0.0
  0
LINE
  5
96
330
1E
100
AcDbEntity
  8
0
100
AcDbLine
 10
1.199999999999999
 20
43.5
 30
0.0
 11
4.599999999999999
 21
51.7
 31
0.0
  0
LINE
  5
97
330
1E
100
AcDbEntity
  8
0
100
AcDbLine
 10
6.91903
 20
55.5391
 30
0.0
 11
9.913999999999999
 21
58.9037
 31
0.0
  0
LINE
  5
98
330
1E
100
AcDbEntity
  8
0
100
AcDbLine
 10
8.0
 20
109.0
 30
0.0
 11
9.0
 21
109.0
 31
0.0
  0
LINE
  5
99
330
1E
100
AcDbEntity
  8
0
100
AcDbLine
 10
8.5
 20
109.4999999999999
 30
0.0
 11
11.1
 21
109.4999999999999
 31
0.0
  0
LINE
  5
9A
330
1E
100
AcDbEntity
  8
0
100
AcDbLine
 10
7.5
 20
109.4999999999999
 30
0.0
 11
8.5
 21
109.4999999999999
 31
0.0
  0
LINE
  5
9B
330
1E
100
AcDbEntity
  8
0
100
AcDbLine
 10
7.5
 20
109.4999999999999
 30
0.0
 11
8.0
 21
109.0
 31
0.0
  0
LINE
  5
9C
330
1E
100
AcDbEntity
  8
0
100
AcDbLine
 10
7.5
 20
109.4999999999999
 30
0.0
 11
7.5
 21
119.0
 31
0.0
  0
LINE
  5
9D
330
1E
100
AcDbEntity
  8
0
100
AcDbLine
 10
9.913999999999999
 20
58.9037
 30
0.0
 11
13.4609
 21
62.081
 31
0.0
  0
LINE
  5
9E
330
1E
100
AcDbEntity
  8
0
100
AcDbLine
 10
9.0
 20
109.0
 30
0.0
 11
11.5
 21
109.0
 31
0.0
  0
LINE
  5
9F
330
1E
100
AcDbEntity
  8
0
100
AcDbLine
 10
8.5
 20
119.0
 30
0.0
 11
11.1
 21
119.0
 31
0.0
  0
LINE
  5
A0
330
1E
100
AcDbEntity
  8
0
100
AcDbLine
 10
7.5
 20
119.0
 30
0.0
 11
8.5
 21
119.0
 31
0.0
  0
LINE
  5
A1
330
1E
100
AcDbEntity
  8
0
100
AcDbLine
 10
7.5
 20
119.0
 30
0.0
 11
7.5
 21
109.4999999999999
 31
0.0
  0
LINE
  5
A2
330
1E
100
AcDbEntity
  8
0
100
AcDbLine
 10
13.4609
 20
62.081
 30
0.0
 11
17.3136
 21
64.57429999999999
 31
0.0
  0
LINE
  5
A3
330
1E
100
AcDbEntity
  8
0
100
AcDbLine
 10
13.6
 20
55.4
 30
0.0
 11
19.8
 21
60.1
 31
0.0
  0
LINE
  5
A4
330
1E
100
AcDbEntity
  8
0
100
AcDbLine
 10
16.89999999999999
 20
52.1
 30
0.0
 11
22.1
 21
56.2
 31
0.0
  0
LINE
  5
A5
330
1E
100
AcDbEntity
  8
0
100
AcDbLine
 10
52.1
 20
52.1
 30
0.0
 11
56.2
 21
46.9
 31
0.0
  0
LINE
  5
A6
330
1E
100
AcDbEntity
  8
0
100
AcDbLine
 10
52.1
 20
52.1
 30
0.0
 11
56.2
 21
46.9
 31
0.0
  0
LINE
  5
A7
330
1E
100
AcDbEntity
  8
0
100
AcDbLine
 10
55.4
 20
55.4
 30
0.0
 11
60.1
 21
49.2
 31
0.0
  0
LINE
  5
A8
330
1E
100
AcDbEntity
  8
0
100
AcDbLine
 10
46.9
 20
56.2
 30
0.0
 11
52.1
 21
52.1
 31
0.0
  0
LINE
  5
A9
330
1E
100
AcDbEntity
  8
0
100
AcDbLine
 10
62.081
 20
55.5391
 30
0.0
 11
64.57429999999999
 21
51.68639999999999
 31
0.0
  0
LINE
  5
AA
330
1E
100
AcDbEntity
  8
0
100
AcDbLine
 10
46.9
 20
56.2
 30
0.0
 11
52.1
 21
52.1
 31
0.0
  0
LINE
  5
AB
330
1E
100
AcDbEntity
  8
0
100
AcDbLine
 10
55.4
 20
55.4
 30
0.0
 11
60.1
 21
49.2
 31
0.0
  0
LINE
  5
AC
330
1E
100
AcDbEntity
  8
0
100
AcDbLine
 10
22.1
 20
56.2
 30
0.0
 11
28.1
 21
58.6
 31
0.0
  0
LINE
  5
AD
330
1E
100
AcDbEntity
  8
0
100
AcDbLine
 10
28.1
 20
58.6
 30
0.0
 11
34.5
 21
59.5
 31
0.0
  0
LINE
  5
AE
330
1E
100
AcDbEntity
  8
0
100
AcDbLine
 10
40.89999999999999
 20
58.6
 30
0.0
 11
46.9
 21
56.2
 31
0.0
  0
LINE
  5
AF
330
1E
100
AcDbEntity
  8
0
100
AcDbLine
 10
34.5
 20
59.5
 30
0.0
 11
40.89999999999999
 21
58.6
 31
0.0
  0
LINE
  5
B0
330
1E
100
AcDbEntity
  8
0
100
AcDbLine
 10
34.5
 20
59.5
 30
0.0
 11
40.89999999999999
 21
58.6
 31
0.0
  0
LINE
  5
B1
330
1E
100
AcDbEntity
  8
0
100
AcDbLine
 10
40.89999999999999
 20
58.6
 30
0.0
 11
46.9
 21
56.2
 31
0.0
  0
LINE
  5
B2
330
1E
100
AcDbEntity
  8
0
100
AcDbLine
 10
49.2
 20
60.1
 30
0.0
 11
55.4
 21
55.4
 31
0.0
  0
LINE
  5
B3
330
1E
100
AcDbEntity
  8
0
100
AcDbLine
 10
49.2
 20
60.1
 30
0.0
 11
55.4
 21
55.4
 31
0.0
  0
LINE
  5
B4
330
1E
100
AcDbEntity
  8
0
100
AcDbLine
 10
58.5
 20
58.5
 30
0.0
 11
63.9
 21
51.4
 31
0.0
  0
LINE
  5
B5
330
1E
100
AcDbEntity
  8
0
100
AcDbLine
 10
59.086
 20
58.9037
 30
0.0
 11
62.081
 21
55.5391
 31
0.0
  0
LINE
  5
B6
330
1E
100
AcDbEntity
  8
0
100
AcDbLine
 10
58.9
 20
58.9
 30
0.0
 11
64.40000000000001
 21
51.7
 31
0.0
  0
LINE
  5
B7
330
1E
100
AcDbEntity
  8
0
100
AcDbLine
 10
58.5
 20
58.5
 30
0.0
 11
63.9
 21
51.4
 31
0.0
  0
LINE
  5
B8
330
1E
100
AcDbEntity
  8
0
100
AcDbLine
 10
28.1
 20
58.6
 30
0.0
 11
34.5
 21
59.5
 31
0.0
  0
LINE
  5
B9
330
1E
100
AcDbEntity
  8
0
100
AcDbLine
 10
22.1
 20
56.2
 30
0.0
 11
28.1
 21
58.6
 31
0.0
  0
LINE
  5
BA
330
1E
100
AcDbEntity
  8
0
100
AcDbLine
 10
16.89999999999999
 20
52.1
 30
0.0
 11
22.1
 21
56.2
 31
0.0
  0
LINE
  5
BB
330
1E
100
AcDbEntity
  8
0
100
AcDbLine
 10
55.5391
 20
62.081
 30
0.0
 11
59.086
 21
58.9037
 31
0.0
  0
LINE
  5
BC
330
1E
100
AcDbEntity
  8
0
100
AcDbLine
 10
42.2
 20
63.0
 30
0.0
 11
49.2
 21
60.1
 31
0.0
  0
LINE
  5
BD
330
1E
100
AcDbEntity
  8
0
100
AcDbLine
 10
51.4
 20
63.9
 30
0.0
 11
58.5
 21
58.5
 31
0.0
  0
LINE
  5
BE
330
1E
100
AcDbEntity
  8
0
100
AcDbLine
 10
26.8
 20
63.0
 30
0.0
 11
34.5
 21
64.0
 31
0.0
  0
LINE
  5
BF
330
1E
100
AcDbEntity
  8
0
100
AcDbLine
 10
19.8
 20
60.1
 30
0.0
 11
26.8
 21
63.0
 31
0.0
  0
LINE
  5
C0
330
1E
100
AcDbEntity
  8
0
100
AcDbLine
 10
13.6
 20
55.4
 30
0.0
 11
19.8
 21
60.1
 31
0.0
  0
LINE
  5
C1
330
1E
100
AcDbEntity
  8
0
100
AcDbLine
 10
34.5
 20
64.0
 30
0.0
 11
42.2
 21
63.0
 31
0.0
  0
LINE
  5
C2
330
1E
100
AcDbEntity
  8
0
100
AcDbLine
 10
51.7
 20
64.40000000000001
 30
0.0
 11
58.9
 21
58.9
 31
0.0
  0
LINE
  5
C3
330
1E
100
AcDbEntity
  8
0
100
AcDbLine
 10
17.6
 20
63.9
 30
0.0
 11
25.7
 21
67.2
 31
0.0
  0
LINE
  5
C4
330
1E
100
AcDbEntity
  8
0
100
AcDbLine
 10
10.5
 20
58.5
 30
0.0
 11
17.6
 21
63.9
 31
0.0
  0
LINE
  5
C5
330
1E
100
AcDbEntity
  8
0
100
AcDbLine
 10
11.5
 20
109.0
 30
0.0
 11
15.8
 21
109.0
 31
0.0
  0
LINE
  5
C6
330
1E
100
AcDbEntity
  8
0
100
AcDbLine
 10
15.4
 20
109.4999999999999
 30
0.0
 11
21.1
 21
109.4999999999999
 31
0.0
  0
LINE
  5
C7
330
1E
100
AcDbEntity
  8
0
100
AcDbLine
 10
11.1
 20
109.4999999999999
 30
0.0
 11
15.4
 21
109.4999999999999
 31
0.0
  0
LINE
  5
C8
330
1E
100
AcDbEntity
  8
0
100
AcDbLine
 10
16.5
 20
91.5
 30
0.0
 11
17.19999999999999
 21
91.5
 31
0.0
  0
LINE
  5
C9
330
1E
100
AcDbEntity
  8
0
100
AcDbLine
 10
16.5
 20
91.5
 30
0.0
 11
17.0
 21
91.0
 31
0.0
  0
LINE
  5
CA
330
1E
100
AcDbEntity
  8
0
100
AcDbLine
 10
16.5
 20
91.5
 30
0.0
 11
16.5
 21
109.0
 31
0.0
  0
LINE
  5
CB
330
1E
100
AcDbEntity
  8
0
100
AcDbLine
 10
17.3136
 20
64.57429999999999
 30
0.0
 11
21.3
 21
66.5
 31
0.0
  0
LINE
  5
CC
330
1E
100
AcDbEntity
  8
0
100
AcDbLine
 10
17.6
 20
91.0
 30
0.0
 11
19.3
 21
91.0
 31
0.0
  0
LINE
  5
CD
330
1E
100
AcDbEntity
  8
0
100
AcDbLine
 10
17.0
 20
91.0
 30
0.0
 11
17.6
 21
91.0
 31
0.0
  0
LINE
  5
CE
330
1E
100
AcDbEntity
  8
0
100
AcDbLine
 10
18.89999999999999
 20
91.5
 30
0.0
 11
21.8
 21
91.5
 31
0.0
  0
LINE
  5
CF
330
1E
100
AcDbEntity
  8
0
100
AcDbLine
 10
17.19999999999999
 20
91.5
 30
0.0
 11
18.89999999999999
 21
91.5
 31
0.0
  0
LINE
  5
D0
330
1E
100
AcDbEntity
  8
0
100
AcDbLine
 10
19.3
 20
91.0
 30
0.0
 11
22.1
 21
91.0
 31
0.0
  0
LINE
  5
D1
330
1E
100
AcDbEntity
  8
0
100
AcDbLine
 10
18.89999999999999
 20
109.0
 30
0.0
 11
21.8
 21
109.0
 31
0.0
  0
LINE
  5
D2
330
1E
100
AcDbEntity
  8
0
100
AcDbLine
 10
17.19999999999999
 20
109.0
 30
0.0
 11
18.89999999999999
 21
109.0
 31
0.0
  0
LINE
  5
D3
330
1E
100
AcDbEntity
  8
0
100
AcDbLine
 10
16.5
 20
109.0
 30
0.0
 11
17.19999999999999
 21
109.0
 31
0.0
  0
LINE
  5
D4
330
1E
100
AcDbEntity
  8
0
100
AcDbLine
 10
16.5
 20
109.0
 30
0.0
 11
16.5
 21
91.5
 31
0.0
  0
LINE
  5
D5
330
1E
100
AcDbEntity
  8
0
100
AcDbLine
 10
15.8
 20
109.0
 30
0.0
 11
21.3
 21
109.0
 31
0.0
  0
LINE
  5
D6
330
1E
100
AcDbEntity
  8
0
100
AcDbLine
 10
15.8
 20
109.0
 30
0.0
 11
16.5
 21
109.0
 31
0.0
  0
LINE
  5
D7
330
1E
100
AcDbEntity
  8
0
100
AcDbLine
 10
21.3
 20
66.5
 30
0.0
 11
25.1
 21
69.40000000000001
 31
0.0
  0
LINE
  5
D8
330
1E
100
AcDbEntity
  8
0
100
AcDbLine
 10
21.8
 20
91.5
 30
0.0
 11
25.6
 21
91.5
 31
0.0
  0
LINE
  5
D9
330
1E
100
AcDbEntity
  8
0
100
AcDbLine
 10
25.1
 20
69.40000000000001
 30
0.0
 11
28.39999999999999
 21
72.8
 31
0.0
  0
LINE
  5
DA
330
1E
100
AcDbEntity
  8
0
100
AcDbLine
 10
24.1
 20
91.0
 30
0.0
 11
26.0
 21
91.0
 31
0.0
  0
LINE
  5
DB
330
1E
100
AcDbEntity
  8
0
100
AcDbLine
 10
22.9
 20
91.0
 30
0.0
 11
24.1
 21
91.0
 31
0.0
  0
LINE
  5
DC
330
1E
100
AcDbEntity
  8
0
100
AcDbLine
 10
24.0
 20
89.0
 30
0.0
 11
27.5
 21
87.5
 31
0.0
  0
LINE
  5
DD
330
1E
100
AcDbEntity
  8
0
100
AcDbLine
 10
22.5
 20
91.0
 30
0.0
 11
24.0
 21
89.0
 31
0.0
  0
LINE
  5
DE
330
1E
100
AcDbEntity
  8
0
100
AcDbLine
 10
22.5
 20
91.0
 30
0.0
 11
22.9
 21
91.0
 31
0.0
  0
LINE
  5
DF
330
1E
100
AcDbEntity
  8
0
100
AcDbLine
 10
22.1
 20
91.0
 30
0.0
 11
25.8
 21
91.0
 31
0.0
  0
LINE
  5
E0
330
1E
100
AcDbEntity
  8
0
100
AcDbLine
 10
22.1
 20
91.0
 30
0.0
 11
22.5
 21
91.0
 31
0.0
  0
LINE
  5
E1
330
1E
100
AcDbEntity
  8
0
100
AcDbLine
 10
21.8
 20
109.0
 30
0.0
 11
25.6
 21
109.0
 31
0.0
  0
LINE
  5
E2
330
1E
100
AcDbEntity
  8
0
100
AcDbLine
 10
21.3
 20
109.0
 30
0.0
 11
27.7
 21
109.0
 31
0.0
  0
LINE
  5
E3
330
1E
100
AcDbEntity
  8
0
100
AcDbLine
 10
21.1
 20
109.4999999999999
 30
0.0
 11
27.6
 21
109.4999999999999
 31
0.0
  0
LINE
  5
E4
330
1E
100
AcDbEntity
  8
0
100
AcDbLine
 10
21.1
 20
119.0
 30
0.0
 11
27.6
 21
119.0
 31
0.0
  0
LINE
  5
E5
330
1E
100
AcDbEntity
  8
0
100
AcDbLine
 10
15.4
 20
119.0
 30
0.0
 11
21.1
 21
119.0
 31
0.0
  0
LINE
  5
E6
330
1E
100
AcDbEntity
  8
0
100
AcDbLine
 10
11.1
 20
119.0
 30
0.0
 11
15.4
 21
119.0
 31
0.0
  0
LINE
  5
E7
330
1E
100
AcDbEntity
  8
0
100
AcDbLine
 10
47.7
 20
66.5
 30
0.0
 11
51.68639999999999
 21
64.57429999999999
 31
0.0
  0
LINE
  5
E8
330
1E
100
AcDbEntity
  8
0
100
AcDbLine
 10
51.68639999999999
 20
64.57429999999999
 30
0.0
 11
55.5391
 21
62.081
 31
0.0
  0
LINE
  5
E9
330
1E
100
AcDbEntity
  8
0
100
AcDbLine
 10
43.3
 20
67.2
 30
0.0
 11
51.4
 21
63.9
 31
0.0
  0
LINE
  5
EA
330
1E
100
AcDbEntity
  8
0
100
AcDbLine
 10
34.29999999999999
 20
69.0
 30
0.0
 11
37.2
 21
74.59999999999999
 31
0.0
  0
LINE
  5
EB
330
1E
100
AcDbEntity
  8
0
100
AcDbLine
 10
43.5
 20
67.9
 30
0.0
 11
47.7
 21
66.5
 31
0.0
  0
LINE
  5
EC
330
1E
100
AcDbEntity
  8
0
100
AcDbLine
 10
39.0
 20
68.79999999999999
 30
0.0
 11
43.5
 21
67.9
 31
0.0
  0
LINE
  5
ED
330
1E
100
AcDbEntity
  8
0
100
AcDbLine
 10
34.5
 20
68.4
 30
0.0
 11
43.3
 21
67.2
 31
0.0
  0
LINE
  5
EE
330
1E
100
AcDbEntity
  8
0
100
AcDbLine
 10
25.6
 20
91.5
 30
0.0
 11
29.9
 21
91.5
 31
0.0
  0
LINE
  5
EF
330
1E
100
AcDbEntity
  8
0
100
AcDbLine
 10
26.0
 20
91.0
 30
0.0
 11
28.5
 21
91.0
 31
0.0
  0
LINE
  5
F0
330
1E
100
AcDbEntity
  8
0
100
AcDbLine
 10
27.5
 20
87.5
 30
0.0
 11
31.0
 21
87.0
 31
0.0
  0
LINE
  5
F1
330
1E
100
AcDbEntity
  8
0
100
AcDbLine
 10
25.8
 20
91.0
 30
0.0
 11
30.0
 21
91.0
 31
0.0
  0
LINE
  5
F2
330
1E
100
AcDbEntity
  8
0
100
AcDbLine
 10
25.6
 20
109.0
 30
0.0
 11
29.9
 21
109.0
 31
0.0
  0
LINE
  5
F3
330
1E
100
AcDbEntity
  8
0
100
AcDbLine
 10
27.6
 20
109.4999999999999
 30
0.0
 11
34.5
 21
109.4999999999999
 31
0.0
  0
LINE
  5
F4
330
1E
100
AcDbEntity
  8
0
100
AcDbLine
 10
28.39999999999999
 20
72.8
 30
0.0
 11
30.5
 21
76.7
 31
0.0
  0
LINE
  5
F5
330
1E
100
AcDbEntity
  8
0
100
AcDbLine
 10
28.5
 20
91.0
 30
0.0
 11
31.4
 21
91.0
 31
0.0
  0
LINE
  5
F6
330
1E
100
AcDbEntity
  8
0
100
AcDbLine
 10
29.9
 20
91.5
 30
0.0
 11
34.5
 21
91.5
 31
0.0
  0
LINE
  5
F7
330
1E
100
AcDbEntity
  8
0
100
AcDbLine
 10
31.0
 20
80.0
 30
0.0
 11
31.0
 21
87.0
 31
0.0
  0
LINE
  5
F8
330
1E
100
AcDbEntity
  8
0
100
AcDbLine
 10
30.5
 20
76.7
 30
0.0
 11
31.0
 21
80.0
 31
0.0
  0
LINE
  5
F9
330
1E
100
AcDbEntity
  8
0
100
AcDbLine
 10
34.5
 20
87.0
 30
0.0
 11
35.4
 21
87.0
 31
0.0
  0
LINE
  5
FA
330
1E
100
AcDbEntity
  8
0
100
AcDbLine
 10
33.6
 20
87.0
 30
0.0
 11
34.5
 21
87.0
 31
0.0
  0
LINE
  5
FB
330
1E
100
AcDbEntity
  8
0
100
AcDbLine
 10
32.79999999999999
 20
87.0
 30
0.0
 11
33.6
 21
87.0
 31
0.0
  0
LINE
  5
FC
330
1E
100
AcDbEntity
  8
0
100
AcDbLine
 10
32.0
 20
87.0
 30
0.0
 11
32.79999999999999
 21
87.0
 31
0.0
  0
LINE
  5
FD
330
1E
100
AcDbEntity
  8
0
100
AcDbLine
 10
31.5
 20
87.0
 30
0.0
 11
32.0
 21
87.0
 31
0.0
  0
LINE
  5
FE
330
1E
100
AcDbEntity
  8
0
100
AcDbLine
 10
31.1
 20
87.0
 30
0.0
 11
31.5
 21
87.0
 31
0.0
  0
LINE
  5
FF
330
1E
100
AcDbEntity
  8
0
100
AcDbLine
 10
31.0
 20
87.0
 30
0.0
 11
31.1
 21
87.0
 31
0.0
  0
LINE
  5
100
330
1E
100
AcDbEntity
  8
0
100
AcDbLine
 10
31.0
 20
87.0
 30
0.0
 11
31.0
 21
80.0
 31
0.0
  0
LINE
  5
101
330
1E
100
AcDbEntity
  8
0
100
AcDbLine
 10
31.4
 20
91.0
 30
0.0
 11
34.5
 21
91.0
 31
0.0
  0
LINE
  5
102
330
1E
100
AcDbEntity
  8
0
100
AcDbLine
 10
38.0
 20
87.0
 30
0.0
 11
38.0
 21
80.0
 31
0.0
  0
LINE
  5
103
330
1E
100
AcDbEntity
  8
0
100
AcDbLine
 10
38.0
 20
87.0
 30
0.0
 11
41.5
 21
87.5
 31
0.0
  0
LINE
  5
104
330
1E
100
AcDbEntity
  8
0
100
AcDbLine
 10
37.9
 20
87.0
 30
0.0
 11
38.0
 21
87.0
 31
0.0
  0
LINE
  5
105
330
1E
100
AcDbEntity
  8
0
100
AcDbLine
 10
38.0
 20
80.0
 30
0.0
 11
38.0
 21
87.0
 31
0.0
  0
LINE
  5
106
330
1E
100
AcDbEntity
  8
0
100
AcDbLine
 10
37.5
 20
87.0
 30
0.0
 11
37.9
 21
87.0
 31
0.0
  0
LINE
  5
107
330
1E
100
AcDbEntity
  8
0
100
AcDbLine
 10
37.0
 20
87.0
 30
0.0
 11
37.5
 21
87.0
 31
0.0
  0
LINE
  5
108
330
1E
100
AcDbEntity
  8
0
100
AcDbLine
 10
37.6
 20
91.0
 30
0.0
 11
40.49999999999999
 21
91.0
 31
0.0
  0
LINE
  5
109
330
1E
100
AcDbEntity
  8
0
100
AcDbLine
 10
40.49999999999999
 20
91.0
 30
0.0
 11
43.0
 21
91.0
 31
0.0
  0
LINE
  5
10A
330
1E
100
AcDbEntity
  8
0
100
AcDbLine
 10
43.0
 20
91.0
 30
0.0
 11
44.9
 21
91.0
 31
0.0
  0
LINE
  5
10B
330
1E
100
AcDbEntity
  8
0
100
AcDbLine
 10
41.5
 20
87.5
 30
0.0
 11
45.0
 21
89.0
 31
0.0
  0
LINE
  5
10C
330
1E
100
AcDbEntity
  8
0
100
AcDbLine
 10
36.2
 20
87.0
 30
0.0
 11
37.0
 21
87.0
 31
0.0
  0
LINE
  5
10D
330
1E
100
AcDbEntity
  8
0
100
AcDbLine
 10
35.4
 20
87.0
 30
0.0
 11
36.2
 21
87.0
 31
0.0
  0
LINE
  5
10E
330
1E
100
AcDbEntity
  8
0
100
AcDbLine
 10
37.2
 20
74.59999999999999
 30
0.0
 11
38.0
 21
80.0
 31
0.0
  0
LINE
  5
10F
330
1E
100
AcDbEntity
  8
0
100
AcDbLine
 10
34.5
 20
91.0
 30
0.0
 11
39.0
 21
91.0
 31
0.0
  0
LINE
  5
110
330
1E
100
AcDbEntity
  8
0
100
AcDbLine
 10
34.5
 20
91.0
 30
0.0
 11
37.6
 21
91.0
 31
0.0
  0
LINE
  5
111
330
1E
100
AcDbEntity
  8
0
100
AcDbLine
 10
39.0
 20
91.0
 30
0.0
 11
43.2
 21
91.0
 31
0.0
  0
LINE
  5
112
330
1E
100
AcDbEntity
  8
0
100
AcDbLine
 10
43.2
 20
91.0
 30
0.0
 11
46.9
 21
91.0
 31
0.0
  0
LINE
  5
113
330
1E
100
AcDbEntity
  8
0
100
AcDbLine
 10
34.5
 20
91.5
 30
0.0
 11
39.1
 21
91.5
 31
0.0
  0
LINE
  5
114
330
1E
100
AcDbEntity
  8
0
100
AcDbLine
 10
39.1
 20
91.5
 30
0.0
 11
43.39999999999999
 21
91.5
 31
0.0
  0
LINE
  5
115
330
1E
100
AcDbEntity
  8
0
100
AcDbLine
 10
39.1
 20
109.0
 30
0.0
 11
43.39999999999999
 21
109.0
 31
0.0
  0
LINE
  5
116
330
1E
100
AcDbEntity
  8
0
100
AcDbLine
 10
34.5
 20
109.0
 30
0.0
 11
41.29999999999999
 21
109.0
 31
0.0
  0
LINE
  5
117
330
1E
100
AcDbEntity
  8
0
100
AcDbLine
 10
34.5
 20
109.0
 30
0.0
 11
39.1
 21
109.0
 31
0.0
  0
LINE
  5
118
330
1E
100
AcDbEntity
  8
0
100
AcDbLine
 10
43.39999999999999
 20
91.5
 30
0.0
 11
47.2
 21
91.5
 31
0.0
  0
LINE
  5
119
330
1E
100
AcDbEntity
  8
0
100
AcDbLine
 10
43.39999999999999
 20
109.0
 30
0.0
 11
47.2
 21
109.0
 31
0.0
  0
LINE
  5
11A
330
1E
100
AcDbEntity
  8
0
100
AcDbLine
 10
41.29999999999999
 20
109.0
 30
0.0
 11
47.7
 21
109.0
 31
0.0
  0
LINE
  5
11B
330
1E
100
AcDbEntity
  8
0
100
AcDbLine
 10
30.0
 20
91.0
 30
0.0
 11
34.5
 21
91.0
 31
0.0
  0
LINE
  5
11C
330
1E
100
AcDbEntity
  8
0
100
AcDbLine
 10
29.9
 20
109.0
 30
0.0
 11
34.5
 21
109.0
 31
0.0
  0
LINE
  5
11D
330
1E
100
AcDbEntity
  8
0
100
AcDbLine
 10
34.5
 20
109.4999999999999
 30
0.0
 11
41.39999999999999
 21
109.4999999999999
 31
0.0
  0
LINE
  5
11E
330
1E
100
AcDbEntity
  8
0
100
AcDbLine
 10
41.39999999999999
 20
109.4999999999999
 30
0.0
 11
47.9
 21
109.4999999999999
 31
0.0
  0
LINE
  5
11F
330
1E
100
AcDbEntity
  8
0
100
AcDbLine
 10
34.5
 20
119.0
 30
0.0
 11
41.39999999999999
 21
119.0
 31
0.0
  0
LINE
  5
120
330
1E
100
AcDbEntity
  8
0
100
AcDbLine
 10
41.39999999999999
 20
119.0
 30
0.0
 11
47.9
 21
119.0
 31
0.0
  0
LINE
  5
121
330
1E
100
AcDbEntity
  8
0
100
AcDbLine
 10
27.7
 20
109.0
 30
0.0
 11
34.5
 21
109.0
 31
0.0
  0
LINE
  5
122
330
1E
100
AcDbEntity
  8
0
100
AcDbLine
 10
27.6
 20
119.0
 30
0.0
 11
34.5
 21
119.0
 31
0.0
  0
LINE
  5
123
330
1E
100
AcDbEntity
  8
0
100
AcDbLine
 10
34.5
 20
69.0
 30
0.0
 11
43.5
 21
67.8
 31
0.0
  0
LINE
  5
124
330
1E
100
AcDbEntity
  8
0
100
AcDbLine
 10
34.5
 20
69.0
 30
0.0
 11
39.0
 21
68.79999999999999
 31
0.0
  0
LINE
  5
125
330
1E
100
AcDbEntity
  8
0
100
AcDbLine
 10
44.9
 20
91.0
 30
0.0
 11
46.1
 21
91.0
 31
0.0
  0
LINE
  5
126
330
1E
100
AcDbEntity
  8
0
100
AcDbLine
 10
46.1
 20
91.0
 30
0.0
 11
46.5
 21
91.0
 31
0.0
  0
LINE
  5
127
330
1E
100
AcDbEntity
  8
0
100
AcDbLine
 10
45.0
 20
89.0
 30
0.0
 11
46.5
 21
91.0
 31
0.0
  0
LINE
  5
128
330
1E
100
AcDbEntity
  8
0
100
AcDbLine
 10
46.5
 20
91.0
 30
0.0
 11
46.9
 21
91.0
 31
0.0
  0
LINE
  5
129
330
1E
100
AcDbEntity
  8
0
100
AcDbLine
 10
46.9
 20
91.0
 30
0.0
 11
49.7
 21
91.0
 31
0.0
  0
LINE
  5
12A
330
1E
100
AcDbEntity
  8
0
100
AcDbLine
 10
47.2
 20
91.5
 30
0.0
 11
50.1
 21
91.5
 31
0.0
  0
LINE
  5
12B
330
1E
100
AcDbEntity
  8
0
100
AcDbLine
 10
47.2
 20
109.0
 30
0.0
 11
50.1
 21
109.0
 31
0.0
  0
LINE
  5
12C
330
1E
100
AcDbEntity
  8
0
100
AcDbLine
 10
47.7
 20
109.0
 30
0.0
 11
53.2
 21
109.0
 31
0.0
  0
LINE
  5
12D
330
1E
100
AcDbEntity
  8
0
100
AcDbLine
 10
47.9
 20
109.4999999999999
 30
0.0
 11
53.6
 21
109.4999999999999
 31
0.0
  0
LINE
  5
12E
330
1E
100
AcDbEntity
  8
0
100
AcDbLine
 10
49.7
 20
91.0
 30
0.0
 11
51.4
 21
91.0
 31
0.0
  0
LINE
  5
12F
330
1E
100
AcDbEntity
  8
0
100
AcDbLine
 10
51.4
 20
91.0
 30
0.0
 11
52.0
 21
91.0
 31
0.0
  0
LINE
  5
130
330
1E
100
AcDbEntity
  8
0
100
AcDbLine
 10
50.1
 20
91.5
 30
0.0
 11
51.79999999999999
 21
91.5
 31
0.0
  0
LINE
  5
131
330
1E
100
AcDbEntity
  8
0
100
AcDbLine
 10
51.79999999999999
 20
91.5
 30
0.0
 11
52.5
 21
91.5
 31
0.0
  0
LINE
  5
132
330
1E
100
AcDbEntity
  8
0
100
AcDbLine
 10
50.1
 20
109.0
 30
0.0
 11
51.79999999999999
 21
109.0
 31
0.0
  0
LINE
  5
133
330
1E
100
AcDbEntity
  8
0
100
AcDbLine
 10
52.0
 20
91.0
 30
0.0
 11
52.5
 21
91.5
 31
0.0
  0
LINE
  5
134
330
1E
100
AcDbEntity
  8
0
100
AcDbLine
 10
52.5
 20
109.0
 30
0.0
 11
53.2
 21
109.0
 31
0.0
  0
LINE
  5
135
330
1E
100
AcDbEntity
  8
0
100
AcDbLine
 10
52.5
 20
109.0
 30
0.0
 11
52.5
 21
91.5
 31
0.0
  0
LINE
  5
136
330
1E
100
AcDbEntity
  8
0
100
AcDbLine
 10
52.5
 20
91.5
 30
0.0
 11
52.5
 21
109.0
 31
0.0
  0
LINE
  5
137
330
1E
100
AcDbEntity
  8
0
100
AcDbLine
 10
51.79999999999999
 20
109.0
 30
0.0
 11
52.5
 21
109.0
 31
0.0
  0
LINE
  5
138
330
1E
100
AcDbEntity
  8
0
100
AcDbLine
 10
53.2
 20
109.0
 30
0.0
 11
57.5
 21
109.0
 31
0.0
  0
LINE
  5
139
330
1E
100
AcDbEntity
  8
0
100
AcDbLine
 10
57.5
 20
109.0
 30
0.0
 11
60.0
 21
109.0
 31
0.0
  0
LINE
  5
13A
330
1E
100
AcDbEntity
  8
0
100
AcDbLine
 10
53.6
 20
109.4999999999999
 30
0.0
 11
57.9
 21
109.4999999999999
 31
0.0
  0
LINE
  5
13B
330
1E
100
AcDbEntity
  8
0
100
AcDbLine
 10
57.9
 20
109.4999999999999
 30
0.0
 11
60.5
 21
109.4999999999999
 31
0.0
  0
LINE
  5
13C
330
1E
100
AcDbEntity
  8
0
100
AcDbLine
 10
47.9
 20
119.0
 30
0.0
 11
53.6
 21
119.0
 31
0.0
  0
LINE
  5
13D
330
1E
100
AcDbEntity
  8
0
100
AcDbLine
 10
53.6
 20
119.0
 30
0.0
 11
57.9
 21
119.0
 31
0.0
  0
LINE
  5
13E
330
1E
100
AcDbEntity
  8
0
100
AcDbLine
 10
60.0
 20
109.0
 30
0.0
 11
61.0
 21
109.0
 31
0.0
  0
LINE
  5
13F
330
1E
100
AcDbEntity
  8
0
100
AcDbLine
 10
61.0
 20
109.0
 30
0.0
 11
61.5
 21
109.4999999999999
 31
0.0
  0
LINE
  5
140
330
1E
100
AcDbEntity
  8
0
100
AcDbLine
 10
60.5
 20
109.4999999999999
 30
0.0
 11
61.5
 21
109.4999999999999
 31
0.0
  0
LINE
  5
141
330
1E
100
AcDbEntity
  8
0
100
AcDbLine
 10
61.5
 20
119.0
 30
0.0
 11
61.5
 21
109.4999999999999
 31
0.0
  0
LINE
  5
142
330
1E
100
AcDbEntity
  8
0
100
AcDbLine
 10
61.5
 20
109.4999999999999
 30
0.0
 11
61.5
 21
119.0
 31
0.0
  0
LINE
  5
143
330
1E
100
AcDbEntity
  8
0
100
AcDbLine
 10
57.9
 20
119.0
 30
0.0
 11
60.5
 21
119.0
 31
0.0
  0
LINE
  5
144
330
1E
100
AcDbEntity
  8
0
100
AcDbLine
 10
60.5
 20
119.0
 30
0.0
 11
61.5
 21
119.0
 31
0.0
  0
LINE
  5
145
330
1E
100
AcDbEntity
  8
0
100
AcDbLine
 10
43.5
 20
67.8
 30
0.0
 11
51.7
 21
64.40000000000001
 31
0.0
  0
LINE
  5
146
330
1E
100
AcDbEntity
  8
0
100
AcDbLine
 10
25.7
 20
67.2
 30
0.0
 11
34.5
 21
68.4
 31
0.0
  0
LINE
  5
147
330
1E
100
AcDbEntity
  8
0
100
AcDbLine
 10
25.5
 20
67.8
 30
0.0
 11
34.5
 21
69.0
 31
0.0
  0
LINE
  5
148
330
1E
100
AcDbEntity
  8
0
100
AcDbLine
 10
17.3
 20
64.40000000000001
 30
0.0
 11
25.5
 21
67.8
 31
0.0
  0
LINE
  5
149
330
1E
100
AcDbEntity
  8
0
100
AcDbLine
 10
10.1
 20
58.9
 30
0.0
 11
17.3
 21
64.40000000000001
 31
0.0
  0
LINE
  5
14A
330
1E
100
AcDbEntity
  8
0
100
AcDbLine
 10
4.599999999999999
 20
51.7
 30
0.0
 11
10.1
 21
58.9
 31
0.0
  0
LINE
  5
14B
330
1E
100
AcDbEntity
  8
0
100
AcDbLine
 10
1.199999999999999
 20
43.5
 30
0.0
 11
4.599999999999999
 21
51.7
 31
0.0
  0
LINE
  5
14C
330
1E
100
AcDbEntity
  8
0
100
AcDbLine
 10
0.6
 20
34.5
 30
0.0
 11
1.8
 21
25.7
 31
0.0
  0
LINE
  5
14D
330
1E
100
AcDbEntity
  8
0
100
AcDbLine
 10
0.6
 20
34.5
 30
0.0
 11
1.8
 21
43.3
 31
0.0
  0
LINE
  5
14E
330
1E
100
AcDbEntity
  8
0
100
AcDbLine
 10
-0.0000000000000004
 20
34.5
 30
0.0
 11
1.199999999999999
 21
25.5
 31
0.0
  0
LINE
  5
14F
330
1E
100
AcDbEntity
  8
0
100
AcDbLine
 10
-0.0000000000000004
 20
34.5
 30
0.0
 11
1.199999999999999
 21
43.5
 31
0.0
  0
LINE
  5
150
330
1E
100
AcDbEntity
  8
0
100
AcDbLine
 10
-0.0000000000000004
 20
34.5
 30
0.0
 11
0.2
 21
30.0
 31
0.0
  0
LINE
  5
151
330
1E
100
AcDbEntity
  8
0
100
AcDbLine
 10
-0.0000000000000004
 20
34.5
 30
0.0
 11
0.2
 21
39.0
 31
0.0
  0
LINE
  5
152
330
1E
100
AcDbEntity
  8
0
100
AcDbLine
 10
1.199999999999999
 20
25.5
 30
0.0
 11
4.599999999999999
 21
17.3
 31
0.0
  0
LINE
  5
153
330
1E
100
AcDbEntity
  8
0
100
AcDbLine
 10
-0.0000000000000005
 20
34.5
 30
0.0
 11
1.199999999999999
 21
25.5
 31
0.0
  0
LINE
  5
154
330
1E
100
AcDbEntity
  8
0
100
AcDbLine
 10
-0.0000000000000005
 20
34.5
 30
0.0
 11
1.199999999999999
 21
43.5
 31
0.0
  0
ENDSEC
  0
SECTION
  2
OBJECTS
  0
DICTIONARY
  5
C
330
0
100
AcDbDictionary
  3
ACAD_GROUP
350
D
  3
ACAD_LAYOUT
350
19
  3
ACAD_MLINESTYLE
350
16
  3
ACAD_PLOTSETTINGS
350
18
  3
ACAD_PLOTSTYLENAME
350
E
  3
ACDBHEADERROUNDTRIPXREC
350
15C
  3
ACDBVARIABLEDICTIONARY
350
159
  0
DICTIONARY
  5
17E
330
1E
100
AcDbDictionary
280
     1
  3
ACAD_LAYOUTSELFREF
360
17F
  0
DICTIONARY
  5
17C
330
1A
100
AcDbDictionary
280
     1
  3
ACAD_LAYOUTSELFREF
360
17D
  0
DICTIONARY
  5
D
102
{ACAD_REACTORS
330
C
102
}
330
C
100
AcDbDictionary
  0
DICTIONARY
  5
19
102
{ACAD_REACTORS
330
C
102
}
330
C
100
AcDbDictionary
  0
DICTIONARY
  5
16
102
{ACAD_REACTORS
330
C
102
}
330
C
100
AcDbDictionary
  3
STANDARD
350
17
  0
DICTIONARY
  5
18
102
{ACAD_REACTORS
330
C
102
}
330
C
100
AcDbDictionary
  0
ACDBDICTIONARYWDFLT
  5
E
102
{ACAD_REACTORS
330
C
102
}
330
C
100
AcDbDictionary
281
     1
  3
Normal
350
F
100
AcDbDictionaryWithDefault
340
F
  0
DICTIONARY
  5
15C
102
{ACAD_REACTORS
330
C
102
}
330
C
100
AcDbDictionary
  3
CEPSNTYPE
350
166
  3
FINGERPRINTGUID
350
167
  3
HYPERLINKBASE
350
15F
  3
INSUNITS
350
165
  3
LAYOUTDICT
350
161
  3
LWETCUNION
350
164
  3
PLOTSETDICT
350
162
  3
PLOTSTYLNAMDICT
350
163
  3
PSVPSCALE
350
169
  3
PUCSBASE
350
16C
  3
PUCSORGBACK
350
172
  3
PUCSORGBOTTOM
350
16E
  3
PUCSORGFRONT
350
171
  3
PUCSORGLEFT
350
16F
  3
PUCSORGRIGHT
350
170
  3
PUCSORGTOP
350
16D
  3
PUCSORTHOREF
350
16A
  3
PUCSORTHOVIEW
350
16B
  3
STYLESHEET
350
160
  3
TSTACKALIGN
350
15D
  3
TSTACKSIZE
350
15E
  3
UCSBASE
350
175
  3
UCSORGBACK
350
17B
  3
UCSORGBOTTOM
350
177
  3
UCSORGFRONT
350
17A
  3
UCSORGLEFT
350
178
  3
UCSORGRIGHT
350
179
  3
UCSORGTOP
350
176
  3
UCSORTHOREF
350
173
  3
UCSORTHOVIEW
350
174
  3
VERSIONGUID
350
168
  0
DICTIONARY
  5
159
102
{ACAD_REACTORS
330
C
102
}
330
C
100
AcDbDictionary
  3
DIMASSOC
350
15A
  0
XRECORD
  5
17F
102
{ACAD_REACTORS
330
17E
102
}
330
17E
100
AcDbXrecord
340
1E
  0
XRECORD
  5
17D
102
{ACAD_REACTORS
330
17C
102
}
330
17C
100
AcDbXrecord
340
1A
  0
MLINESTYLE
  5
17
102
{ACAD_REACTORS
330
16
102
}
330
16
100
AcDbMlineStyle
  2
STANDARD
 70
     0
  3

 62
   256
 51
90.0
 52
90.0
 71
     2
 49
0.5
 62
   256
  6
BYLAYER
 49
-0.5
 62
   256
  6
BYLAYER
  0
ACDBPLACEHOLDER
  5
F
102
{ACAD_REACTORS
330
E
102
}
330
E
100
AcDbPlaceHolder
280
     0
  0
XRECORD
  5
166
102
{ACAD_REACTORS
330
15C
102
}
330
15C
100
AcDbXrecord
 90
        0
  0
XRECORD
  5
167
102
{ACAD_REACTORS
330
15C
102
}
330
15C
100
AcDbXrecord
  1
{4C370A94-615B-41F2-9328-B48B6A5EFE13}
  0
XRECORD
  5
15F
102
{ACAD_REACTORS
330
15C
102
}
330
15C
100
AcDbXrecord
  1

  0
XRECORD
  5
165
102
{ACAD_REACTORS
330
15C
102
}
330
15C
100
AcDbXrecord
 90
        0
  0
XRECORD
  5
161
102
{ACAD_REACTORS
330
15C
102
}
330
15C
100
AcDbXrecord
340
19
  0
XRECORD
  5
164
102
{ACAD_REACTORS
330
15C
102
}
330
15C
100
AcDbXrecord
 90
    10781
  0
XRECORD
  5
162
102
{ACAD_REACTORS
330
15C
102
}
330
15C
100
AcDbXrecord
340
18
  0
XRECORD
  5
163
102
{ACAD_REACTORS
330
15C
102
}
330
15C
100
AcDbXrecord
340
E
  0
XRECORD
  5
169
102
{ACAD_REACTORS
330
15C
102
}
330
15C
100
AcDbXrecord
 40
0.0
  0
XRECORD
  5
16C
102
{ACAD_REACTORS
330
15C
102
}
330
15C
100
AcDbXrecord
340
0
  0
XRECORD
  5
172
102
{ACAD_REACTORS
330
15C
102
}
330
15C
100
AcDbXrecord
 10
0.0
 20
0.0
 30
0.0
  0
XRECORD
  5
16E
102
{ACAD_REACTORS
330
15C
102
}
330
15C
100
AcDbXrecord
 10
0.0
 20
0.0
 30
0.0
  0
XRECORD
  5
171
102
{ACAD_REACTORS
330
15C
102
}
330
15C
100
AcDbXrecord
 10
0.0
 20
0.0
 30
0.0
  0
XRECORD
  5
16F
102
{ACAD_REACTORS
330
15C
102
}
330
15C
100
AcDbXrecord
 10
0.0
 20
0.0
 30
0.0
  0
XRECORD
  5
170
102
{ACAD_REACTORS
330
15C
102
}
330
15C
100
AcDbXrecord
 10
0.0
 20
0.0
 30
0.0
  0
XRECORD
  5
16D
102
{ACAD_REACTORS
330
15C
102
}
330
15C
100
AcDbXrecord
 10
0.0
 20
0.0
 30
0.0
  0
XRECORD
  5
16A
102
{ACAD_REACTORS
330
15C
102
}
330
15C
100
AcDbXrecord
340
0
  0
XRECORD
  5
16B
102
{ACAD_REACTORS
330
15C
102
}
330
15C
100
AcDbXrecord
 70
     0
  0
XRECORD
  5
160
102
{ACAD_REACTORS
330
15C
102
}
330
15C
100
AcDbXrecord
  1

  0
XRECORD
  5
15D
102
{ACAD_REACTORS
330
15C
102
}
330
15C
100
AcDbXrecord
 90
        1
  0
XRECORD
  5
15E
102
{ACAD_REACTORS
330
15C
102
}
330
15C
100
AcDbXrecord
 90
       70
  0
XRECORD
  5
175
102
{ACAD_REACTORS
330
15C
102
}
330
15C
100
AcDbXrecord
340
0
  0
XRECORD
  5
17B
102
{ACAD_REACTORS
330
15C
102
}
330
15C
100
AcDbXrecord
 10
0.0
 20
0.0
 30
0.0
  0
XRECORD
  5
177
102
{ACAD_REACTORS
330
15C
102
}
330
15C
100
AcDbXrecord
 10
0.0
 20
0.0
 30
0.0
  0
XRECORD
  5
17A
102
{ACAD_REACTORS
330
15C
102
}
330
15C
100
AcDbXrecord
 10
0.0
 20
0.0
 30
0.0
  0
XRECORD
  5
178
102
{ACAD_REACTORS
330
15C
102
}
330
15C
100
AcDbXrecord
 10
0.0
 20
0.0
 30
0.0
  0
XRECORD
  5
179
102
{ACAD_REACTORS
330
15C
102
}
330
15C
100
AcDbXrecord
 10
0.0
 20
0.0
 30
0.0
  0
XRECORD
  5
176
102
{ACAD_REACTORS
330
15C
102
}
330
15C
100
AcDbXrecord
 10
0.0
 20
0.0
 30
0.0
  0
XRECORD
  5
173
102
{ACAD_REACTORS
330
15C
102
}
330
15C
100
AcDbXrecord
340
0
  0
XRECORD
  5
174
102
{ACAD_REACTORS
330
15C
102
}
330
15C
100
AcDbXrecord
 70
     1
  0
XRECORD
  5
168
102
{ACAD_REACTORS
330
15C
102
}
330
15C
100
AcDbXrecord
  1
{16E3A388-A24D-4E62-8FB9-15E6929AF975}
  0
DICTIONARYVAR
  5
15A
102
{ACAD_REACTORS
330
159
102
}
330
159
100
DictionaryVariables
280
     0
  1
1
  0
ENDSEC
  0
EOF
