  0
SECTION
  2
HEADER
  9
$ACADVER
  1
AC1014
  9
$ACADMAINTVER
 70
     9
  9
$DWGCODEPAGE
  3
ANSI_1252
  9
$INSBASE
 10
0.0
 20
0.0
 30
0.0
  9
$EXTMIN
 10
0.0000000000000017
 20
-0.0000000000000036
 30
0.0
  9
$EXTMAX
 10
119.0
 20
155.0
 30
0.0
  9
$LIMMIN
 10
0.0
 20
0.0
  9
$LIMMAX
 10
12.0
 20
9.0
  9
$ORTHOMODE
 70
     0
  9
$REGENMODE
 70
     1
  9
$FILLMODE
 70
     1
  9
$QTEXTMODE
 70
     0
  9
$MIRRTEXT
 70
     1
  9
$DRAGMODE
 70
     2
  9
$LTSCALE
 40
1.0
  9
$OSMODE
 70
    37
  9
$ATTMODE
 70
     1
  9
$TEXTSIZE
 40
0.2
  9
$TRACEWID
 40
0.05
  9
$TEXTSTYLE
  7
STANDARD
  9
$CLAYER
  8
0
  9
$CELTYPE
  6
CONTINUOUS
  9
$CECOLOR
 62
   256
  9
$CELTSCALE
 40
1.0
  9
$DELOBJ
 70
     1
  9
$DISPSILH
 70
     0
  9
$DIMSCALE
 40
1.0
  9
$DIMASZ
 40
0.18
  9
$DIMEXO
 40
0.0625
  9
$DIMDLI
 40
0.38
  9
$DIMRND
 40
0.0
  9
$DIMDLE
 40
0.0
  9
$DIMEXE
 40
0.18
  9
$DIMTP
 40
0.0
  9
$DIMTM
 40
0.0
  9
$DIMTXT
 40
0.18
  9
$DIMCEN
 40
0.09
  9
$DIMTSZ
 40
0.0
  9
$DIMTOL
 70
     0
  9
$DIMLIM
 70
     0
  9
$DIMTIH
 70
     1
  9
$DIMTOH
 70
     1
  9
$DIMSE1
 70
     0
  9
$DIMSE2
 70
     0
  9
$DIMTAD
 70
     0
  9
$DIMZIN
 70
     0
  9
$DIMBLK
  1

  9
$DIMASO
 70
     1
  9
$DIMSHO
 70
     1
  9
$DIMPOST
  1

  9
$DIMAPOST
  1

  9
$DIMALT
 70
     0
  9
$DIMALTD
 70
     2
  9
$DIMALTF
 40
25.4
  9
$DIMLFAC
 40
1.0
  9
$DIMTOFL
 70
     0
  9
$DIMTVP
 40
0.0
  9
$DIMTIX
 70
     0
  9
$DIMSOXD
 70
     0
  9
$DIMSAH
 70
     0
  9
$DIMBLK1
  1

  9
$DIMBLK2
  1

  9
$DIMSTYLE
  2
STANDARD
  9
$DIMCLRD
 70
     0
  9
$DIMCLRE
 70
     0
  9
$DIMCLRT
 70
     0
  9
$DIMTFAC
 40
1.0
  9
$DIMGAP
 40
0.09
  9
$DIMJUST
 70
     0
  9
$DIMSD1
 70
     0
  9
$DIMSD2
 70
     0
  9
$DIMTOLJ
 70
     1
  9
$DIMTZIN
 70
     0
  9
$DIMALTZ
 70
     0
  9
$DIMALTTZ
 70
     0
  9
$DIMFIT
 70
     3
  9
$DIMUPT
 70
     0
  9
$DIMUNIT
 70
     2
  9
$DIMDEC
 70
     4
  9
$DIMTDEC
 70
     4
  9
$DIMALTU
 70
     2
  9
$DIMALTTD
 70
     2
  9
$DIMTXSTY
  7
STANDARD
  9
$DIMAUNIT
 70
     0
  9
$LUNITS
 70
     2
  9
$LUPREC
 70
     4
  9
$SKETCHINC
 40
0.1
  9
$FILLETRAD
 40
0.0
  9
$AUNITS
 70
     0
  9
$AUPREC
 70
     0
  9
$MENU
  1
.
  9
$ELEVATION
 40
0.0
  9
$PELEVATION
 40
0.0
  9
$THICKNESS
 40
0.0
  9
$LIMCHECK
 70
     0
  9
$BLIPMODE
 70
     0
  9
$CHAMFERA
 40
0.0
  9
$CHAMFERB
 40
0.0
  9
$CHAMFERC
 40
0.0
  9
$CHAMFERD
 40
0.0
  9
$SKPOLY
 70
     0
  9
$TDCREATE
 40
2454690.652301608
  9
$TDUPDATE
 40
2454690.654890219
  9
$TDINDWG
 40
0.0025887963
  9
$TDUSRTIMER
 40
0.0025887963
  9
$USRTIMER
 70
     1
  9
$ANGBASE
 50
0.0
  9
$ANGDIR
 70
     0
  9
$PDMODE
 70
     0
  9
$PDSIZE
 40
0.0
  9
$PLINEWID
 40
0.0
  9
$COORDS
 70
     1
  9
$SPLFRAME
 70
     0
  9
$SPLINETYPE
 70
     6
  9
$SPLINESEGS
 70
     8
  9
$ATTDIA
 70
     0
  9
$ATTREQ
 70
     1
  9
$HANDLING
 70
 22529
  9
$HANDSEED
  5
1D5
  9
$SURFTAB1
 70
     6
  9
$SURFTAB2
 70
     6
  9
$SURFTYPE
 70
     6
  9
$SURFU
 70
     6
  9
$SURFV
 70
     6
  9
$UCSNAME
  2

  9
$UCSORG
 10
0.0
 20
0.0
 30
0.0
  9
$UCSXDIR
 10
1.0
 20
0.0
 30
0.0
  9
$UCSYDIR
 10
0.0
 20
1.0
 30
0.0
  9
$PUCSNAME
  2

  9
$PUCSORG
 10
0.0
 20
0.0
 30
0.0
  9
$PUCSXDIR
 10
1.0
 20
0.0
 30
0.0
  9
$PUCSYDIR
 10
0.0
 20
1.0
 30
0.0
  9
$USERI1
 70
     0
  9
$USERI2
 70
     0
  9
$USERI3
 70
     0
  9
$USERI4
 70
     0
  9
$USERI5
 70
     0
  9
$USERR1
 40
0.0
  9
$USERR2
 40
0.0
  9
$USERR3
 40
0.0
  9
$USERR4
 40
0.0
  9
$USERR5
 40
0.0
  9
$WORLDVIEW
 70
     1
  9
$SHADEDGE
 70
     3
  9
$SHADEDIF
 70
    70
  9
$TILEMODE
 70
     1
  9
$MAXACTVP
 70
    64
  9
$PINSBASE
 10
0.0
 20
0.0
 30
0.0
  9
$PLIMCHECK
 70
     0
  9
$PEXTMIN
 10
1.000000000000000E+20
 20
1.000000000000000E+20
 30
1.000000000000000E+20
  9
$PEXTMAX
 10
-1.000000000000000E+20
 20
-1.000000000000000E+20
 30
-1.000000000000000E+20
  9
$PLIMMIN
 10
0.0
 20
0.0
  9
$PLIMMAX
 10
12.0
 20
9.0
  9
$UNITMODE
 70
     0
  9
$VISRETAIN
 70
     1
  9
$PLINEGEN
 70
     0
  9
$PSLTSCALE
 70
     1
  9
$TREEDEPTH
 70
  3020
  9
$PICKSTYLE
 70
     1
  9
$CMLSTYLE
  2
STANDARD
  9
$CMLJUST
 70
     0
  9
$CMLSCALE
 40
1.0
  9
$PROXYGRAPHICS
 70
     1
  9
$MEASUREMENT
 70
     0
  0
ENDSEC
  0
SECTION
  2
CLASSES
  0
CLASS
  1
ACDBDICTIONARYWDFLT
  2
AcDbDictionaryWithDefault
  3
AutoCAD 2000
 90
        0
280
     0
281
     0
  0
CLASS
  1
ACDBPLACEHOLDER
  2
AcDbPlaceHolder
  3
AutoCAD 2000
 90
        0
280
     0
281
     0
  0
CLASS
  1
LAYOUT
  2
AcDbLayout
  3
AutoCAD 2000
 90
        0
280
     0
281
     0
  0
CLASS
  1
DICTIONARYVAR
  2
AcDbDictionaryVar
  3
AutoCAD 2000
 90
        0
280
     0
281
     0
  0
CLASS
  1
LONG_TRANSACTION
  2
AcDbLongTransaction
  3
AutoCAD 2000
 90
        0
280
     0
281
     0
  0
CLASS
  1
LWPOLYLINE
  2
AcDbPolyline
  3
AutoCAD 2000
 90
        0
280
     0
281
     1
  0
CLASS
  1
HATCH
  2
AcDbHatch
  3
AutoCAD 2000
 90
        0
280
     0
281
     1
  0
CLASS
  1
XRECORD
  2
AcDbXrecord
  3
AutoCAD 2000
 90
        0
280
     0
281
     0
  0
ENDSEC
  0
SECTION
  2
TABLES
  0
TABLE
  2
VPORT
  5
8
330
0
100
AcDbSymbolTable
 70
     2
  0
VPORT
  5
1B0
330
8
100
AcDbSymbolTableRecord
100
AcDbViewportTableRecord
  2
*ACTIVE
 70
     0
 10
0.0
 20
0.0
 11
1.0
 21
1.0
 12
59.5
 22
77.5
 13
0.0
 23
0.0
 14
1.0
 24
1.0
 15
0.0
 25
0.0
 16
0.0
 26
0.0
 36
1.0
 17
0.0
 27
0.0
 37
0.0
 40
156.1892583120204
 41
2.043533930857874
 42
50.0
 43
0.0
 44
0.0
 50
0.0
 51
0.0
 71
     0
 72
   100
 73
     1
 74
     3
 75
     0
 76
     0
 77
     0
 78
     0
  0
ENDTAB
  0
TABLE
  2
LTYPE
  5
5
330
0
100
AcDbSymbolTable
 70
     1
  0
LTYPE
  5
13
330
5
100
AcDbSymbolTableRecord
100
AcDbLinetypeTableRecord
  2
BYBLOCK
 70
     0
  3

 72
    65
 73
     0
 40
0.0
  0
LTYPE
  5
14
330
5
100
AcDbSymbolTableRecord
100
AcDbLinetypeTableRecord
  2
BYLAYER
 70
     0
  3

 72
    65
 73
     0
 40
0.0
  0
LTYPE
  5
15
330
5
100
AcDbSymbolTableRecord
100
AcDbLinetypeTableRecord
  2
CONTINUOUS
 70
     0
  3
Solid line
 72
    65
 73
     0
 40
0.0
  0
ENDTAB
  0
TABLE
  2
LAYER
  5
2
330
0
100
AcDbSymbolTable
 70
     1
  0
LAYER
  5
10
330
2
100
AcDbSymbolTableRecord
100
AcDbLayerTableRecord
  2
0
 70
     0
 62
     7
  6
CONTINUOUS
  0
ENDTAB
  0
TABLE
  2
STYLE
  5
3
330
0
100
AcDbSymbolTable
 70
     1
  0
STYLE
  5
11
330
3
100
AcDbSymbolTableRecord
100
AcDbTextStyleTableRecord
  2
STANDARD
 70
     0
 40
0.0
 41
1.0
 50
0.0
 71
     0
 42
0.2
  3
txt
  4

  0
ENDTAB
  0
TABLE
  2
VIEW
  5
6
330
0
100
AcDbSymbolTable
 70
     0
  0
ENDTAB
  0
TABLE
  2
UCS
  5
7
330
0
100
AcDbSymbolTable
 70
     0
  0
ENDTAB
  0
TABLE
  2
APPID
  5
9
330
0
100
AcDbSymbolTable
 70
     1
  0
APPID
  5
12
330
9
100
AcDbSymbolTableRecord
100
AcDbRegAppTableRecord
  2
ACAD
 70
     0
  0
ENDTAB
  0
TABLE
  2
DIMSTYLE
  5
A
330
0
100
AcDbSymbolTable
 70
     1
  0
DIMSTYLE
105
1AA
330
A
100
AcDbSymbolTableRecord
100
AcDbDimStyleTableRecord
  2
STANDARD
 70
     0
  3

  4

  5

  6

  7

 40
1.0
 41
0.18
 42
0.0625
 43
0.38
 44
0.18
 45
0.0
 46
0.0
 47
0.0
 48
0.0
140
0.18
141
0.09
142
0.0
143
25.4
144
1.0
145
0.0
146
1.0
147
0.09
 71
     0
 72
     0
 73
     1
 74
     1
 75
     0
 76
     0
 77
     0
 78
     0
170
     0
171
     2
172
     0
173
     0
174
     0
175
     0
176
     0
177
     0
178
     0
270
     2
271
     4
272
     4
273
     2
274
     2
340
11
275
     0
280
     0
281
     0
282
     0
283
     1
284
     0
285
     0
286
     0
287
     3
288
     0
  0
ENDTAB
  0
TABLE
  2
BLOCK_RECORD
  5
1
330
0
100
AcDbSymbolTable
 70
     0
  0
BLOCK_RECORD
  5
1E
102
{ACAD_XDICTIONARY
360
1D3
102
}
330
1
100
AcDbSymbolTableRecord
100
AcDbBlockTableRecord
  2
*MODEL_SPACE
  0
BLOCK_RECORD
  5
1A
102
{ACAD_XDICTIONARY
360
1D1
102
}
330
1
100
AcDbSymbolTableRecord
100
AcDbBlockTableRecord
  2
*PAPER_SPACE
  0
ENDTAB
  0
ENDSEC
  0
SECTION
  2
BLOCKS
  0
BLOCK
  5
1F
330
1E
100
AcDbEntity
  8
0
100
AcDbBlockBegin
  2
*MODEL_SPACE
 70
     0
 10
0.0
 20
0.0
 30
0.0
  3
*MODEL_SPACE
  1

  0
ENDBLK
  5
20
330
1E
100
AcDbEntity
  8
0
100
AcDbBlockEnd
  0
BLOCK
  5
1B
330
1A
100
AcDbEntity
 67
     1
  8
0
100
AcDbBlockBegin
  2
*PAPER_SPACE
 70
     0
 10
0.0
 20
0.0
 30
0.0
  3
*PAPER_SPACE
  1

  0
ENDBLK
  5
1C
330
1A
100
AcDbEntity
 67
     1
  8
0
100
AcDbBlockEnd
  0
ENDSEC
  0
SECTION
  2
ENTITIES
  0
LINE
  5
22
330
1E
100
AcDbEntity
  8
0
100
AcDbLine
 10
0.0000000000000017
 20
101.5
 30
0.0
 11
0.100000000000002
 21
102.4
 31
0.0
  0
LINE
  5
23
330
1E
100
AcDbEntity
  8
0
100
AcDbLine
 10
0.0000000000000017
 20
101.5
 30
0.0
 11
0.100000000000002
 21
100.6
 31
0.0
  0
LINE
  5
24
330
1E
100
AcDbEntity
  8
0
100
AcDbLine
 10
0.0000000000000017
 20
101.5
 30
0.0
 11
0.100000000000002
 21
102.4
 31
0.0
  0
LINE
  5
25
330
1E
100
AcDbEntity
  8
0
100
AcDbLine
 10
0.0000000000000017
 20
101.5
 30
0.0
 11
0.100000000000002
 21
100.6
 31
0.0
  0
LINE
  5
26
330
1E
100
AcDbEntity
  8
0
100
AcDbLine
 10
0.100000000000002
 20
100.6
 30
0.0
 11
0.500000000000002
 21
99.8
 31
0.0
  0
LINE
  5
27
330
1E
100
AcDbEntity
  8
0
100
AcDbLine
 10
0.500000000000002
 20
99.8
 30
0.0
 11
1.0
 21
99.0
 31
0.0
  0
LINE
  5
28
330
1E
100
AcDbEntity
  8
0
100
AcDbLine
 10
0.100000000000002
 20
102.4
 30
0.0
 11
0.500000000000002
 21
103.2
 31
0.0
  0
LINE
  5
29
330
1E
100
AcDbEntity
  8
0
100
AcDbLine
 10
0.500000000000002
 20
103.2
 30
0.0
 11
1.0
 21
104.0
 31
0.0
  0
LINE
  5
2A
330
1E
100
AcDbEntity
  8
0
100
AcDbLine
 10
0.100000000000002
 20
102.4
 30
0.0
 11
0.500000000000002
 21
103.2
 31
0.0
  0
LINE
  5
2B
330
1E
100
AcDbEntity
  8
0
100
AcDbLine
 10
0.000000000000002
 20
107.0
 30
0.0
 11
0.0000000000000048
 21
153.0
 31
0.0
  0
LINE
  5
2C
330
1E
100
AcDbEntity
  8
0
100
AcDbLine
 10
0.000000000000002
 20
107.0
 30
0.0
 11
0.6000000000000022
 21
105.6
 31
0.0
  0
LINE
  5
2D
330
1E
100
AcDbEntity
  8
0
100
AcDbLine
 10
0.0000000000000049
 20
153.0
 30
0.0
 11
0.600000000000005
 21
154.4
 31
0.0
  0
LINE
  5
2E
330
1E
100
AcDbEntity
  8
0
100
AcDbLine
 10
0.0000000000000048
 20
153.0
 30
0.0
 11
0.600000000000005
 21
154.4
 31
0.0
  0
LINE
  5
2F
330
1E
100
AcDbEntity
  8
0
100
AcDbLine
 10
0.0000000000000021
 20
107.0
 30
0.0
 11
0.6000000000000022
 21
105.6
 31
0.0
  0
LINE
  5
30
330
1E
100
AcDbEntity
  8
0
100
AcDbLine
 10
1.0
 20
99.0
 30
0.0
 11
1.8
 21
98.50000000000001
 31
0.0
  0
LINE
  5
31
330
1E
100
AcDbEntity
  8
0
100
AcDbLine
 10
2.6
 20
98.1
 30
0.0
 11
3.5
 21
98.0
 31
0.0
  0
LINE
  5
32
330
1E
100
AcDbEntity
  8
0
100
AcDbLine
 10
1.8
 20
98.50000000000001
 30
0.0
 11
2.6
 21
98.1
 31
0.0
  0
LINE
  5
33
330
1E
100
AcDbEntity
  8
0
100
AcDbLine
 10
2.6
 20
104.9
 30
0.0
 11
3.5
 21
105.0
 31
0.0
  0
LINE
  5
34
330
1E
100
AcDbEntity
  8
0
100
AcDbLine
 10
1.8
 20
104.4999999999999
 30
0.0
 11
2.6
 21
104.9
 31
0.0
  0
LINE
  5
35
330
1E
100
AcDbEntity
  8
0
100
AcDbLine
 10
1.0
 20
104.0
 30
0.0
 11
1.8
 21
104.4999999999999
 31
0.0
  0
LINE
  5
36
330
1E
100
AcDbEntity
  8
0
100
AcDbLine
 10
2.0
 20
105.0
 30
0.0
 11
3.1
 21
105.0
 31
0.0
  0
LINE
  5
37
330
1E
100
AcDbEntity
  8
0
100
AcDbLine
 10
3.7
 20
98.0
 30
0.0
 11
4.5
 21
98.0
 31
0.0
  0
LINE
  5
38
330
1E
100
AcDbEntity
  8
0
100
AcDbLine
 10
3.5
 20
98.0
 30
0.0
 11
3.7
 21
98.0
 31
0.0
  0
LINE
  5
39
330
1E
100
AcDbEntity
  8
0
100
AcDbLine
 10
3.5
 20
98.0
 30
0.0
 11
3.589999999999999
 21
98.01000000000001
 31
0.0
  0
LINE
  5
3A
330
1E
100
AcDbEntity
  8
0
100
AcDbLine
 10
5.771669999999999
 20
98.0
 30
0.0
 11
6.5
 21
98.0
 31
0.0
  0
LINE
  5
3B
330
1E
100
AcDbEntity
  8
0
100
AcDbLine
 10
5.771669999999999
 20
98.0
 30
0.0
 11
7.49011
 21
98.0
 31
0.0
  0
LINE
  5
3C
330
1E
100
AcDbEntity
  8
0
100
AcDbLine
 10
4.5
 20
98.0
 30
0.0
 11
5.771669999999999
 21
98.0
 31
0.0
  0
LINE
  5
3D
330
1E
100
AcDbEntity
  8
0
100
AcDbLine
 10
5.771669999999999
 20
105.0
 30
0.0
 11
7.49011
 21
105.0
 31
0.0
  0
LINE
  5
3E
330
1E
100
AcDbEntity
  8
0
100
AcDbLine
 10
4.5
 20
105.0
 30
0.0
 11
5.771669999999999
 21
105.0
 31
0.0
  0
LINE
  5
3F
330
1E
100
AcDbEntity
  8
0
100
AcDbLine
 10
3.7
 20
105.0
 30
0.0
 11
4.5
 21
105.0
 31
0.0
  0
LINE
  5
40
330
1E
100
AcDbEntity
  8
0
100
AcDbLine
 10
3.5
 20
105.0
 30
0.0
 11
3.589999999999999
 21
104.99
 31
0.0
  0
LINE
  5
41
330
1E
100
AcDbEntity
  8
0
100
AcDbLine
 10
3.5
 20
105.0
 30
0.0
 11
3.7
 21
105.0
 31
0.0
  0
LINE
  5
42
330
1E
100
AcDbEntity
  8
0
100
AcDbLine
 10
3.1
 20
105.0
 30
0.0
 11
6.299999999999999
 21
105.0
 31
0.0
  0
LINE
  5
43
330
1E
100
AcDbEntity
  8
0
100
AcDbLine
 10
0.6000000000000022
 20
105.6
 30
0.0
 11
2.0
 21
105.0
 31
0.0
  0
LINE
  5
44
330
1E
100
AcDbEntity
  8
0
100
AcDbLine
 10
0.6000000000000022
 20
105.6
 30
0.0
 11
1.8
 21
105.6
 31
0.0
  0
LINE
  5
45
330
1E
100
AcDbEntity
  8
0
100
AcDbLine
 10
1.800000000000009
 20
154.4
 30
0.0
 11
5.100000000000009
 21
154.4
 31
0.0
  0
LINE
  5
46
330
1E
100
AcDbEntity
  8
0
100
AcDbLine
 10
1.800000000000009
 20
154.4
 30
0.0
 11
5.100000000000009
 21
154.4
 31
0.0
  0
LINE
  5
47
330
1E
100
AcDbEntity
  8
0
100
AcDbLine
 10
1.8
 20
105.6
 30
0.0
 11
5.099999999999999
 21
105.6
 31
0.0
  0
LINE
  5
48
330
1E
100
AcDbEntity
  8
0
100
AcDbLine
 10
5.100000000000009
 20
154.4
 30
0.0
 11
10.5
 21
154.4
 31
0.0
  0
LINE
  5
49
330
1E
100
AcDbEntity
  8
0
100
AcDbLine
 10
5.099999999999999
 20
105.6
 30
0.0
 11
10.5
 21
105.6
 31
0.0
  0
LINE
  5
4A
330
1E
100
AcDbEntity
  8
0
100
AcDbLine
 10
6.299999999999999
 20
105.0
 30
0.0
 11
11.5
 21
105.0
 31
0.0
  0
LINE
  5
4B
330
1E
100
AcDbEntity
  8
0
100
AcDbLine
 10
6.5
 20
3.000000000000009
 30
0.0
 11
6.5
 21
98.0
 31
0.0
  0
LINE
  5
4C
330
1E
100
AcDbEntity
  8
0
100
AcDbLine
 10
2.00000000000001
 20
155.0
 30
0.0
 11
3.100000000000009
 21
155.0
 31
0.0
  0
LINE
  5
4D
330
1E
100
AcDbEntity
  8
0
100
AcDbLine
 10
3.100000000000009
 20
155.0
 30
0.0
 11
6.300000000000009
 21
155.0
 31
0.0
  0
LINE
  5
4E
330
1E
100
AcDbEntity
  8
0
100
AcDbLine
 10
6.300000000000009
 20
155.0
 30
0.0
 11
11.5
 21
155.0
 31
0.0
  0
LINE
  5
4F
330
1E
100
AcDbEntity
  8
0
100
AcDbLine
 10
0.600000000000005
 20
154.4
 30
0.0
 11
2.00000000000001
 21
155.0
 31
0.0
  0
LINE
  5
50
330
1E
100
AcDbEntity
  8
0
100
AcDbLine
 10
0.600000000000005
 20
154.4
 30
0.0
 11
1.800000000000009
 21
154.4
 31
0.0
  0
LINE
  5
51
330
1E
100
AcDbEntity
  8
0
100
AcDbLine
 10
0.6000000000000022
 20
105.6
 30
0.0
 11
2.0
 21
105.0
 31
0.0
  0
LINE
  5
52
330
1E
100
AcDbEntity
  8
0
100
AcDbLine
 10
0.6000000000000022
 20
105.6
 30
0.0
 11
1.8
 21
105.6
 31
0.0
  0
LINE
  5
53
330
1E
100
AcDbEntity
  8
0
100
AcDbLine
 10
6.5
 20
3.0
 30
0.0
 11
7.0
 21
1.0
 31
0.0
  0
LINE
  5
54
330
1E
100
AcDbEntity
  8
0
100
AcDbLine
 10
6.5
 20
3.0
 30
0.0
 11
6.5
 21
98.0
 31
0.0
  0
LINE
  5
55
330
1E
100
AcDbEntity
  8
0
100
AcDbLine
 10
59.5
 20
-0.0000000000000036
 30
0.0
 11
62.0
 21
0.999999999999996
 31
0.0
  0
LINE
  5
56
330
1E
100
AcDbEntity
  8
0
100
AcDbLine
 10
58.6
 20
-0.0000000000000035
 30
0.0
 11
59.5
 21
-0.0000000000000036
 31
0.0
  0
LINE
  5
57
330
1E
100
AcDbEntity
  8
0
100
AcDbLine
 10
56.2
 20
-0.0000000000000034
 30
0.0
 11
58.6
 21
-0.0000000000000035
 31
0.0
  0
LINE
  5
58
330
1E
100
AcDbEntity
  8
0
100
AcDbLine
 10
52.1
 20
-0.0000000000000031
 30
0.0
 11
56.2
 21
-0.0000000000000034
 31
0.0
  0
LINE
  5
59
330
1E
100
AcDbEntity
  8
0
100
AcDbLine
 10
46.9
 20
-0.0000000000000028
 30
0.0
 11
52.1
 21
-0.0000000000000031
 31
0.0
  0
LINE
  5
5A
330
1E
100
AcDbEntity
  8
0
100
AcDbLine
 10
40.89999999999999
 20
-0.0000000000000024
 30
0.0
 11
46.9
 21
-0.0000000000000028
 31
0.0
  0
LINE
  5
5B
330
1E
100
AcDbEntity
  8
0
100
AcDbLine
 10
7.49011
 20
98.0
 30
0.0
 11
9.706369999999999
 21
98.0
 31
0.0
  0
LINE
  5
5C
330
1E
100
AcDbEntity
  8
0
100
AcDbLine
 10
7.49011
 20
105.0
 30
0.0
 11
9.706369999999999
 21
105.0
 31
0.0
  0
LINE
  5
5D
330
1E
100
AcDbEntity
  8
0
100
AcDbLine
 10
7.9
 20
1.0
 30
0.0
 11
10.6
 21
0.9999999999999989
 31
0.0
  0
LINE
  5
5E
330
1E
100
AcDbEntity
  8
0
100
AcDbLine
 10
9.706369999999999
 20
98.0
 30
0.0
 11
12.5372
 21
98.0
 31
0.0
  0
LINE
  5
5F
330
1E
100
AcDbEntity
  8
0
100
AcDbLine
 10
9.706369999999999
 20
105.0
 30
0.0
 11
12.5372
 21
105.0
 31
0.0
  0
LINE
  5
60
330
1E
100
AcDbEntity
  8
0
100
AcDbLine
 10
10.5
 20
154.4
 30
0.0
 11
17.6
 21
154.4
 31
0.0
  0
LINE
  5
61
330
1E
100
AcDbEntity
  8
0
100
AcDbLine
 10
10.5
 20
105.6
 30
0.0
 11
17.6
 21
105.6
 31
0.0
  0
LINE
  5
62
330
1E
100
AcDbEntity
  8
0
100
AcDbLine
 10
12.5372
 20
98.0
 30
0.0
 11
15.6151
 21
98.0
 31
0.0
  0
LINE
  5
63
330
1E
100
AcDbEntity
  8
0
100
AcDbLine
 10
12.5372
 20
105.0
 30
0.0
 11
15.6151
 21
105.0
 31
0.0
  0
LINE
  5
64
330
1E
100
AcDbEntity
  8
0
100
AcDbLine
 10
11.5
 20
155.0
 30
0.0
 11
18.3
 21
155.0
 31
0.0
  0
LINE
  5
65
330
1E
100
AcDbEntity
  8
0
100
AcDbLine
 10
11.5
 20
105.0
 30
0.0
 11
18.3
 21
105.0
 31
0.0
  0
LINE
  5
66
330
1E
100
AcDbEntity
  8
0
100
AcDbLine
 10
10.6
 20
0.9999999999999989
 30
0.0
 11
15.0
 21
0.9999999999999989
 31
0.0
  0
LINE
  5
67
330
1E
100
AcDbEntity
  8
0
100
AcDbLine
 10
9.5
 20
-0.0000000000000005
 30
0.0
 11
10.4
 21
-0.0000000000000006
 31
0.0
  0
LINE
  5
68
330
1E
100
AcDbEntity
  8
0
100
AcDbLine
 10
10.4
 20
-0.0000000000000006
 30
0.0
 11
12.8
 21
-0.0000000000000007
 31
0.0
  0
LINE
  5
69
330
1E
100
AcDbEntity
  8
0
100
AcDbLine
 10
15.6151
 20
98.0
 30
0.0
 11
19.0397
 21
98.0
 31
0.0
  0
LINE
  5
6A
330
1E
100
AcDbEntity
  8
0
100
AcDbLine
 10
19.0397
 20
98.0
 30
0.0
 11
22.6697
 21
98.0
 31
0.0
  0
LINE
  5
6B
330
1E
100
AcDbEntity
  8
0
100
AcDbLine
 10
19.0397
 20
105.0
 30
0.0
 11
22.6697
 21
105.0
 31
0.0
  0
LINE
  5
6C
330
1E
100
AcDbEntity
  8
0
100
AcDbLine
 10
15.6151
 20
105.0
 30
0.0
 11
19.0397
 21
105.0
 31
0.0
  0
LINE
  5
6D
330
1E
100
AcDbEntity
  8
0
100
AcDbLine
 10
18.3
 20
155.0
 30
0.0
 11
26.1
 21
155.0
 31
0.0
  0
LINE
  5
6E
330
1E
100
AcDbEntity
  8
0
100
AcDbLine
 10
17.6
 20
154.4
 30
0.0
 11
25.7
 21
154.4
 31
0.0
  0
LINE
  5
6F
330
1E
100
AcDbEntity
  8
0
100
AcDbLine
 10
17.6
 20
105.6
 30
0.0
 11
25.7
 21
105.6
 31
0.0
  0
LINE
  5
70
330
1E
100
AcDbEntity
  8
0
100
AcDbLine
 10
18.3
 20
105.0
 30
0.0
 11
26.1
 21
105.0
 31
0.0
  0
LINE
  5
71
330
1E
100
AcDbEntity
  8
0
100
AcDbLine
 10
15.0
 20
0.9999999999999989
 30
0.0
 11
20.8
 21
0.9999999999999989
 31
0.0
  0
LINE
  5
72
330
1E
100
AcDbEntity
  8
0
100
AcDbLine
 10
20.8
 20
0.9999999999999989
 30
0.0
 11
27.4
 21
0.9999999999999978
 31
0.0
  0
LINE
  5
73
330
1E
100
AcDbEntity
  8
0
100
AcDbLine
 10
12.8
 20
-0.0000000000000007
 30
0.0
 11
16.89999999999999
 21
-0.000000000000001
 31
0.0
  0
LINE
  5
74
330
1E
100
AcDbEntity
  8
0
100
AcDbLine
 10
16.89999999999999
 20
-0.000000000000001
 30
0.0
 11
22.1
 21
-0.0000000000000013
 31
0.0
  0
LINE
  5
75
330
1E
100
AcDbEntity
  8
0
100
AcDbLine
 10
22.6697
 20
98.0
 30
0.0
 11
26.4
 21
98.0
 31
0.0
  0
LINE
  5
76
330
1E
100
AcDbEntity
  8
0
100
AcDbLine
 10
22.6697
 20
105.0
 30
0.0
 11
26.4
 21
105.0
 31
0.0
  0
LINE
  5
77
330
1E
100
AcDbEntity
  8
0
100
AcDbLine
 10
25.7
 20
154.4
 30
0.0
 11
34.5
 21
154.4
 31
0.0
  0
LINE
  5
78
330
1E
100
AcDbEntity
  8
0
100
AcDbLine
 10
25.7
 20
105.6
 30
0.0
 11
34.5
 21
105.6
 31
0.0
  0
LINE
  5
79
330
1E
100
AcDbEntity
  8
0
100
AcDbLine
 10
26.4
 20
98.0
 30
0.0
 11
30.4
 21
98.0
 31
0.0
  0
LINE
  5
7A
330
1E
100
AcDbEntity
  8
0
100
AcDbLine
 10
30.4
 20
98.0
 30
0.0
 11
34.5
 21
98.0
 31
0.0
  0
LINE
  5
7B
330
1E
100
AcDbEntity
  8
0
100
AcDbLine
 10
26.4
 20
105.0
 30
0.0
 11
30.4
 21
105.0
 31
0.0
  0
LINE
  5
7C
330
1E
100
AcDbEntity
  8
0
100
AcDbLine
 10
30.4
 20
105.0
 30
0.0
 11
34.5
 21
105.0
 31
0.0
  0
LINE
  5
7D
330
1E
100
AcDbEntity
  8
0
100
AcDbLine
 10
26.1
 20
155.0
 30
0.0
 11
34.5
 21
155.0
 31
0.0
  0
LINE
  5
7E
330
1E
100
AcDbEntity
  8
0
100
AcDbLine
 10
26.1
 20
105.0
 30
0.0
 11
34.5
 21
105.0
 31
0.0
  0
LINE
  5
7F
330
1E
100
AcDbEntity
  8
0
100
AcDbLine
 10
27.4
 20
0.9999999999999978
 30
0.0
 11
34.5
 21
0.9999999999999978
 31
0.0
  0
LINE
  5
80
330
1E
100
AcDbEntity
  8
0
100
AcDbLine
 10
22.1
 20
-0.0000000000000013
 30
0.0
 11
28.1
 21
-0.0000000000000017
 31
0.0
  0
LINE
  5
81
330
1E
100
AcDbEntity
  8
0
100
AcDbLine
 10
28.1
 20
-0.0000000000000017
 30
0.0
 11
34.5
 21
-0.000000000000002
 31
0.0
  0
LINE
  5
82
330
1E
100
AcDbEntity
  8
0
100
AcDbLine
 10
62.0
 20
0.999999999999996
 30
0.0
 11
62.5
 21
3.0
 31
0.0
  0
LINE
  5
83
330
1E
100
AcDbEntity
  8
0
100
AcDbLine
 10
61.1
 20
0.999999999999996
 30
0.0
 11
62.0
 21
0.999999999999996
 31
0.0
  0
LINE
  5
84
330
1E
100
AcDbEntity
  8
0
100
AcDbLine
 10
58.39999999999999
 20
0.9999999999999969
 30
0.0
 11
61.1
 21
0.999999999999996
 31
0.0
  0
LINE
  5
85
330
1E
100
AcDbEntity
  8
0
100
AcDbLine
 10
54.0
 20
0.9999999999999969
 30
0.0
 11
58.39999999999999
 21
0.9999999999999969
 31
0.0
  0
LINE
  5
86
330
1E
100
AcDbEntity
  8
0
100
AcDbLine
 10
48.2
 20
0.9999999999999969
 30
0.0
 11
54.0
 21
0.9999999999999969
 31
0.0
  0
LINE
  5
87
330
1E
100
AcDbEntity
  8
0
100
AcDbLine
 10
34.5
 20
98.0
 30
0.0
 11
38.6
 21
98.0
 31
0.0
  0
LINE
  5
88
330
1E
100
AcDbEntity
  8
0
100
AcDbLine
 10
34.5
 20
155.0
 30
0.0
 11
42.9
 21
155.0
 31
0.0
  0
LINE
  5
89
330
1E
100
AcDbEntity
  8
0
100
AcDbLine
 10
34.5
 20
154.4
 30
0.0
 11
43.3
 21
154.4
 31
0.0
  0
LINE
  5
8A
330
1E
100
AcDbEntity
  8
0
100
AcDbLine
 10
34.5
 20
105.6
 30
0.0
 11
43.3
 21
105.6
 31
0.0
  0
LINE
  5
8B
330
1E
100
AcDbEntity
  8
0
100
AcDbLine
 10
42.6
 20
98.0
 30
0.0
 11
46.3303
 21
98.0
 31
0.0
  0
LINE
  5
8C
330
1E
100
AcDbEntity
  8
0
100
AcDbLine
 10
38.6
 20
98.0
 30
0.0
 11
42.6
 21
98.0
 31
0.0
  0
LINE
  5
8D
330
1E
100
AcDbEntity
  8
0
100
AcDbLine
 10
46.3303
 20
98.0
 30
0.0
 11
49.9603
 21
98.0
 31
0.0
  0
LINE
  5
8E
330
1E
100
AcDbEntity
  8
0
100
AcDbLine
 10
42.6
 20
105.0
 30
0.0
 11
46.3303
 21
105.0
 31
0.0
  0
LINE
  5
8F
330
1E
100
AcDbEntity
  8
0
100
AcDbLine
 10
38.6
 20
105.0
 30
0.0
 11
42.6
 21
105.0
 31
0.0
  0
LINE
  5
90
330
1E
100
AcDbEntity
  8
0
100
AcDbLine
 10
49.9603
 20
98.0
 30
0.0
 11
53.3849
 21
98.0
 31
0.0
  0
LINE
  5
91
330
1E
100
AcDbEntity
  8
0
100
AcDbLine
 10
46.3303
 20
105.0
 30
0.0
 11
49.9603
 21
105.0
 31
0.0
  0
LINE
  5
92
330
1E
100
AcDbEntity
  8
0
100
AcDbLine
 10
49.9603
 20
105.0
 30
0.0
 11
53.3849
 21
105.0
 31
0.0
  0
LINE
  5
93
330
1E
100
AcDbEntity
  8
0
100
AcDbLine
 10
53.3849
 20
98.0
 30
0.0
 11
56.4628
 21
98.0
 31
0.0
  0
LINE
  5
94
330
1E
100
AcDbEntity
  8
0
100
AcDbLine
 10
59.29359999999999
 20
98.0
 30
0.0
 11
61.5099
 21
98.0
 31
0.0
  0
LINE
  5
95
330
1E
100
AcDbEntity
  8
0
100
AcDbLine
 10
56.4628
 20
98.0
 30
0.0
 11
59.29359999999999
 21
98.0
 31
0.0
  0
LINE
  5
96
330
1E
100
AcDbEntity
  8
0
100
AcDbLine
 10
61.5099
 20
98.0
 30
0.0
 11
63.22829999999999
 21
98.0
 31
0.0
  0
LINE
  5
97
330
1E
100
AcDbEntity
  8
0
100
AcDbLine
 10
61.5099
 20
105.0
 30
0.0
 11
63.22829999999999
 21
105.0
 31
0.0
  0
LINE
  5
98
330
1E
100
AcDbEntity
  8
0
100
AcDbLine
 10
59.29359999999999
 20
105.0
 30
0.0
 11
61.5099
 21
105.0
 31
0.0
  0
LINE
  5
99
330
1E
100
AcDbEntity
  8
0
100
AcDbLine
 10
56.4628
 20
105.0
 30
0.0
 11
59.29359999999999
 21
105.0
 31
0.0
  0
LINE
  5
9A
330
1E
100
AcDbEntity
  8
0
100
AcDbLine
 10
53.3849
 20
105.0
 30
0.0
 11
56.4628
 21
105.0
 31
0.0
  0
LINE
  5
9B
330
1E
100
AcDbEntity
  8
0
100
AcDbLine
 10
57.5
 20
105.0
 30
0.0
 11
62.7
 21
105.0
 31
0.0
  0
LINE
  5
9C
330
1E
100
AcDbEntity
  8
0
100
AcDbLine
 10
50.7
 20
105.0
 30
0.0
 11
57.5
 21
105.0
 31
0.0
  0
LINE
  5
9D
330
1E
100
AcDbEntity
  8
0
100
AcDbLine
 10
42.9
 20
155.0
 30
0.0
 11
50.7
 21
155.0
 31
0.0
  0
LINE
  5
9E
330
1E
100
AcDbEntity
  8
0
100
AcDbLine
 10
58.5
 20
105.6
 30
0.0
 11
63.9
 21
105.6
 31
0.0
  0
LINE
  5
9F
330
1E
100
AcDbEntity
  8
0
100
AcDbLine
 10
58.5
 20
154.4
 30
0.0
 11
63.9
 21
154.4
 31
0.0
  0
LINE
  5
A0
330
1E
100
AcDbEntity
  8
0
100
AcDbLine
 10
57.5
 20
155.0
 30
0.0
 11
62.7
 21
155.0
 31
0.0
  0
LINE
  5
A1
330
1E
100
AcDbEntity
  8
0
100
AcDbLine
 10
50.7
 20
155.0
 30
0.0
 11
57.5
 21
155.0
 31
0.0
  0
LINE
  5
A2
330
1E
100
AcDbEntity
  8
0
100
AcDbLine
 10
51.4
 20
154.4
 30
0.0
 11
58.5
 21
154.4
 31
0.0
  0
LINE
  5
A3
330
1E
100
AcDbEntity
  8
0
100
AcDbLine
 10
43.3
 20
154.4
 30
0.0
 11
51.4
 21
154.4
 31
0.0
  0
LINE
  5
A4
330
1E
100
AcDbEntity
  8
0
100
AcDbLine
 10
51.4
 20
105.6
 30
0.0
 11
58.5
 21
105.6
 31
0.0
  0
LINE
  5
A5
330
1E
100
AcDbEntity
  8
0
100
AcDbLine
 10
43.3
 20
105.6
 30
0.0
 11
51.4
 21
105.6
 31
0.0
  0
LINE
  5
A6
330
1E
100
AcDbEntity
  8
0
100
AcDbLine
 10
42.9
 20
105.0
 30
0.0
 11
50.7
 21
105.0
 31
0.0
  0
LINE
  5
A7
330
1E
100
AcDbEntity
  8
0
100
AcDbLine
 10
34.5
 20
105.0
 30
0.0
 11
42.9
 21
105.0
 31
0.0
  0
LINE
  5
A8
330
1E
100
AcDbEntity
  8
0
100
AcDbLine
 10
34.5
 20
105.0
 30
0.0
 11
38.6
 21
105.0
 31
0.0
  0
LINE
  5
A9
330
1E
100
AcDbEntity
  8
0
100
AcDbLine
 10
41.6
 20
0.9999999999999978
 30
0.0
 11
48.2
 21
0.9999999999999969
 31
0.0
  0
LINE
  5
AA
330
1E
100
AcDbEntity
  8
0
100
AcDbLine
 10
34.5
 20
0.9999999999999978
 30
0.0
 11
41.6
 21
0.9999999999999978
 31
0.0
  0
LINE
  5
AB
330
1E
100
AcDbEntity
  8
0
100
AcDbLine
 10
34.5
 20
-0.000000000000002
 30
0.0
 11
40.89999999999999
 21
-0.0000000000000024
 31
0.0
  0
LINE
  5
AC
330
1E
100
AcDbEntity
  8
0
100
AcDbLine
 10
62.5
 20
98.0
 30
0.0
 11
63.22829999999999
 21
98.0
 31
0.0
  0
LINE
  5
AD
330
1E
100
AcDbEntity
  8
0
100
AcDbLine
 10
63.22829999999999
 20
98.0
 30
0.0
 11
64.5
 21
98.0
 31
0.0
  0
LINE
  5
AE
330
1E
100
AcDbEntity
  8
0
100
AcDbLine
 10
63.22829999999999
 20
98.0
 30
0.0
 11
66.79999999999999
 21
98.0
 31
0.0
  0
LINE
  5
AF
330
1E
100
AcDbEntity
  8
0
100
AcDbLine
 10
64.5
 20
98.0
 30
0.0
 11
65.3
 21
98.0
 31
0.0
  0
LINE
  5
B0
330
1E
100
AcDbEntity
  8
0
100
AcDbLine
 10
65.3
 20
98.0
 30
0.0
 11
65.5
 21
98.0
 31
0.0
  0
LINE
  5
B1
330
1E
100
AcDbEntity
  8
0
100
AcDbLine
 10
63.22829999999999
 20
105.0
 30
0.0
 11
64.5
 21
105.0
 31
0.0
  0
LINE
  5
B2
330
1E
100
AcDbEntity
  8
0
100
AcDbLine
 10
64.5
 20
105.0
 30
0.0
 11
65.3
 21
105.0
 31
0.0
  0
LINE
  5
B3
330
1E
100
AcDbEntity
  8
0
100
AcDbLine
 10
65.41
 20
98.01000000000001
 30
0.0
 11
65.5
 21
98.0
 31
0.0
  0
LINE
  5
B4
330
1E
100
AcDbEntity
  8
0
100
AcDbLine
 10
65.5
 20
98.0
 30
0.0
 11
66.4
 21
98.1
 31
0.0
  0
LINE
  5
B5
330
1E
100
AcDbEntity
  8
0
100
AcDbLine
 10
65.41
 20
104.99
 30
0.0
 11
65.5
 21
105.0
 31
0.0
  0
LINE
  5
B6
330
1E
100
AcDbEntity
  8
0
100
AcDbLine
 10
65.3
 20
105.0
 30
0.0
 11
65.5
 21
105.0
 31
0.0
  0
LINE
  5
B7
330
1E
100
AcDbEntity
  8
0
100
AcDbLine
 10
65.5
 20
105.0
 30
0.0
 11
66.79999999999999
 21
105.0
 31
0.0
  0
LINE
  5
B8
330
1E
100
AcDbEntity
  8
0
100
AcDbLine
 10
65.5
 20
105.0
 30
0.0
 11
66.4
 21
104.9
 31
0.0
  0
LINE
  5
B9
330
1E
100
AcDbEntity
  8
0
100
AcDbLine
 10
66.4
 20
98.1
 30
0.0
 11
67.2
 21
98.50000000000001
 31
0.0
  0
LINE
  5
BA
330
1E
100
AcDbEntity
  8
0
100
AcDbLine
 10
66.79999999999999
 20
98.0
 30
0.0
 11
70.9
 21
98.0
 31
0.0
  0
LINE
  5
BB
330
1E
100
AcDbEntity
  8
0
100
AcDbLine
 10
66.4
 20
104.9
 30
0.0
 11
67.2
 21
104.4999999999999
 31
0.0
  0
LINE
  5
BC
330
1E
100
AcDbEntity
  8
0
100
AcDbLine
 10
66.79999999999999
 20
105.0
 30
0.0
 11
70.9
 21
105.0
 31
0.0
  0
LINE
  5
BD
330
1E
100
AcDbEntity
  8
0
100
AcDbLine
 10
65.9
 20
105.0
 30
0.0
 11
67.0
 21
105.0
 31
0.0
  0
LINE
  5
BE
330
1E
100
AcDbEntity
  8
0
100
AcDbLine
 10
62.7
 20
155.0
 30
0.0
 11
65.9
 21
155.0
 31
0.0
  0
LINE
  5
BF
330
1E
100
AcDbEntity
  8
0
100
AcDbLine
 10
63.9
 20
154.4
 30
0.0
 11
67.2
 21
154.4
 31
0.0
  0
LINE
  5
C0
330
1E
100
AcDbEntity
  8
0
100
AcDbLine
 10
65.9
 20
155.0
 30
0.0
 11
67.0
 21
155.0
 31
0.0
  0
LINE
  5
C1
330
1E
100
AcDbEntity
  8
0
100
AcDbLine
 10
63.9
 20
105.6
 30
0.0
 11
67.2
 21
105.6
 31
0.0
  0
LINE
  5
C2
330
1E
100
AcDbEntity
  8
0
100
AcDbLine
 10
62.7
 20
105.0
 30
0.0
 11
65.9
 21
105.0
 31
0.0
  0
LINE
  5
C3
330
1E
100
AcDbEntity
  8
0
100
AcDbLine
 10
62.5
 20
3.0
 30
0.0
 11
62.5
 21
98.0
 31
0.0
  0
LINE
  5
C4
330
1E
100
AcDbEntity
  8
0
100
AcDbLine
 10
67.0
 20
155.0
 30
0.0
 11
68.4
 21
154.4
 31
0.0
  0
LINE
  5
C5
330
1E
100
AcDbEntity
  8
0
100
AcDbLine
 10
67.2
 20
98.50000000000001
 30
0.0
 11
68.0
 21
99.0
 31
0.0
  0
LINE
  5
C6
330
1E
100
AcDbEntity
  8
0
100
AcDbLine
 10
67.2
 20
104.4999999999999
 30
0.0
 11
68.0
 21
104.0
 31
0.0
  0
LINE
  5
C7
330
1E
100
AcDbEntity
  8
0
100
AcDbLine
 10
91.0
 20
84.59999999999999
 30
0.0
 11
91.0
 21
84.0
 31
0.0
  0
LINE
  5
C8
330
1E
100
AcDbEntity
  8
0
100
AcDbLine
 10
91.0
 20
84.59999999999999
 30
0.0
 11
91.0
 21
86.3
 31
0.0
  0
LINE
  5
C9
330
1E
100
AcDbEntity
  8
0
100
AcDbLine
 10
91.0
 20
84.0
 30
0.0
 11
91.5
 21
83.49999999999999
 31
0.0
  0
LINE
  5
CA
330
1E
100
AcDbEntity
  8
0
100
AcDbLine
 10
91.0
 20
84.0
 30
0.0
 11
91.0
 21
84.59999999999999
 31
0.0
  0
LINE
  5
CB
330
1E
100
AcDbEntity
  8
0
100
AcDbLine
 10
91.5
 20
83.49999999999999
 30
0.0
 11
109.0
 21
83.49999999999999
 31
0.0
  0
LINE
  5
CC
330
1E
100
AcDbEntity
  8
0
100
AcDbLine
 10
91.5
 20
83.49999999999999
 30
0.0
 11
91.5
 21
84.19999999999999
 31
0.0
  0
LINE
  5
CD
330
1E
100
AcDbEntity
  8
0
100
AcDbLine
 10
91.5
 20
84.19999999999999
 30
0.0
 11
91.5
 21
83.49999999999999
 31
0.0
  0
LINE
  5
CE
330
1E
100
AcDbEntity
  8
0
100
AcDbLine
 10
91.5
 20
84.19999999999999
 30
0.0
 11
91.5
 21
85.90000000000001
 31
0.0
  0
LINE
  5
CF
330
1E
100
AcDbEntity
  8
0
100
AcDbLine
 10
91.0
 20
89.9
 30
0.0
 11
91.0
 21
91.09999999999999
 31
0.0
  0
LINE
  5
D0
330
1E
100
AcDbEntity
  8
0
100
AcDbLine
 10
91.0
 20
91.09999999999999
 30
0.0
 11
91.0
 21
93.0
 31
0.0
  0
LINE
  5
D1
330
1E
100
AcDbEntity
  8
0
100
AcDbLine
 10
89.0
 20
91.0
 30
0.0
 11
91.0
 21
89.50000000000001
 31
0.0
  0
LINE
  5
D2
330
1E
100
AcDbEntity
  8
0
100
AcDbLine
 10
91.0
 20
89.50000000000001
 30
0.0
 11
91.0
 21
89.1
 31
0.0
  0
LINE
  5
D3
330
1E
100
AcDbEntity
  8
0
100
AcDbLine
 10
91.0
 20
89.50000000000001
 30
0.0
 11
91.0
 21
89.9
 31
0.0
  0
LINE
  5
D4
330
1E
100
AcDbEntity
  8
0
100
AcDbLine
 10
91.0
 20
86.3
 30
0.0
 11
91.0
 21
84.59999999999999
 31
0.0
  0
LINE
  5
D5
330
1E
100
AcDbEntity
  8
0
100
AcDbLine
 10
91.0
 20
86.3
 30
0.0
 11
91.0
 21
89.1
 31
0.0
  0
LINE
  5
D6
330
1E
100
AcDbEntity
  8
0
100
AcDbLine
 10
91.0
 20
89.1
 30
0.0
 11
91.0
 21
86.3
 31
0.0
  0
LINE
  5
D7
330
1E
100
AcDbEntity
  8
0
100
AcDbLine
 10
91.0
 20
89.1
 30
0.0
 11
91.0
 21
92.79999999999999
 31
0.0
  0
LINE
  5
D8
330
1E
100
AcDbEntity
  8
0
100
AcDbLine
 10
91.0
 20
89.1
 30
0.0
 11
91.0
 21
89.50000000000001
 31
0.0
  0
LINE
  5
D9
330
1E
100
AcDbEntity
  8
0
100
AcDbLine
 10
91.5
 20
85.90000000000001
 30
0.0
 11
91.5
 21
84.19999999999999
 31
0.0
  0
LINE
  5
DA
330
1E
100
AcDbEntity
  8
0
100
AcDbLine
 10
91.5
 20
85.90000000000001
 30
0.0
 11
91.5
 21
88.8
 31
0.0
  0
LINE
  5
DB
330
1E
100
AcDbEntity
  8
0
100
AcDbLine
 10
91.5
 20
88.8
 30
0.0
 11
91.5
 21
85.90000000000001
 31
0.0
  0
LINE
  5
DC
330
1E
100
AcDbEntity
  8
0
100
AcDbLine
 10
91.5
 20
88.8
 30
0.0
 11
91.5
 21
92.59999999999999
 31
0.0
  0
LINE
  5
DD
330
1E
100
AcDbEntity
  8
0
100
AcDbLine
 10
80.0
 20
98.0
 30
0.0
 11
87.0
 21
98.0
 31
0.0
  0
LINE
  5
DE
330
1E
100
AcDbEntity
  8
0
100
AcDbLine
 10
75.7
 20
98.0
 30
0.0
 11
80.0
 21
98.0
 31
0.0
  0
LINE
  5
DF
330
1E
100
AcDbEntity
  8
0
100
AcDbLine
 10
70.9
 20
98.0
 30
0.0
 11
75.7
 21
98.0
 31
0.0
  0
LINE
  5
E0
330
1E
100
AcDbEntity
  8
0
100
AcDbLine
 10
68.0
 20
99.0
 30
0.0
 11
68.5
 21
99.8
 31
0.0
  0
LINE
  5
E1
330
1E
100
AcDbEntity
  8
0
100
AcDbLine
 10
87.0
 20
100.6
 30
0.0
 11
87.0
 21
101.5
 31
0.0
  0
LINE
  5
E2
330
1E
100
AcDbEntity
  8
0
100
AcDbLine
 10
87.0
 20
100.6
 30
0.0
 11
87.0
 21
99.8
 31
0.0
  0
LINE
  5
E3
330
1E
100
AcDbEntity
  8
0
100
AcDbLine
 10
87.0
 20
99.8
 30
0.0
 11
87.0
 21
100.6
 31
0.0
  0
LINE
  5
E4
330
1E
100
AcDbEntity
  8
0
100
AcDbLine
 10
87.0
 20
99.8
 30
0.0
 11
87.0
 21
99.0
 31
0.0
  0
LINE
  5
E5
330
1E
100
AcDbEntity
  8
0
100
AcDbLine
 10
87.0
 20
99.0
 30
0.0
 11
87.0
 21
99.8
 31
0.0
  0
LINE
  5
E6
330
1E
100
AcDbEntity
  8
0
100
AcDbLine
 10
87.0
 20
99.0
 30
0.0
 11
87.0
 21
98.50000000000001
 31
0.0
  0
LINE
  5
E7
330
1E
100
AcDbEntity
  8
0
100
AcDbLine
 10
87.0
 20
98.50000000000001
 30
0.0
 11
87.0
 21
99.0
 31
0.0
  0
LINE
  5
E8
330
1E
100
AcDbEntity
  8
0
100
AcDbLine
 10
87.0
 20
98.50000000000001
 30
0.0
 11
87.0
 21
98.1
 31
0.0
  0
LINE
  5
E9
330
1E
100
AcDbEntity
  8
0
100
AcDbLine
 10
87.0
 20
98.1
 30
0.0
 11
87.0
 21
98.50000000000001
 31
0.0
  0
LINE
  5
EA
330
1E
100
AcDbEntity
  8
0
100
AcDbLine
 10
87.0
 20
98.1
 30
0.0
 11
87.0
 21
98.0
 31
0.0
  0
LINE
  5
EB
330
1E
100
AcDbEntity
  8
0
100
AcDbLine
 10
68.5
 20
99.8
 30
0.0
 11
68.9
 21
100.6
 31
0.0
  0
LINE
  5
EC
330
1E
100
AcDbEntity
  8
0
100
AcDbLine
 10
68.9
 20
100.6
 30
0.0
 11
69.0
 21
101.5
 31
0.0
  0
LINE
  5
ED
330
1E
100
AcDbEntity
  8
0
100
AcDbLine
 10
87.0
 20
101.5
 30
0.0
 11
87.0
 21
102.4
 31
0.0
  0
LINE
  5
EE
330
1E
100
AcDbEntity
  8
0
100
AcDbLine
 10
87.0
 20
101.5
 30
0.0
 11
87.0
 21
100.6
 31
0.0
  0
LINE
  5
EF
330
1E
100
AcDbEntity
  8
0
100
AcDbLine
 10
87.0
 20
98.0
 30
0.0
 11
87.5
 21
94.50000000000001
 31
0.0
  0
LINE
  5
F0
330
1E
100
AcDbEntity
  8
0
100
AcDbLine
 10
87.0
 20
98.0
 30
0.0
 11
87.0
 21
98.1
 31
0.0
  0
LINE
  5
F1
330
1E
100
AcDbEntity
  8
0
100
AcDbLine
 10
91.0
 20
93.0
 30
0.0
 11
91.0
 21
95.5
 31
0.0
  0
LINE
  5
F2
330
1E
100
AcDbEntity
  8
0
100
AcDbLine
 10
91.0
 20
95.5
 30
0.0
 11
91.0
 21
98.40000000000001
 31
0.0
  0
LINE
  5
F3
330
1E
100
AcDbEntity
  8
0
100
AcDbLine
 10
91.0
 20
98.40000000000001
 30
0.0
 11
91.0
 21
101.5
 31
0.0
  0
LINE
  5
F4
330
1E
100
AcDbEntity
  8
0
100
AcDbLine
 10
87.5
 20
94.50000000000001
 30
0.0
 11
89.0
 21
91.0
 31
0.0
  0
LINE
  5
F5
330
1E
100
AcDbEntity
  8
0
100
AcDbLine
 10
91.0
 20
92.79999999999999
 30
0.0
 11
91.0
 21
89.1
 31
0.0
  0
LINE
  5
F6
330
1E
100
AcDbEntity
  8
0
100
AcDbLine
 10
91.0
 20
92.79999999999999
 30
0.0
 11
91.0
 21
97.0
 31
0.0
  0
LINE
  5
F7
330
1E
100
AcDbEntity
  8
0
100
AcDbLine
 10
91.0
 20
97.0
 30
0.0
 11
91.0
 21
92.79999999999999
 31
0.0
  0
LINE
  5
F8
330
1E
100
AcDbEntity
  8
0
100
AcDbLine
 10
91.0
 20
97.0
 30
0.0
 11
91.0
 21
101.5
 31
0.0
  0
LINE
  5
F9
330
1E
100
AcDbEntity
  8
0
100
AcDbLine
 10
91.5
 20
92.59999999999999
 30
0.0
 11
91.5
 21
88.8
 31
0.0
  0
LINE
  5
FA
330
1E
100
AcDbEntity
  8
0
100
AcDbLine
 10
91.5
 20
92.59999999999999
 30
0.0
 11
91.5
 21
96.90000000000001
 31
0.0
  0
LINE
  5
FB
330
1E
100
AcDbEntity
  8
0
100
AcDbLine
 10
91.5
 20
96.90000000000001
 30
0.0
 11
91.5
 21
92.59999999999999
 31
0.0
  0
LINE
  5
FC
330
1E
100
AcDbEntity
  8
0
100
AcDbLine
 10
91.5
 20
96.90000000000001
 30
0.0
 11
91.5
 21
101.5
 31
0.0
  0
LINE
  5
FD
330
1E
100
AcDbEntity
  8
0
100
AcDbLine
 10
91.0
 20
101.5
 30
0.0
 11
91.0
 21
106.0
 31
0.0
  0
LINE
  5
FE
330
1E
100
AcDbEntity
  8
0
100
AcDbLine
 10
91.0
 20
101.5
 30
0.0
 11
91.0
 21
97.0
 31
0.0
  0
LINE
  5
FF
330
1E
100
AcDbEntity
  8
0
100
AcDbLine
 10
91.0
 20
101.5
 30
0.0
 11
91.0
 21
104.6
 31
0.0
  0
LINE
  5
100
330
1E
100
AcDbEntity
  8
0
100
AcDbLine
 10
109.0
 20
75.0
 30
0.0
 11
109.4999999999999
 21
74.5
 31
0.0
  0
LINE
  5
101
330
1E
100
AcDbEntity
  8
0
100
AcDbLine
 10
109.0
 20
75.0
 30
0.0
 11
109.0
 21
76.0
 31
0.0
  0
LINE
  5
102
330
1E
100
AcDbEntity
  8
0
100
AcDbLine
 10
109.4999999999999
 20
74.5
 30
0.0
 11
119.0
 21
74.5
 31
0.0
  0
LINE
  5
103
330
1E
100
AcDbEntity
  8
0
100
AcDbLine
 10
109.4999999999999
 20
74.5
 30
0.0
 11
109.4999999999999
 21
75.5
 31
0.0
  0
LINE
  5
104
330
1E
100
AcDbEntity
  8
0
100
AcDbLine
 10
109.0
 20
76.0
 30
0.0
 11
109.0
 21
75.0
 31
0.0
  0
LINE
  5
105
330
1E
100
AcDbEntity
  8
0
100
AcDbLine
 10
109.0
 20
76.0
 30
0.0
 11
109.0
 21
78.5
 31
0.0
  0
LINE
  5
106
330
1E
100
AcDbEntity
  8
0
100
AcDbLine
 10
109.0
 20
78.5
 30
0.0
 11
109.0
 21
76.0
 31
0.0
  0
LINE
  5
107
330
1E
100
AcDbEntity
  8
0
100
AcDbLine
 10
109.0
 20
78.5
 30
0.0
 11
109.0
 21
82.79999999999999
 31
0.0
  0
LINE
  5
108
330
1E
100
AcDbEntity
  8
0
100
AcDbLine
 10
109.4999999999999
 20
75.5
 30
0.0
 11
109.4999999999999
 21
74.5
 31
0.0
  0
LINE
  5
109
330
1E
100
AcDbEntity
  8
0
100
AcDbLine
 10
109.4999999999999
 20
75.5
 30
0.0
 11
109.4999999999999
 21
78.09999999999999
 31
0.0
  0
LINE
  5
10A
330
1E
100
AcDbEntity
  8
0
100
AcDbLine
 10
109.4999999999999
 20
78.09999999999999
 30
0.0
 11
109.4999999999999
 21
75.5
 31
0.0
  0
LINE
  5
10B
330
1E
100
AcDbEntity
  8
0
100
AcDbLine
 10
109.4999999999999
 20
78.09999999999999
 30
0.0
 11
109.4999999999999
 21
82.4
 31
0.0
  0
LINE
  5
10C
330
1E
100
AcDbEntity
  8
0
100
AcDbLine
 10
109.0
 20
83.49999999999999
 30
0.0
 11
109.0
 21
84.19999999999999
 31
0.0
  0
LINE
  5
10D
330
1E
100
AcDbEntity
  8
0
100
AcDbLine
 10
109.0
 20
83.49999999999999
 30
0.0
 11
109.0
 21
82.79999999999999
 31
0.0
  0
LINE
  5
10E
330
1E
100
AcDbEntity
  8
0
100
AcDbLine
 10
109.0
 20
84.19999999999999
 30
0.0
 11
109.0
 21
83.49999999999999
 31
0.0
  0
LINE
  5
10F
330
1E
100
AcDbEntity
  8
0
100
AcDbLine
 10
109.0
 20
84.19999999999999
 30
0.0
 11
109.0
 21
85.90000000000001
 31
0.0
  0
LINE
  5
110
330
1E
100
AcDbEntity
  8
0
100
AcDbLine
 10
109.0
 20
85.90000000000001
 30
0.0
 11
109.0
 21
84.19999999999999
 31
0.0
  0
LINE
  5
111
330
1E
100
AcDbEntity
  8
0
100
AcDbLine
 10
109.0
 20
85.90000000000001
 30
0.0
 11
109.0
 21
88.8
 31
0.0
  0
LINE
  5
112
330
1E
100
AcDbEntity
  8
0
100
AcDbLine
 10
109.0
 20
88.8
 30
0.0
 11
109.0
 21
85.90000000000001
 31
0.0
  0
LINE
  5
113
330
1E
100
AcDbEntity
  8
0
100
AcDbLine
 10
109.0
 20
88.8
 30
0.0
 11
109.0
 21
92.59999999999999
 31
0.0
  0
LINE
  5
114
330
1E
100
AcDbEntity
  8
0
100
AcDbLine
 10
109.0
 20
92.59999999999999
 30
0.0
 11
109.0
 21
88.8
 31
0.0
  0
LINE
  5
115
330
1E
100
AcDbEntity
  8
0
100
AcDbLine
 10
109.0
 20
92.59999999999999
 30
0.0
 11
109.0
 21
96.90000000000001
 31
0.0
  0
LINE
  5
116
330
1E
100
AcDbEntity
  8
0
100
AcDbLine
 10
109.0
 20
82.79999999999999
 30
0.0
 11
109.0
 21
78.5
 31
0.0
  0
LINE
  5
117
330
1E
100
AcDbEntity
  8
0
100
AcDbLine
 10
109.0
 20
82.79999999999999
 30
0.0
 11
109.0
 21
88.3
 31
0.0
  0
LINE
  5
118
330
1E
100
AcDbEntity
  8
0
100
AcDbLine
 10
109.0
 20
82.79999999999999
 30
0.0
 11
109.0
 21
83.49999999999999
 31
0.0
  0
LINE
  5
119
330
1E
100
AcDbEntity
  8
0
100
AcDbLine
 10
109.0
 20
88.3
 30
0.0
 11
109.0
 21
82.79999999999999
 31
0.0
  0
LINE
  5
11A
330
1E
100
AcDbEntity
  8
0
100
AcDbLine
 10
109.0
 20
88.3
 30
0.0
 11
109.0
 21
94.7
 31
0.0
  0
LINE
  5
11B
330
1E
100
AcDbEntity
  8
0
100
AcDbLine
 10
109.4999999999999
 20
82.4
 30
0.0
 11
109.4999999999999
 21
78.09999999999999
 31
0.0
  0
LINE
  5
11C
330
1E
100
AcDbEntity
  8
0
100
AcDbLine
 10
109.4999999999999
 20
82.4
 30
0.0
 11
109.4999999999999
 21
88.1
 31
0.0
  0
LINE
  5
11D
330
1E
100
AcDbEntity
  8
0
100
AcDbLine
 10
109.4999999999999
 20
88.1
 30
0.0
 11
109.4999999999999
 21
82.4
 31
0.0
  0
LINE
  5
11E
330
1E
100
AcDbEntity
  8
0
100
AcDbLine
 10
109.4999999999999
 20
88.1
 30
0.0
 11
109.4999999999999
 21
94.59999999999999
 31
0.0
  0
LINE
  5
11F
330
1E
100
AcDbEntity
  8
0
100
AcDbLine
 10
109.0
 20
96.90000000000001
 30
0.0
 11
109.0
 21
92.59999999999999
 31
0.0
  0
LINE
  5
120
330
1E
100
AcDbEntity
  8
0
100
AcDbLine
 10
109.0
 20
96.90000000000001
 30
0.0
 11
109.0
 21
101.5
 31
0.0
  0
LINE
  5
121
330
1E
100
AcDbEntity
  8
0
100
AcDbLine
 10
109.0
 20
94.7
 30
0.0
 11
109.0
 21
88.3
 31
0.0
  0
LINE
  5
122
330
1E
100
AcDbEntity
  8
0
100
AcDbLine
 10
109.0
 20
94.7
 30
0.0
 11
109.0
 21
101.5
 31
0.0
  0
LINE
  5
123
330
1E
100
AcDbEntity
  8
0
100
AcDbLine
 10
109.4999999999999
 20
94.59999999999999
 30
0.0
 11
109.4999999999999
 21
88.1
 31
0.0
  0
LINE
  5
124
330
1E
100
AcDbEntity
  8
0
100
AcDbLine
 10
109.4999999999999
 20
94.59999999999999
 30
0.0
 11
109.4999999999999
 21
101.5
 31
0.0
  0
LINE
  5
125
330
1E
100
AcDbEntity
  8
0
100
AcDbLine
 10
91.5
 20
101.5
 30
0.0
 11
91.5
 21
106.0999999999999
 31
0.0
  0
LINE
  5
126
330
1E
100
AcDbEntity
  8
0
100
AcDbLine
 10
91.5
 20
101.5
 30
0.0
 11
91.5
 21
96.90000000000001
 31
0.0
  0
LINE
  5
127
330
1E
100
AcDbEntity
  8
0
100
AcDbLine
 10
109.0
 20
101.5
 30
0.0
 11
109.0
 21
108.2999999999999
 31
0.0
  0
LINE
  5
128
330
1E
100
AcDbEntity
  8
0
100
AcDbLine
 10
109.0
 20
101.5
 30
0.0
 11
109.0
 21
106.0999999999999
 31
0.0
  0
LINE
  5
129
330
1E
100
AcDbEntity
  8
0
100
AcDbLine
 10
109.0
 20
101.5
 30
0.0
 11
109.0
 21
94.7
 31
0.0
  0
LINE
  5
12A
330
1E
100
AcDbEntity
  8
0
100
AcDbLine
 10
109.0
 20
101.5
 30
0.0
 11
109.0
 21
96.90000000000001
 31
0.0
  0
LINE
  5
12B
330
1E
100
AcDbEntity
  8
0
100
AcDbLine
 10
119.0
 20
74.5
 30
0.0
 11
119.0
 21
75.5
 31
0.0
  0
LINE
  5
12C
330
1E
100
AcDbEntity
  8
0
100
AcDbLine
 10
119.0
 20
75.5
 30
0.0
 11
119.0
 21
74.5
 31
0.0
  0
LINE
  5
12D
330
1E
100
AcDbEntity
  8
0
100
AcDbLine
 10
119.0
 20
75.5
 30
0.0
 11
119.0
 21
78.09999999999999
 31
0.0
  0
LINE
  5
12E
330
1E
100
AcDbEntity
  8
0
100
AcDbLine
 10
119.0
 20
78.09999999999999
 30
0.0
 11
119.0
 21
75.5
 31
0.0
  0
LINE
  5
12F
330
1E
100
AcDbEntity
  8
0
100
AcDbLine
 10
119.0
 20
78.09999999999999
 30
0.0
 11
119.0
 21
82.4
 31
0.0
  0
LINE
  5
130
330
1E
100
AcDbEntity
  8
0
100
AcDbLine
 10
119.0
 20
82.4
 30
0.0
 11
119.0
 21
78.09999999999999
 31
0.0
  0
LINE
  5
131
330
1E
100
AcDbEntity
  8
0
100
AcDbLine
 10
119.0
 20
82.4
 30
0.0
 11
119.0
 21
88.1
 31
0.0
  0
LINE
  5
132
330
1E
100
AcDbEntity
  8
0
100
AcDbLine
 10
119.0
 20
88.1
 30
0.0
 11
119.0
 21
82.4
 31
0.0
  0
LINE
  5
133
330
1E
100
AcDbEntity
  8
0
100
AcDbLine
 10
119.0
 20
88.1
 30
0.0
 11
119.0
 21
94.59999999999999
 31
0.0
  0
LINE
  5
134
330
1E
100
AcDbEntity
  8
0
100
AcDbLine
 10
119.0
 20
94.59999999999999
 30
0.0
 11
119.0
 21
88.1
 31
0.0
  0
LINE
  5
135
330
1E
100
AcDbEntity
  8
0
100
AcDbLine
 10
119.0
 20
94.59999999999999
 30
0.0
 11
119.0
 21
101.5
 31
0.0
  0
LINE
  5
136
330
1E
100
AcDbEntity
  8
0
100
AcDbLine
 10
109.4999999999999
 20
101.5
 30
0.0
 11
109.4999999999999
 21
108.4
 31
0.0
  0
LINE
  5
137
330
1E
100
AcDbEntity
  8
0
100
AcDbLine
 10
109.4999999999999
 20
101.5
 30
0.0
 11
109.4999999999999
 21
94.59999999999999
 31
0.0
  0
LINE
  5
138
330
1E
100
AcDbEntity
  8
0
100
AcDbLine
 10
68.0
 20
104.0
 30
0.0
 11
68.5
 21
103.2
 31
0.0
  0
LINE
  5
139
330
1E
100
AcDbEntity
  8
0
100
AcDbLine
 10
68.5
 20
103.2
 30
0.0
 11
68.9
 21
102.4
 31
0.0
  0
LINE
  5
13A
330
1E
100
AcDbEntity
  8
0
100
AcDbLine
 10
68.9
 20
102.4
 30
0.0
 11
69.0
 21
101.5
 31
0.0
  0
LINE
  5
13B
330
1E
100
AcDbEntity
  8
0
100
AcDbLine
 10
87.0
 20
102.4
 30
0.0
 11
87.0
 21
103.2
 31
0.0
  0
LINE
  5
13C
330
1E
100
AcDbEntity
  8
0
100
AcDbLine
 10
87.0
 20
102.4
 30
0.0
 11
87.0
 21
101.5
 31
0.0
  0
LINE
  5
13D
330
1E
100
AcDbEntity
  8
0
100
AcDbLine
 10
87.0
 20
103.2
 30
0.0
 11
87.0
 21
104.0
 31
0.0
  0
LINE
  5
13E
330
1E
100
AcDbEntity
  8
0
100
AcDbLine
 10
87.0
 20
103.2
 30
0.0
 11
87.0
 21
102.4
 31
0.0
  0
LINE
  5
13F
330
1E
100
AcDbEntity
  8
0
100
AcDbLine
 10
87.0
 20
104.0
 30
0.0
 11
87.0
 21
104.4999999999999
 31
0.0
  0
LINE
  5
140
330
1E
100
AcDbEntity
  8
0
100
AcDbLine
 10
87.0
 20
104.0
 30
0.0
 11
87.0
 21
103.2
 31
0.0
  0
LINE
  5
141
330
1E
100
AcDbEntity
  8
0
100
AcDbLine
 10
87.0
 20
104.4999999999999
 30
0.0
 11
87.0
 21
104.9
 31
0.0
  0
LINE
  5
142
330
1E
100
AcDbEntity
  8
0
100
AcDbLine
 10
87.0
 20
104.4999999999999
 30
0.0
 11
87.0
 21
104.0
 31
0.0
  0
LINE
  5
143
330
1E
100
AcDbEntity
  8
0
100
AcDbLine
 10
87.0
 20
104.9
 30
0.0
 11
87.0
 21
105.0
 31
0.0
  0
LINE
  5
144
330
1E
100
AcDbEntity
  8
0
100
AcDbLine
 10
87.0
 20
104.9
 30
0.0
 11
87.0
 21
104.4999999999999
 31
0.0
  0
LINE
  5
145
330
1E
100
AcDbEntity
  8
0
100
AcDbLine
 10
80.0
 20
105.0
 30
0.0
 11
87.0
 21
105.0
 31
0.0
  0
LINE
  5
146
330
1E
100
AcDbEntity
  8
0
100
AcDbLine
 10
75.7
 20
105.0
 30
0.0
 11
80.0
 21
105.0
 31
0.0
  0
LINE
  5
147
330
1E
100
AcDbEntity
  8
0
100
AcDbLine
 10
70.9
 20
105.0
 30
0.0
 11
75.7
 21
105.0
 31
0.0
  0
LINE
  5
148
330
1E
100
AcDbEntity
  8
0
100
AcDbLine
 10
91.0
 20
104.6
 30
0.0
 11
91.0
 21
107.4999999999999
 31
0.0
  0
LINE
  5
149
330
1E
100
AcDbEntity
  8
0
100
AcDbLine
 10
87.0
 20
105.0
 30
0.0
 11
87.5
 21
108.4999999999999
 31
0.0
  0
LINE
  5
14A
330
1E
100
AcDbEntity
  8
0
100
AcDbLine
 10
87.0
 20
105.0
 30
0.0
 11
87.0
 21
104.9
 31
0.0
  0
LINE
  5
14B
330
1E
100
AcDbEntity
  8
0
100
AcDbLine
 10
119.0
 20
101.5
 30
0.0
 11
119.0
 21
108.4
 31
0.0
  0
LINE
  5
14C
330
1E
100
AcDbEntity
  8
0
100
AcDbLine
 10
119.0
 20
101.5
 30
0.0
 11
119.0
 21
94.59999999999999
 31
0.0
  0
LINE
  5
14D
330
1E
100
AcDbEntity
  8
0
100
AcDbLine
 10
67.2
 20
105.6
 30
0.0
 11
68.4
 21
105.6
 31
0.0
  0
LINE
  5
14E
330
1E
100
AcDbEntity
  8
0
100
AcDbLine
 10
67.2
 20
154.4
 30
0.0
 11
68.4
 21
154.4
 31
0.0
  0
LINE
  5
14F
330
1E
100
AcDbEntity
  8
0
100
AcDbLine
 10
69.0
 20
107.0
 30
0.0
 11
69.0
 21
153.0
 31
0.0
  0
LINE
  5
150
330
1E
100
AcDbEntity
  8
0
100
AcDbLine
 10
68.4
 20
154.4
 30
0.0
 11
69.0
 21
153.0
 31
0.0
  0
LINE
  5
151
330
1E
100
AcDbEntity
  8
0
100
AcDbLine
 10
91.0
 20
110.0
 30
0.0
 11
91.0
 21
111.8999999999999
 31
0.0
  0
LINE
  5
152
330
1E
100
AcDbEntity
  8
0
100
AcDbLine
 10
91.0
 20
107.4999999999999
 30
0.0
 11
91.0
 21
110.0
 31
0.0
  0
LINE
  5
153
330
1E
100
AcDbEntity
  8
0
100
AcDbLine
 10
87.5
 20
108.4999999999999
 30
0.0
 11
89.0
 21
112.0
 31
0.0
  0
LINE
  5
154
330
1E
100
AcDbEntity
  8
0
100
AcDbLine
 10
91.0
 20
110.2
 30
0.0
 11
91.0
 21
106.0
 31
0.0
  0
LINE
  5
155
330
1E
100
AcDbEntity
  8
0
100
AcDbLine
 10
91.0
 20
110.2
 30
0.0
 11
91.0
 21
113.9
 31
0.0
  0
LINE
  5
156
330
1E
100
AcDbEntity
  8
0
100
AcDbLine
 10
91.0
 20
106.0
 30
0.0
 11
91.0
 21
101.5
 31
0.0
  0
LINE
  5
157
330
1E
100
AcDbEntity
  8
0
100
AcDbLine
 10
91.0
 20
106.0
 30
0.0
 11
91.0
 21
110.2
 31
0.0
  0
LINE
  5
158
330
1E
100
AcDbEntity
  8
0
100
AcDbLine
 10
91.0
 20
113.1
 30
0.0
 11
91.0
 21
113.5
 31
0.0
  0
LINE
  5
159
330
1E
100
AcDbEntity
  8
0
100
AcDbLine
 10
91.0
 20
111.8999999999999
 30
0.0
 11
91.0
 21
113.1
 31
0.0
  0
LINE
  5
15A
330
1E
100
AcDbEntity
  8
0
100
AcDbLine
 10
89.0
 20
112.0
 30
0.0
 11
91.0
 21
113.5
 31
0.0
  0
LINE
  5
15B
330
1E
100
AcDbEntity
  8
0
100
AcDbLine
 10
91.5
 20
110.4
 30
0.0
 11
91.5
 21
106.0999999999999
 31
0.0
  0
LINE
  5
15C
330
1E
100
AcDbEntity
  8
0
100
AcDbLine
 10
91.5
 20
110.4
 30
0.0
 11
91.5
 21
114.2
 31
0.0
  0
LINE
  5
15D
330
1E
100
AcDbEntity
  8
0
100
AcDbLine
 10
91.5
 20
106.0999999999999
 30
0.0
 11
91.5
 21
101.5
 31
0.0
  0
LINE
  5
15E
330
1E
100
AcDbEntity
  8
0
100
AcDbLine
 10
91.5
 20
106.0999999999999
 30
0.0
 11
91.5
 21
110.4
 31
0.0
  0
LINE
  5
15F
330
1E
100
AcDbEntity
  8
0
100
AcDbLine
 10
91.0
 20
118.4
 30
0.0
 11
91.0
 21
119.0
 31
0.0
  0
LINE
  5
160
330
1E
100
AcDbEntity
  8
0
100
AcDbLine
 10
91.0
 20
118.4
 30
0.0
 11
91.0
 21
116.7
 31
0.0
  0
LINE
  5
161
330
1E
100
AcDbEntity
  8
0
100
AcDbLine
 10
91.0
 20
119.0
 30
0.0
 11
91.5
 21
119.5
 31
0.0
  0
LINE
  5
162
330
1E
100
AcDbEntity
  8
0
100
AcDbLine
 10
91.0
 20
119.0
 30
0.0
 11
91.0
 21
118.4
 31
0.0
  0
LINE
  5
163
330
1E
100
AcDbEntity
  8
0
100
AcDbLine
 10
91.0
 20
116.7
 30
0.0
 11
91.0
 21
118.4
 31
0.0
  0
LINE
  5
164
330
1E
100
AcDbEntity
  8
0
100
AcDbLine
 10
91.0
 20
116.7
 30
0.0
 11
91.0
 21
113.9
 31
0.0
  0
LINE
  5
165
330
1E
100
AcDbEntity
  8
0
100
AcDbLine
 10
91.5
 20
118.7999999999999
 30
0.0
 11
91.5
 21
117.1
 31
0.0
  0
LINE
  5
166
330
1E
100
AcDbEntity
  8
0
100
AcDbLine
 10
91.5
 20
118.7999999999999
 30
0.0
 11
91.5
 21
119.5
 31
0.0
  0
LINE
  5
167
330
1E
100
AcDbEntity
  8
0
100
AcDbLine
 10
91.5
 20
117.1
 30
0.0
 11
91.5
 21
114.2
 31
0.0
  0
LINE
  5
168
330
1E
100
AcDbEntity
  8
0
100
AcDbLine
 10
91.5
 20
117.1
 30
0.0
 11
91.5
 21
118.7999999999999
 31
0.0
  0
LINE
  5
169
330
1E
100
AcDbEntity
  8
0
100
AcDbLine
 10
91.5
 20
114.2
 30
0.0
 11
91.5
 21
110.4
 31
0.0
  0
LINE
  5
16A
330
1E
100
AcDbEntity
  8
0
100
AcDbLine
 10
91.5
 20
114.2
 30
0.0
 11
91.5
 21
117.1
 31
0.0
  0
LINE
  5
16B
330
1E
100
AcDbEntity
  8
0
100
AcDbLine
 10
91.0
 20
113.9
 30
0.0
 11
91.0
 21
116.7
 31
0.0
  0
LINE
  5
16C
330
1E
100
AcDbEntity
  8
0
100
AcDbLine
 10
91.0
 20
113.9
 30
0.0
 11
91.0
 21
113.5
 31
0.0
  0
LINE
  5
16D
330
1E
100
AcDbEntity
  8
0
100
AcDbLine
 10
91.0
 20
113.9
 30
0.0
 11
91.0
 21
110.2
 31
0.0
  0
LINE
  5
16E
330
1E
100
AcDbEntity
  8
0
100
AcDbLine
 10
91.0
 20
113.5
 30
0.0
 11
91.0
 21
113.9
 31
0.0
  0
LINE
  5
16F
330
1E
100
AcDbEntity
  8
0
100
AcDbLine
 10
109.0
 20
106.0999999999999
 30
0.0
 11
109.0
 21
101.5
 31
0.0
  0
LINE
  5
170
330
1E
100
AcDbEntity
  8
0
100
AcDbLine
 10
109.0
 20
106.0999999999999
 30
0.0
 11
109.0
 21
110.4
 31
0.0
  0
LINE
  5
171
330
1E
100
AcDbEntity
  8
0
100
AcDbLine
 10
109.0
 20
118.7999999999999
 30
0.0
 11
109.0
 21
117.1
 31
0.0
  0
LINE
  5
172
330
1E
100
AcDbEntity
  8
0
100
AcDbLine
 10
109.0
 20
118.7999999999999
 30
0.0
 11
109.0
 21
119.5
 31
0.0
  0
LINE
  5
173
330
1E
100
AcDbEntity
  8
0
100
AcDbLine
 10
109.0
 20
117.1
 30
0.0
 11
109.0
 21
114.2
 31
0.0
  0
LINE
  5
174
330
1E
100
AcDbEntity
  8
0
100
AcDbLine
 10
109.0
 20
117.1
 30
0.0
 11
109.0
 21
118.7999999999999
 31
0.0
  0
LINE
  5
175
330
1E
100
AcDbEntity
  8
0
100
AcDbLine
 10
109.0
 20
114.2
 30
0.0
 11
109.0
 21
110.4
 31
0.0
  0
LINE
  5
176
330
1E
100
AcDbEntity
  8
0
100
AcDbLine
 10
109.0
 20
114.2
 30
0.0
 11
109.0
 21
117.1
 31
0.0
  0
LINE
  5
177
330
1E
100
AcDbEntity
  8
0
100
AcDbLine
 10
109.0
 20
110.4
 30
0.0
 11
109.0
 21
106.0999999999999
 31
0.0
  0
LINE
  5
178
330
1E
100
AcDbEntity
  8
0
100
AcDbLine
 10
109.0
 20
110.4
 30
0.0
 11
109.0
 21
114.2
 31
0.0
  0
LINE
  5
179
330
1E
100
AcDbEntity
  8
0
100
AcDbLine
 10
109.0
 20
114.7
 30
0.0
 11
109.0
 21
108.2999999999999
 31
0.0
  0
LINE
  5
17A
330
1E
100
AcDbEntity
  8
0
100
AcDbLine
 10
109.0
 20
114.7
 30
0.0
 11
109.0
 21
120.1999999999999
 31
0.0
  0
LINE
  5
17B
330
1E
100
AcDbEntity
  8
0
100
AcDbLine
 10
109.0
 20
108.2999999999999
 30
0.0
 11
109.0
 21
101.5
 31
0.0
  0
LINE
  5
17C
330
1E
100
AcDbEntity
  8
0
100
AcDbLine
 10
109.0
 20
108.2999999999999
 30
0.0
 11
109.0
 21
114.7
 31
0.0
  0
LINE
  5
17D
330
1E
100
AcDbEntity
  8
0
100
AcDbLine
 10
91.5
 20
119.5
 30
0.0
 11
109.0
 21
119.5
 31
0.0
  0
LINE
  5
17E
330
1E
100
AcDbEntity
  8
0
100
AcDbLine
 10
91.5
 20
119.5
 30
0.0
 11
91.5
 21
118.7999999999999
 31
0.0
  0
LINE
  5
17F
330
1E
100
AcDbEntity
  8
0
100
AcDbLine
 10
109.0
 20
127.0
 30
0.0
 11
109.0
 21
128.0
 31
0.0
  0
LINE
  5
180
330
1E
100
AcDbEntity
  8
0
100
AcDbLine
 10
109.0
 20
127.0
 30
0.0
 11
109.0
 21
124.5
 31
0.0
  0
LINE
  5
181
330
1E
100
AcDbEntity
  8
0
100
AcDbLine
 10
109.0
 20
128.0
 30
0.0
 11
109.4999999999999
 21
128.4999999999999
 31
0.0
  0
LINE
  5
182
330
1E
100
AcDbEntity
  8
0
100
AcDbLine
 10
109.0
 20
128.0
 30
0.0
 11
109.0
 21
127.0
 31
0.0
  0
LINE
  5
183
330
1E
100
AcDbEntity
  8
0
100
AcDbLine
 10
109.0
 20
124.5
 30
0.0
 11
109.0
 21
127.0
 31
0.0
  0
LINE
  5
184
330
1E
100
AcDbEntity
  8
0
100
AcDbLine
 10
109.0
 20
124.5
 30
0.0
 11
109.0
 21
120.1999999999999
 31
0.0
  0
LINE
  5
185
330
1E
100
AcDbEntity
  8
0
100
AcDbLine
 10
109.0
 20
120.1999999999999
 30
0.0
 11
109.0
 21
124.5
 31
0.0
  0
LINE
  5
186
330
1E
100
AcDbEntity
  8
0
100
AcDbLine
 10
109.0
 20
120.1999999999999
 30
0.0
 11
109.0
 21
119.5
 31
0.0
  0
LINE
  5
187
330
1E
100
AcDbEntity
  8
0
100
AcDbLine
 10
109.0
 20
120.1999999999999
 30
0.0
 11
109.0
 21
114.7
 31
0.0
  0
LINE
  5
188
330
1E
100
AcDbEntity
  8
0
100
AcDbLine
 10
109.4999999999999
 20
108.4
 30
0.0
 11
109.4999999999999
 21
101.5
 31
0.0
  0
LINE
  5
189
330
1E
100
AcDbEntity
  8
0
100
AcDbLine
 10
109.4999999999999
 20
108.4
 30
0.0
 11
109.4999999999999
 21
114.9
 31
0.0
  0
LINE
  5
18A
330
1E
100
AcDbEntity
  8
0
100
AcDbLine
 10
109.4999999999999
 20
120.5999999999999
 30
0.0
 11
109.4999999999999
 21
114.9
 31
0.0
  0
LINE
  5
18B
330
1E
100
AcDbEntity
  8
0
100
AcDbLine
 10
109.4999999999999
 20
120.5999999999999
 30
0.0
 11
109.4999999999999
 21
124.9
 31
0.0
  0
LINE
  5
18C
330
1E
100
AcDbEntity
  8
0
100
AcDbLine
 10
109.4999999999999
 20
114.9
 30
0.0
 11
109.4999999999999
 21
108.4
 31
0.0
  0
LINE
  5
18D
330
1E
100
AcDbEntity
  8
0
100
AcDbLine
 10
109.4999999999999
 20
114.9
 30
0.0
 11
109.4999999999999
 21
120.5999999999999
 31
0.0
  0
LINE
  5
18E
330
1E
100
AcDbEntity
  8
0
100
AcDbLine
 10
109.4999999999999
 20
127.5
 30
0.0
 11
109.4999999999999
 21
124.9
 31
0.0
  0
LINE
  5
18F
330
1E
100
AcDbEntity
  8
0
100
AcDbLine
 10
109.4999999999999
 20
127.5
 30
0.0
 11
109.4999999999999
 21
128.4999999999999
 31
0.0
  0
LINE
  5
190
330
1E
100
AcDbEntity
  8
0
100
AcDbLine
 10
109.4999999999999
 20
124.9
 30
0.0
 11
109.4999999999999
 21
120.5999999999999
 31
0.0
  0
LINE
  5
191
330
1E
100
AcDbEntity
  8
0
100
AcDbLine
 10
109.4999999999999
 20
124.9
 30
0.0
 11
109.4999999999999
 21
127.5
 31
0.0
  0
LINE
  5
192
330
1E
100
AcDbEntity
  8
0
100
AcDbLine
 10
119.0
 20
128.4999999999999
 30
0.0
 11
119.0
 21
127.5
 31
0.0
  0
LINE
  5
193
330
1E
100
AcDbEntity
  8
0
100
AcDbLine
 10
119.0
 20
127.5
 30
0.0
 11
119.0
 21
124.9
 31
0.0
  0
LINE
  5
194
330
1E
100
AcDbEntity
  8
0
100
AcDbLine
 10
119.0
 20
127.5
 30
0.0
 11
119.0
 21
128.4999999999999
 31
0.0
  0
LINE
  5
195
330
1E
100
AcDbEntity
  8
0
100
AcDbLine
 10
119.0
 20
124.9
 30
0.0
 11
119.0
 21
120.5999999999999
 31
0.0
  0
LINE
  5
196
330
1E
100
AcDbEntity
  8
0
100
AcDbLine
 10
119.0
 20
124.9
 30
0.0
 11
119.0
 21
127.5
 31
0.0
  0
LINE
  5
197
330
1E
100
AcDbEntity
  8
0
100
AcDbLine
 10
119.0
 20
120.5999999999999
 30
0.0
 11
119.0
 21
114.9
 31
0.0
  0
LINE
  5
198
330
1E
100
AcDbEntity
  8
0
100
AcDbLine
 10
119.0
 20
120.5999999999999
 30
0.0
 11
119.0
 21
124.9
 31
0.0
  0
LINE
  5
199
330
1E
100
AcDbEntity
  8
0
100
AcDbLine
 10
119.0
 20
114.9
 30
0.0
 11
119.0
 21
108.4
 31
0.0
  0
LINE
  5
19A
330
1E
100
AcDbEntity
  8
0
100
AcDbLine
 10
119.0
 20
114.9
 30
0.0
 11
119.0
 21
120.5999999999999
 31
0.0
  0
LINE
  5
19B
330
1E
100
AcDbEntity
  8
0
100
AcDbLine
 10
119.0
 20
108.4
 30
0.0
 11
119.0
 21
101.5
 31
0.0
  0
LINE
  5
19C
330
1E
100
AcDbEntity
  8
0
100
AcDbLine
 10
119.0
 20
108.4
 30
0.0
 11
119.0
 21
114.9
 31
0.0
  0
LINE
  5
19D
330
1E
100
AcDbEntity
  8
0
100
AcDbLine
 10
109.0
 20
119.5
 30
0.0
 11
109.0
 21
120.1999999999999
 31
0.0
  0
LINE
  5
19E
330
1E
100
AcDbEntity
  8
0
100
AcDbLine
 10
109.0
 20
119.5
 30
0.0
 11
109.0
 21
118.7999999999999
 31
0.0
  0
LINE
  5
19F
330
1E
100
AcDbEntity
  8
0
100
AcDbLine
 10
109.4999999999999
 20
128.4999999999999
 30
0.0
 11
119.0
 21
128.4999999999999
 31
0.0
  0
LINE
  5
1A0
330
1E
100
AcDbEntity
  8
0
100
AcDbLine
 10
109.4999999999999
 20
128.4999999999999
 30
0.0
 11
109.4999999999999
 21
127.5
 31
0.0
  0
LINE
  5
1A1
330
1E
100
AcDbEntity
  8
0
100
AcDbLine
 10
69.0
 20
153.0
 30
0.0
 11
69.0
 21
107.0
 31
0.0
  0
LINE
  5
1A2
330
1E
100
AcDbEntity
  8
0
100
AcDbLine
 10
68.4
 20
105.6
 30
0.0
 11
69.0
 21
107.0
 31
0.0
  0
LINE
  5
1A3
330
1E
100
AcDbEntity
  8
0
100
AcDbLine
 10
67.0
 20
105.0
 30
0.0
 11
68.4
 21
105.6
 31
0.0
  0
LINE
  5
1A4
330
1E
100
AcDbEntity
  8
0
100
AcDbLine
 10
62.5
 20
2.99999999999999
 30
0.0
 11
62.5
 21
98.0
 31
0.0
  0
LINE
  5
1A5
330
1E
100
AcDbEntity
  8
0
100
AcDbLine
 10
62.0
 20
0.999999999999996
 30
0.0
 11
62.5
 21
3.0
 31
0.0
  0
LINE
  5
1A6
330
1E
100
AcDbEntity
  8
0
100
AcDbLine
 10
59.5
 20
-0.0000000000000036
 30
0.0
 11
62.0
 21
0.999999999999996
 31
0.0
  0
LINE
  5
1A7
330
1E
100
AcDbEntity
  8
0
100
AcDbLine
 10
7.0
 20
1.0
 30
0.0
 11
9.5
 21
-0.0000000000000005
 31
0.0
  0
LINE
  5
1A8
330
1E
100
AcDbEntity
  8
0
100
AcDbLine
 10
7.0
 20
1.0
 30
0.0
 11
7.9
 21
1.0
 31
0.0
  0
LINE
  5
1A9
330
1E
100
AcDbEntity
  8
0
100
AcDbLine
 10
7.0
 20
1.0
 30
0.0
 11
9.5
 21
-0.0000000000000005
 31
0.0
  0
ENDSEC
  0
SECTION
  2
OBJECTS
  0
DICTIONARY
  5
C
330
0
100
AcDbDictionary
  3
ACAD_GROUP
350
D
  3
ACAD_LAYOUT
350
19
  3
ACAD_MLINESTYLE
350
16
  3
ACAD_PLOTSETTINGS
350
18
  3
ACAD_PLOTSTYLENAME
350
E
  3
ACDBHEADERROUNDTRIPXREC
350
1B1
  3
ACDBVARIABLEDICTIONARY
350
1AE
  0
DICTIONARY
  5
1D3
330
1E
100
AcDbDictionary
280
     1
  3
ACAD_LAYOUTSELFREF
360
1D4
  0
DICTIONARY
  5
1D1
330
1A
100
AcDbDictionary
280
     1
  3
ACAD_LAYOUTSELFREF
360
1D2
  0
DICTIONARY
  5
D
102
{ACAD_REACTORS
330
C
102
}
330
C
100
AcDbDictionary
  0
DICTIONARY
  5
19
102
{ACAD_REACTORS
330
C
102
}
330
C
100
AcDbDictionary
  0
DICTIONARY
  5
16
102
{ACAD_REACTORS
330
C
102
}
330
C
100
AcDbDictionary
  3
STANDARD
350
17
  0
DICTIONARY
  5
18
102
{ACAD_REACTORS
330
C
102
}
330
C
100
AcDbDictionary
  0
ACDBDICTIONARYWDFLT
  5
E
102
{ACAD_REACTORS
330
C
102
}
330
C
100
AcDbDictionary
281
     1
  3
Normal
350
F
100
AcDbDictionaryWithDefault
340
F
  0
DICTIONARY
  5
1B1
102
{ACAD_REACTORS
330
C
102
}
330
C
100
AcDbDictionary
  3
CEPSNTYPE
350
1BB
  3
FINGERPRINTGUID
350
1BC
  3
HYPERLINKBASE
350
1B4
  3
INSUNITS
350
1BA
  3
LAYOUTDICT
350
1B6
  3
LWETCUNION
350
1B9
  3
PLOTSETDICT
350
1B7
  3
PLOTSTYLNAMDICT
350
1B8
  3
PSVPSCALE
350
1BE
  3
PUCSBASE
350
1C1
  3
PUCSORGBACK
350
1C7
  3
PUCSORGBOTTOM
350
1C3
  3
PUCSORGFRONT
350
1C6
  3
PUCSORGLEFT
350
1C4
  3
PUCSORGRIGHT
350
1C5
  3
PUCSORGTOP
350
1C2
  3
PUCSORTHOREF
350
1BF
  3
PUCSORTHOVIEW
350
1C0
  3
STYLESHEET
350
1B5
  3
TSTACKALIGN
350
1B2
  3
TSTACKSIZE
350
1B3
  3
UCSBASE
350
1CA
  3
UCSORGBACK
350
1D0
  3
UCSORGBOTTOM
350
1CC
  3
UCSORGFRONT
350
1CF
  3
UCSORGLEFT
350
1CD
  3
UCSORGRIGHT
350
1CE
  3
UCSORGTOP
350
1CB
  3
UCSORTHOREF
350
1C8
  3
UCSORTHOVIEW
350
1C9
  3
VERSIONGUID
350
1BD
  0
DICTIONARY
  5
1AE
102
{ACAD_REACTORS
330
C
102
}
330
C
100
AcDbDictionary
  3
DIMASSOC
350
1AF
  0
XRECORD
  5
1D4
102
{ACAD_REACTORS
330
1D3
102
}
330
1D3
100
AcDbXrecord
340
1E
  0
XRECORD
  5
1D2
102
{ACAD_REACTORS
330
1D1
102
}
330
1D1
100
AcDbXrecord
340
1A
  0
MLINESTYLE
  5
17
102
{ACAD_REACTORS
330
16
102
}
330
16
100
AcDbMlineStyle
  2
STANDARD
 70
     0
  3

 62
   256
 51
90.0
 52
90.0
 71
     2
 49
0.5
 62
   256
  6
BYLAYER
 49
-0.5
 62
   256
  6
BYLAYER
  0
ACDBPLACEHOLDER
  5
F
102
{ACAD_REACTORS
330
E
102
}
330
E
100
AcDbPlaceHolder
280
     0
  0
XRECORD
  5
1BB
102
{ACAD_REACTORS
330
1B1
102
}
330
1B1
100
AcDbXrecord
 90
        0
  0
XRECORD
  5
1BC
102
{ACAD_REACTORS
330
1B1
102
}
330
1B1
100
AcDbXrecord
  1
{8E497D4A-2D06-4643-89AE-DCD946B7C425}
  0
XRECORD
  5
1B4
102
{ACAD_REACTORS
330
1B1
102
}
330
1B1
100
AcDbXrecord
  1

  0
XRECORD
  5
1BA
102
{ACAD_REACTORS
330
1B1
102
}
330
1B1
100
AcDbXrecord
 90
        0
  0
XRECORD
  5
1B6
102
{ACAD_REACTORS
330
1B1
102
}
330
1B1
100
AcDbXrecord
340
19
  0
XRECORD
  5
1B9
102
{ACAD_REACTORS
330
1B1
102
}
330
1B1
100
AcDbXrecord
 90
    10781
  0
XRECORD
  5
1B7
102
{ACAD_REACTORS
330
1B1
102
}
330
1B1
100
AcDbXrecord
340
18
  0
XRECORD
  5
1B8
102
{ACAD_REACTORS
330
1B1
102
}
330
1B1
100
AcDbXrecord
340
E
  0
XRECORD
  5
1BE
102
{ACAD_REACTORS
330
1B1
102
}
330
1B1
100
AcDbXrecord
 40
0.0
  0
XRECORD
  5
1C1
102
{ACAD_REACTORS
330
1B1
102
}
330
1B1
100
AcDbXrecord
340
0
  0
XRECORD
  5
1C7
102
{ACAD_REACTORS
330
1B1
102
}
330
1B1
100
AcDbXrecord
 10
0.0
 20
0.0
 30
0.0
  0
XRECORD
  5
1C3
102
{ACAD_REACTORS
330
1B1
102
}
330
1B1
100
AcDbXrecord
 10
0.0
 20
0.0
 30
0.0
  0
XRECORD
  5
1C6
102
{ACAD_REACTORS
330
1B1
102
}
330
1B1
100
AcDbXrecord
 10
0.0
 20
0.0
 30
0.0
  0
XRECORD
  5
1C4
102
{ACAD_REACTORS
330
1B1
102
}
330
1B1
100
AcDbXrecord
 10
0.0
 20
0.0
 30
0.0
  0
XRECORD
  5
1C5
102
{ACAD_REACTORS
330
1B1
102
}
330
1B1
100
AcDbXrecord
 10
0.0
 20
0.0
 30
0.0
  0
XRECORD
  5
1C2
102
{ACAD_REACTORS
330
1B1
102
}
330
1B1
100
AcDbXrecord
 10
0.0
 20
0.0
 30
0.0
  0
XRECORD
  5
1BF
102
{ACAD_REACTORS
330
1B1
102
}
330
1B1
100
AcDbXrecord
340
0
  0
XRECORD
  5
1C0
102
{ACAD_REACTORS
330
1B1
102
}
330
1B1
100
AcDbXrecord
 70
     0
  0
XRECORD
  5
1B5
102
{ACAD_REACTORS
330
1B1
102
}
330
1B1
100
AcDbXrecord
  1

  0
XRECORD
  5
1B2
102
{ACAD_REACTORS
330
1B1
102
}
330
1B1
100
AcDbXrecord
 90
        1
  0
XRECORD
  5
1B3
102
{ACAD_REACTORS
330
1B1
102
}
330
1B1
100
AcDbXrecord
 90
       70
  0
XRECORD
  5
1CA
102
{ACAD_REACTORS
330
1B1
102
}
330
1B1
100
AcDbXrecord
340
0
  0
XRECORD
  5
1D0
102
{ACAD_REACTORS
330
1B1
102
}
330
1B1
100
AcDbXrecord
 10
0.0
 20
0.0
 30
0.0
  0
XRECORD
  5
1CC
102
{ACAD_REACTORS
330
1B1
102
}
330
1B1
100
AcDbXrecord
 10
0.0
 20
0.0
 30
0.0
  0
XRECORD
  5
1CF
102
{ACAD_REACTORS
330
1B1
102
}
330
1B1
100
AcDbXrecord
 10
0.0
 20
0.0
 30
0.0
  0
XRECORD
  5
1CD
102
{ACAD_REACTORS
330
1B1
102
}
330
1B1
100
AcDbXrecord
 10
0.0
 20
0.0
 30
0.0
  0
XRECORD
  5
1CE
102
{ACAD_REACTORS
330
1B1
102
}
330
1B1
100
AcDbXrecord
 10
0.0
 20
0.0
 30
0.0
  0
XRECORD
  5
1CB
102
{ACAD_REACTORS
330
1B1
102
}
330
1B1
100
AcDbXrecord
 10
0.0
 20
0.0
 30
0.0
  0
XRECORD
  5
1C8
102
{ACAD_REACTORS
330
1B1
102
}
330
1B1
100
AcDbXrecord
340
0
  0
XRECORD
  5
1C9
102
{ACAD_REACTORS
330
1B1
102
}
330
1B1
100
AcDbXrecord
 70
     1
  0
XRECORD
  5
1BD
102
{ACAD_REACTORS
330
1B1
102
}
330
1B1
100
AcDbXrecord
  1
{95156CE6-BDB2-49EA-87C9-D937760E982D}
  0
DICTIONARYVAR
  5
1AF
102
{ACAD_REACTORS
330
1AE
102
}
330
1AE
100
DictionaryVariables
280
     0
  1
1
  0
ENDSEC
  0
EOF
