  0
SECTION
  2
HEADER
  9
$ACADVER
  1
AC1014
  9
$ACADMAINTVER
 70
     9
  9
$DWGCODEPAGE
  3
ANSI_1252
  9
$INSBASE
 10
0.0
 20
0.0
 30
0.0
  9
$EXTMIN
 10
-0.0000000000000014
 20
-0.0000000000000075
 30
0.0
  9
$EXTMAX
 10
100.0
 20
365.0
 30
0.0
  9
$LIMMIN
 10
0.0
 20
0.0
  9
$LIMMAX
 10
12.0
 20
9.0
  9
$ORTHOMODE
 70
     0
  9
$REGENMODE
 70
     1
  9
$FILLMODE
 70
     1
  9
$QTEXTMODE
 70
     0
  9
$MIRRTEXT
 70
     1
  9
$DRAGMODE
 70
     2
  9
$LTSCALE
 40
1.0
  9
$OSMODE
 70
    37
  9
$ATTMODE
 70
     1
  9
$TEXTSIZE
 40
0.2
  9
$TRACEWID
 40
0.05
  9
$TEXTSTYLE
  7
STANDARD
  9
$CLAYER
  8
0
  9
$CELTYPE
  6
CONTINUOUS
  9
$CECOLOR
 62
   256
  9
$CELTSCALE
 40
1.0
  9
$DELOBJ
 70
     1
  9
$DISPSILH
 70
     0
  9
$DIMSCALE
 40
1.0
  9
$DIMASZ
 40
0.18
  9
$DIMEXO
 40
0.0625
  9
$DIMDLI
 40
0.38
  9
$DIMRND
 40
0.0
  9
$DIMDLE
 40
0.0
  9
$DIMEXE
 40
0.18
  9
$DIMTP
 40
0.0
  9
$DIMTM
 40
0.0
  9
$DIMTXT
 40
0.18
  9
$DIMCEN
 40
0.09
  9
$DIMTSZ
 40
0.0
  9
$DIMTOL
 70
     0
  9
$DIMLIM
 70
     0
  9
$DIMTIH
 70
     1
  9
$DIMTOH
 70
     1
  9
$DIMSE1
 70
     0
  9
$DIMSE2
 70
     0
  9
$DIMTAD
 70
     0
  9
$DIMZIN
 70
     0
  9
$DIMBLK
  1

  9
$DIMASO
 70
     1
  9
$DIMSHO
 70
     1
  9
$DIMPOST
  1

  9
$DIMAPOST
  1

  9
$DIMALT
 70
     0
  9
$DIMALTD
 70
     2
  9
$DIMALTF
 40
25.4
  9
$DIMLFAC
 40
1.0
  9
$DIMTOFL
 70
     0
  9
$DIMTVP
 40
0.0
  9
$DIMTIX
 70
     0
  9
$DIMSOXD
 70
     0
  9
$DIMSAH
 70
     0
  9
$DIMBLK1
  1

  9
$DIMBLK2
  1

  9
$DIMSTYLE
  2
STANDARD
  9
$DIMCLRD
 70
     0
  9
$DIMCLRE
 70
     0
  9
$DIMCLRT
 70
     0
  9
$DIMTFAC
 40
1.0
  9
$DIMGAP
 40
0.09
  9
$DIMJUST
 70
     0
  9
$DIMSD1
 70
     0
  9
$DIMSD2
 70
     0
  9
$DIMTOLJ
 70
     1
  9
$DIMTZIN
 70
     0
  9
$DIMALTZ
 70
     0
  9
$DIMALTTZ
 70
     0
  9
$DIMFIT
 70
     3
  9
$DIMUPT
 70
     0
  9
$DIMUNIT
 70
     2
  9
$DIMDEC
 70
     4
  9
$DIMTDEC
 70
     4
  9
$DIMALTU
 70
     2
  9
$DIMALTTD
 70
     2
  9
$DIMTXSTY
  7
STANDARD
  9
$DIMAUNIT
 70
     0
  9
$LUNITS
 70
     2
  9
$LUPREC
 70
     4
  9
$SKETCHINC
 40
0.1
  9
$FILLETRAD
 40
0.0
  9
$AUNITS
 70
     0
  9
$AUPREC
 70
     0
  9
$MENU
  1
.
  9
$ELEVATION
 40
0.0
  9
$PELEVATION
 40
0.0
  9
$THICKNESS
 40
0.0
  9
$LIMCHECK
 70
     0
  9
$BLIPMODE
 70
     0
  9
$CHAMFERA
 40
0.0
  9
$CHAMFERB
 40
0.0
  9
$CHAMFERC
 40
0.0
  9
$CHAMFERD
 40
0.0
  9
$SKPOLY
 70
     0
  9
$TDCREATE
 40
2454690.668044884
  9
$TDUPDATE
 40
2454690.670422986
  9
$TDINDWG
 40
0.0023782870
  9
$TDUSRTIMER
 40
0.0023782870
  9
$USRTIMER
 70
     1
  9
$ANGBASE
 50
0.0
  9
$ANGDIR
 70
     0
  9
$PDMODE
 70
     0
  9
$PDSIZE
 40
0.0
  9
$PLINEWID
 40
0.0
  9
$COORDS
 70
     1
  9
$SPLFRAME
 70
     0
  9
$SPLINETYPE
 70
     6
  9
$SPLINESEGS
 70
     8
  9
$ATTDIA
 70
     0
  9
$ATTREQ
 70
     1
  9
$HANDLING
 70
 22529
  9
$HANDSEED
  5
10C
  9
$SURFTAB1
 70
     6
  9
$SURFTAB2
 70
     6
  9
$SURFTYPE
 70
     6
  9
$SURFU
 70
     6
  9
$SURFV
 70
     6
  9
$UCSNAME
  2

  9
$UCSORG
 10
0.0
 20
0.0
 30
0.0
  9
$UCSXDIR
 10
1.0
 20
0.0
 30
0.0
  9
$UCSYDIR
 10
0.0
 20
1.0
 30
0.0
  9
$PUCSNAME
  2

  9
$PUCSORG
 10
0.0
 20
0.0
 30
0.0
  9
$PUCSXDIR
 10
1.0
 20
0.0
 30
0.0
  9
$PUCSYDIR
 10
0.0
 20
1.0
 30
0.0
  9
$USERI1
 70
     0
  9
$USERI2
 70
     0
  9
$USERI3
 70
     0
  9
$USERI4
 70
     0
  9
$USERI5
 70
     0
  9
$USERR1
 40
0.0
  9
$USERR2
 40
0.0
  9
$USERR3
 40
0.0
  9
$USERR4
 40
0.0
  9
$USERR5
 40
0.0
  9
$WORLDVIEW
 70
     1
  9
$SHADEDGE
 70
     3
  9
$SHADEDIF
 70
    70
  9
$TILEMODE
 70
     1
  9
$MAXACTVP
 70
    64
  9
$PINSBASE
 10
0.0
 20
0.0
 30
0.0
  9
$PLIMCHECK
 70
     0
  9
$PEXTMIN
 10
1.000000000000000E+20
 20
1.000000000000000E+20
 30
1.000000000000000E+20
  9
$PEXTMAX
 10
-1.000000000000000E+20
 20
-1.000000000000000E+20
 30
-1.000000000000000E+20
  9
$PLIMMIN
 10
0.0
 20
0.0
  9
$PLIMMAX
 10
12.0
 20
9.0
  9
$UNITMODE
 70
     0
  9
$VISRETAIN
 70
     1
  9
$PLINEGEN
 70
     0
  9
$PSLTSCALE
 70
     1
  9
$TREEDEPTH
 70
  3020
  9
$PICKSTYLE
 70
     1
  9
$CMLSTYLE
  2
STANDARD
  9
$CMLJUST
 70
     0
  9
$CMLSCALE
 40
1.0
  9
$PROXYGRAPHICS
 70
     1
  9
$MEASUREMENT
 70
     0
  0
ENDSEC
  0
SECTION
  2
CLASSES
  0
CLASS
  1
ACDBDICTIONARYWDFLT
  2
AcDbDictionaryWithDefault
  3
AutoCAD 2000
 90
        0
280
     0
281
     0
  0
CLASS
  1
ACDBPLACEHOLDER
  2
AcDbPlaceHolder
  3
AutoCAD 2000
 90
        0
280
     0
281
     0
  0
CLASS
  1
LAYOUT
  2
AcDbLayout
  3
AutoCAD 2000
 90
        0
280
     0
281
     0
  0
CLASS
  1
DICTIONARYVAR
  2
AcDbDictionaryVar
  3
AutoCAD 2000
 90
        0
280
     0
281
     0
  0
CLASS
  1
LONG_TRANSACTION
  2
AcDbLongTransaction
  3
AutoCAD 2000
 90
        0
280
     0
281
     0
  0
CLASS
  1
LWPOLYLINE
  2
AcDbPolyline
  3
AutoCAD 2000
 90
        0
280
     0
281
     1
  0
CLASS
  1
HATCH
  2
AcDbHatch
  3
AutoCAD 2000
 90
        0
280
     0
281
     1
  0
CLASS
  1
XRECORD
  2
AcDbXrecord
  3
AutoCAD 2000
 90
        0
280
     0
281
     0
  0
ENDSEC
  0
SECTION
  2
TABLES
  0
TABLE
  2
VPORT
  5
8
330
0
100
AcDbSymbolTable
 70
     2
  0
VPORT
  5
E7
330
8
100
AcDbSymbolTableRecord
100
AcDbViewportTableRecord
  2
*ACTIVE
 70
     0
 10
0.0
 20
0.0
 11
1.0
 21
1.0
 12
50.0
 22
182.5
 13
0.0
 23
0.0
 14
1.0
 24
1.0
 15
0.0
 25
0.0
 16
0.0
 26
0.0
 36
1.0
 17
0.0
 27
0.0
 37
0.0
 40
367.8005115089514
 41
2.043533930857874
 42
50.0
 43
0.0
 44
0.0
 50
0.0
 51
0.0
 71
     0
 72
   100
 73
     1
 74
     3
 75
     0
 76
     0
 77
     0
 78
     0
  0
ENDTAB
  0
TABLE
  2
LTYPE
  5
5
330
0
100
AcDbSymbolTable
 70
     1
  0
LTYPE
  5
13
330
5
100
AcDbSymbolTableRecord
100
AcDbLinetypeTableRecord
  2
BYBLOCK
 70
     0
  3

 72
    65
 73
     0
 40
0.0
  0
LTYPE
  5
14
330
5
100
AcDbSymbolTableRecord
100
AcDbLinetypeTableRecord
  2
BYLAYER
 70
     0
  3

 72
    65
 73
     0
 40
0.0
  0
LTYPE
  5
15
330
5
100
AcDbSymbolTableRecord
100
AcDbLinetypeTableRecord
  2
CONTINUOUS
 70
     0
  3
Solid line
 72
    65
 73
     0
 40
0.0
  0
ENDTAB
  0
TABLE
  2
LAYER
  5
2
330
0
100
AcDbSymbolTable
 70
     1
  0
LAYER
  5
10
330
2
100
AcDbSymbolTableRecord
100
AcDbLayerTableRecord
  2
0
 70
     0
 62
     7
  6
CONTINUOUS
  0
ENDTAB
  0
TABLE
  2
STYLE
  5
3
330
0
100
AcDbSymbolTable
 70
     1
  0
STYLE
  5
11
330
3
100
AcDbSymbolTableRecord
100
AcDbTextStyleTableRecord
  2
STANDARD
 70
     0
 40
0.0
 41
1.0
 50
0.0
 71
     0
 42
0.2
  3
txt
  4

  0
ENDTAB
  0
TABLE
  2
VIEW
  5
6
330
0
100
AcDbSymbolTable
 70
     0
  0
ENDTAB
  0
TABLE
  2
UCS
  5
7
330
0
100
AcDbSymbolTable
 70
     0
  0
ENDTAB
  0
TABLE
  2
APPID
  5
9
330
0
100
AcDbSymbolTable
 70
     1
  0
APPID
  5
12
330
9
100
AcDbSymbolTableRecord
100
AcDbRegAppTableRecord
  2
ACAD
 70
     0
  0
ENDTAB
  0
TABLE
  2
DIMSTYLE
  5
A
330
0
100
AcDbSymbolTable
 70
     1
  0
DIMSTYLE
105
E1
330
A
100
AcDbSymbolTableRecord
100
AcDbDimStyleTableRecord
  2
STANDARD
 70
     0
  3

  4

  5

  6

  7

 40
1.0
 41
0.18
 42
0.0625
 43
0.38
 44
0.18
 45
0.0
 46
0.0
 47
0.0
 48
0.0
140
0.18
141
0.09
142
0.0
143
25.4
144
1.0
145
0.0
146
1.0
147
0.09
 71
     0
 72
     0
 73
     1
 74
     1
 75
     0
 76
     0
 77
     0
 78
     0
170
     0
171
     2
172
     0
173
     0
174
     0
175
     0
176
     0
177
     0
178
     0
270
     2
271
     4
272
     4
273
     2
274
     2
340
11
275
     0
280
     0
281
     0
282
     0
283
     1
284
     0
285
     0
286
     0
287
     3
288
     0
  0
ENDTAB
  0
TABLE
  2
BLOCK_RECORD
  5
1
330
0
100
AcDbSymbolTable
 70
     0
  0
BLOCK_RECORD
  5
1E
102
{ACAD_XDICTIONARY
360
10A
102
}
330
1
100
AcDbSymbolTableRecord
100
AcDbBlockTableRecord
  2
*MODEL_SPACE
  0
BLOCK_RECORD
  5
1A
102
{ACAD_XDICTIONARY
360
108
102
}
330
1
100
AcDbSymbolTableRecord
100
AcDbBlockTableRecord
  2
*PAPER_SPACE
  0
ENDTAB
  0
ENDSEC
  0
SECTION
  2
BLOCKS
  0
BLOCK
  5
1F
330
1E
100
AcDbEntity
  8
0
100
AcDbBlockBegin
  2
*MODEL_SPACE
 70
     0
 10
0.0
 20
0.0
 30
0.0
  3
*MODEL_SPACE
  1

  0
ENDBLK
  5
20
330
1E
100
AcDbEntity
  8
0
100
AcDbBlockEnd
  0
BLOCK
  5
1B
330
1A
100
AcDbEntity
 67
     1
  8
0
100
AcDbBlockBegin
  2
*PAPER_SPACE
 70
     0
 10
0.0
 20
0.0
 30
0.0
  3
*PAPER_SPACE
  1

  0
ENDBLK
  5
1C
330
1A
100
AcDbEntity
 67
     1
  8
0
100
AcDbBlockEnd
  0
ENDSEC
  0
SECTION
  2
ENTITIES
  0
LINE
  5
22
330
1E
100
AcDbEntity
  8
0
100
AcDbLine
 10
-0.0000000000000014
 20
2.99999999999999
 30
0.0
 11
3.5
 21
32.0
 31
0.0
  0
LINE
  5
23
330
1E
100
AcDbEntity
  8
0
100
AcDbLine
 10
-0.000000000000001
 20
3.0
 30
0.0
 11
-0.000000000000001
 21
2.0
 31
0.0
  0
LINE
  5
24
330
1E
100
AcDbEntity
  8
0
100
AcDbLine
 10
-0.000000000000001
 20
3.0
 30
0.0
 11
3.5
 21
32.0
 31
0.0
  0
LINE
  5
25
330
1E
100
AcDbEntity
  8
0
100
AcDbLine
 10
-0.000000000000001
 20
2.0
 30
0.0
 11
0.499999999999999
 21
0.4999999999999951
 31
0.0
  0
LINE
  5
26
330
1E
100
AcDbEntity
  8
0
100
AcDbLine
 10
-0.000000000000001
 20
2.0
 30
0.0
 11
0.499999999999999
 21
0.4999999999999961
 31
0.0
  0
LINE
  5
27
330
1E
100
AcDbEntity
  8
0
100
AcDbLine
 10
-0.000000000000001
 20
2.0
 30
0.0
 11
-0.000000000000001
 21
3.0
 31
0.0
  0
LINE
  5
28
330
1E
100
AcDbEntity
  8
0
100
AcDbLine
 10
0.499999999999999
 20
0.4999999999999961
 30
0.0
 11
1.5
 21
-0.0000000000000045
 31
0.0
  0
LINE
  5
29
330
1E
100
AcDbEntity
  8
0
100
AcDbLine
 10
0.499999999999999
 20
0.4999999999999961
 30
0.0
 11
2.2
 21
0.4999999999999961
 31
0.0
  0
LINE
  5
2A
330
1E
100
AcDbEntity
  8
0
100
AcDbLine
 10
3.2
 20
-0.0000000000000053
 30
0.0
 11
7.9
 21
-0.000000000000006
 31
0.0
  0
LINE
  5
2B
330
1E
100
AcDbEntity
  8
0
100
AcDbLine
 10
1.5
 20
-0.0000000000000045
 30
0.0
 11
3.2
 21
-0.0000000000000053
 31
0.0
  0
LINE
  5
2C
330
1E
100
AcDbEntity
  8
0
100
AcDbLine
 10
3.5
 20
32.0
 30
0.0
 11
5.5
 21
78.0
 31
0.0
  0
LINE
  5
2D
330
1E
100
AcDbEntity
  8
0
100
AcDbLine
 10
6.5
 20
110.0
 30
0.0
 11
7.099999999999999
 21
111.4
 31
0.0
  0
LINE
  5
2E
330
1E
100
AcDbEntity
  8
0
100
AcDbLine
 10
5.5
 20
78.0
 30
0.0
 11
6.5
 21
110.0
 31
0.0
  0
LINE
  5
2F
330
1E
100
AcDbEntity
  8
0
100
AcDbLine
 10
3.5
 20
32.0
 30
0.0
 11
5.5
 21
78.0
 31
0.0
  0
LINE
  5
30
330
1E
100
AcDbEntity
  8
0
100
AcDbLine
 10
2.2
 20
0.4999999999999961
 30
0.0
 11
7.099999999999999
 21
0.499999999999997
 31
0.0
  0
LINE
  5
31
330
1E
100
AcDbEntity
  8
0
100
AcDbLine
 10
0.499999999999999
 20
0.4999999999999961
 30
0.0
 11
2.2
 21
0.4999999999999961
 31
0.0
  0
LINE
  5
32
330
1E
100
AcDbEntity
  8
0
100
AcDbLine
 10
0.499999999999999
 20
0.4999999999999961
 30
0.0
 11
1.5
 21
-0.0000000000000045
 31
0.0
  0
LINE
  5
33
330
1E
100
AcDbEntity
  8
0
100
AcDbLine
 10
6.5
 20
198.0
 30
0.0
 11
6.5
 21
114.0
 31
0.0
  0
LINE
  5
34
330
1E
100
AcDbEntity
  8
0
100
AcDbLine
 10
6.5
 20
198.0
 30
0.0
 11
7.099999999999999
 21
199.3999999999999
 31
0.0
  0
LINE
  5
35
330
1E
100
AcDbEntity
  8
0
100
AcDbLine
 10
7.9
 20
-0.000000000000006
 30
0.0
 11
15.7
 21
-0.0000000000000066
 31
0.0
  0
LINE
  5
36
330
1E
100
AcDbEntity
  8
0
100
AcDbLine
 10
8.599999999999999
 20
111.4
 30
0.0
 11
12.8
 21
111.4
 31
0.0
  0
LINE
  5
37
330
1E
100
AcDbEntity
  8
0
100
AcDbLine
 10
7.099999999999999
 20
111.4
 30
0.0
 11
8.599999999999999
 21
111.4
 31
0.0
  0
LINE
  5
38
330
1E
100
AcDbEntity
  8
0
100
AcDbLine
 10
7.099999999999999
 20
111.4
 30
0.0
 11
8.5
 21
112.0
 31
0.0
  0
LINE
  5
39
330
1E
100
AcDbEntity
  8
0
100
AcDbLine
 10
7.099999999999999
 20
0.499999999999997
 30
0.0
 11
15.0
 21
0.4999999999999981
 31
0.0
  0
LINE
  5
3A
330
1E
100
AcDbEntity
  8
0
100
AcDbLine
 10
15.7
 20
-0.0000000000000066
 30
0.0
 11
25.8
 21
-0.0000000000000071
 31
0.0
  0
LINE
  5
3B
330
1E
100
AcDbEntity
  8
0
100
AcDbLine
 10
19.69999999999999
 20
111.4
 30
0.0
 11
28.6
 21
111.4
 31
0.0
  0
LINE
  5
3C
330
1E
100
AcDbEntity
  8
0
100
AcDbLine
 10
12.8
 20
111.4
 30
0.0
 11
19.69999999999999
 21
111.4
 31
0.0
  0
LINE
  5
3D
330
1E
100
AcDbEntity
  8
0
100
AcDbLine
 10
15.0
 20
0.4999999999999981
 30
0.0
 11
25.3
 21
0.4999999999999981
 31
0.0
  0
LINE
  5
3E
330
1E
100
AcDbEntity
  8
0
100
AcDbLine
 10
37.4
 20
-0.0000000000000074
 30
0.0
 11
50.0
 21
-0.0000000000000075
 31
0.0
  0
LINE
  5
3F
330
1E
100
AcDbEntity
  8
0
100
AcDbLine
 10
25.8
 20
-0.0000000000000071
 30
0.0
 11
37.4
 21
-0.0000000000000074
 31
0.0
  0
LINE
  5
40
330
1E
100
AcDbEntity
  8
0
100
AcDbLine
 10
28.6
 20
111.4
 30
0.0
 11
38.9
 21
111.4
 31
0.0
  0
LINE
  5
41
330
1E
100
AcDbEntity
  8
0
100
AcDbLine
 10
38.9
 20
111.4
 30
0.0
 11
50.0
 21
111.4
 31
0.0
  0
LINE
  5
42
330
1E
100
AcDbEntity
  8
0
100
AcDbLine
 10
37.2
 20
0.4999999999999981
 30
0.0
 11
50.0
 21
0.499999999999999
 31
0.0
  0
LINE
  5
43
330
1E
100
AcDbEntity
  8
0
100
AcDbLine
 10
25.3
 20
0.4999999999999981
 30
0.0
 11
37.2
 21
0.4999999999999981
 31
0.0
  0
LINE
  5
44
330
1E
100
AcDbEntity
  8
0
100
AcDbLine
 10
50.0
 20
-0.0000000000000075
 30
0.0
 11
62.6
 21
-0.0000000000000074
 31
0.0
  0
LINE
  5
45
330
1E
100
AcDbEntity
  8
0
100
AcDbLine
 10
50.0
 20
111.4
 30
0.0
 11
61.1
 21
111.4
 31
0.0
  0
LINE
  5
46
330
1E
100
AcDbEntity
  8
0
100
AcDbLine
 10
50.0
 20
0.499999999999999
 30
0.0
 11
62.8
 21
0.4999999999999981
 31
0.0
  0
LINE
  5
47
330
1E
100
AcDbEntity
  8
0
100
AcDbLine
 10
50.0
 20
112.0
 30
0.0
 11
60.8
 21
112.0
 31
0.0
  0
LINE
  5
48
330
1E
100
AcDbEntity
  8
0
100
AcDbLine
 10
62.6
 20
-0.0000000000000074
 30
0.0
 11
74.2
 21
-0.0000000000000071
 31
0.0
  0
LINE
  5
49
330
1E
100
AcDbEntity
  8
0
100
AcDbLine
 10
74.2
 20
-0.0000000000000071
 30
0.0
 11
84.29999999999999
 21
-0.0000000000000066
 31
0.0
  0
LINE
  5
4A
330
1E
100
AcDbEntity
  8
0
100
AcDbLine
 10
61.1
 20
111.4
 30
0.0
 11
71.4
 21
111.4
 31
0.0
  0
LINE
  5
4B
330
1E
100
AcDbEntity
  8
0
100
AcDbLine
 10
71.4
 20
111.4
 30
0.0
 11
80.29999999999999
 21
111.4
 31
0.0
  0
LINE
  5
4C
330
1E
100
AcDbEntity
  8
0
100
AcDbLine
 10
62.8
 20
0.4999999999999981
 30
0.0
 11
74.7
 21
0.4999999999999981
 31
0.0
  0
LINE
  5
4D
330
1E
100
AcDbEntity
  8
0
100
AcDbLine
 10
74.7
 20
0.4999999999999981
 30
0.0
 11
85.0
 21
0.4999999999999981
 31
0.0
  0
LINE
  5
4E
330
1E
100
AcDbEntity
  8
0
100
AcDbLine
 10
60.8
 20
112.0
 30
0.0
 11
70.7
 21
112.0
 31
0.0
  0
LINE
  5
4F
330
1E
100
AcDbEntity
  8
0
100
AcDbLine
 10
70.7
 20
112.0
 30
0.0
 11
79.29999999999999
 21
112.0
 31
0.0
  0
LINE
  5
50
330
1E
100
AcDbEntity
  8
0
100
AcDbLine
 10
84.29999999999999
 20
-0.0000000000000066
 30
0.0
 11
92.09999999999999
 21
-0.000000000000006
 31
0.0
  0
LINE
  5
51
330
1E
100
AcDbEntity
  8
0
100
AcDbLine
 10
80.29999999999999
 20
111.4
 30
0.0
 11
87.2
 21
111.4
 31
0.0
  0
LINE
  5
52
330
1E
100
AcDbEntity
  8
0
100
AcDbLine
 10
87.2
 20
111.4
 30
0.0
 11
91.4
 21
111.4
 31
0.0
  0
LINE
  5
53
330
1E
100
AcDbEntity
  8
0
100
AcDbLine
 10
85.0
 20
0.4999999999999981
 30
0.0
 11
92.9
 21
0.499999999999997
 31
0.0
  0
LINE
  5
54
330
1E
100
AcDbEntity
  8
0
100
AcDbLine
 10
79.29999999999999
 20
112.0
 30
0.0
 11
86.0
 21
112.0
 31
0.0
  0
LINE
  5
55
330
1E
100
AcDbEntity
  8
0
100
AcDbLine
 10
86.0
 20
112.0
 30
0.0
 11
90.09999999999999
 21
112.0
 31
0.0
  0
LINE
  5
56
330
1E
100
AcDbEntity
  8
0
100
AcDbLine
 10
92.09999999999999
 20
-0.000000000000006
 30
0.0
 11
96.79999999999999
 21
-0.0000000000000053
 31
0.0
  0
LINE
  5
57
330
1E
100
AcDbEntity
  8
0
100
AcDbLine
 10
98.50000000000001
 20
-0.0000000000000045
 30
0.0
 11
99.50000000000001
 21
0.4999999999999961
 31
0.0
  0
LINE
  5
58
330
1E
100
AcDbEntity
  8
0
100
AcDbLine
 10
96.79999999999999
 20
-0.0000000000000053
 30
0.0
 11
98.50000000000001
 21
-0.0000000000000045
 31
0.0
  0
LINE
  5
59
330
1E
100
AcDbEntity
  8
0
100
AcDbLine
 10
99.50000000000001
 20
0.4999999999999951
 30
0.0
 11
100.0
 21
2.0
 31
0.0
  0
LINE
  5
5A
330
1E
100
AcDbEntity
  8
0
100
AcDbLine
 10
99.50000000000001
 20
0.4999999999999961
 30
0.0
 11
100.0
 21
2.0
 31
0.0
  0
LINE
  5
5B
330
1E
100
AcDbEntity
  8
0
100
AcDbLine
 10
98.50000000000001
 20
-0.0000000000000045
 30
0.0
 11
99.50000000000001
 21
0.4999999999999961
 31
0.0
  0
LINE
  5
5C
330
1E
100
AcDbEntity
  8
0
100
AcDbLine
 10
92.9
 20
111.4
 30
0.0
 11
93.49999999999999
 21
110.0
 31
0.0
  0
LINE
  5
5D
330
1E
100
AcDbEntity
  8
0
100
AcDbLine
 10
91.4
 20
111.4
 30
0.0
 11
92.9
 21
111.4
 31
0.0
  0
LINE
  5
5E
330
1E
100
AcDbEntity
  8
0
100
AcDbLine
 10
96.5
 20
32.0
 30
0.0
 11
100.0
 21
2.99999999999999
 31
0.0
  0
LINE
  5
5F
330
1E
100
AcDbEntity
  8
0
100
AcDbLine
 10
94.50000000000001
 20
78.0
 30
0.0
 11
96.5
 21
32.0
 31
0.0
  0
LINE
  5
60
330
1E
100
AcDbEntity
  8
0
100
AcDbLine
 10
93.49999999999999
 20
110.0
 30
0.0
 11
94.50000000000001
 21
78.0
 31
0.0
  0
LINE
  5
61
330
1E
100
AcDbEntity
  8
0
100
AcDbLine
 10
94.50000000000001
 20
78.0
 30
0.0
 11
96.5
 21
32.0
 31
0.0
  0
LINE
  5
62
330
1E
100
AcDbEntity
  8
0
100
AcDbLine
 10
100.0
 20
3.0
 30
0.0
 11
100.0
 21
2.0
 31
0.0
  0
LINE
  5
63
330
1E
100
AcDbEntity
  8
0
100
AcDbLine
 10
96.5
 20
32.0
 30
0.0
 11
100.0
 21
3.0
 31
0.0
  0
LINE
  5
64
330
1E
100
AcDbEntity
  8
0
100
AcDbLine
 10
100.0
 20
2.0
 30
0.0
 11
100.0
 21
3.0
 31
0.0
  0
LINE
  5
65
330
1E
100
AcDbEntity
  8
0
100
AcDbLine
 10
92.9
 20
0.499999999999997
 30
0.0
 11
97.80000000000001
 21
0.4999999999999961
 31
0.0
  0
LINE
  5
66
330
1E
100
AcDbEntity
  8
0
100
AcDbLine
 10
97.80000000000001
 20
0.4999999999999961
 30
0.0
 11
99.50000000000001
 21
0.4999999999999961
 31
0.0
  0
LINE
  5
67
330
1E
100
AcDbEntity
  8
0
100
AcDbLine
 10
90.09999999999999
 20
112.0
 30
0.0
 11
91.5
 21
112.0
 31
0.0
  0
LINE
  5
68
330
1E
100
AcDbEntity
  8
0
100
AcDbLine
 10
91.5
 20
112.0
 30
0.0
 11
93.49999999999999
 21
114.0
 31
0.0
  0
LINE
  5
69
330
1E
100
AcDbEntity
  8
0
100
AcDbLine
 10
91.5
 20
112.0
 30
0.0
 11
92.9
 21
111.4
 31
0.0
  0
LINE
  5
6A
330
1E
100
AcDbEntity
  8
0
100
AcDbLine
 10
39.2
 20
112.0
 30
0.0
 11
50.0
 21
112.0
 31
0.0
  0
LINE
  5
6B
330
1E
100
AcDbEntity
  8
0
100
AcDbLine
 10
29.3
 20
112.0
 30
0.0
 11
39.2
 21
112.0
 31
0.0
  0
LINE
  5
6C
330
1E
100
AcDbEntity
  8
0
100
AcDbLine
 10
20.69999999999999
 20
112.0
 30
0.0
 11
29.3
 21
112.0
 31
0.0
  0
LINE
  5
6D
330
1E
100
AcDbEntity
  8
0
100
AcDbLine
 10
14.0
 20
112.0
 30
0.0
 11
20.69999999999999
 21
112.0
 31
0.0
  0
LINE
  5
6E
330
1E
100
AcDbEntity
  8
0
100
AcDbLine
 10
9.9
 20
112.0
 30
0.0
 11
14.0
 21
112.0
 31
0.0
  0
LINE
  5
6F
330
1E
100
AcDbEntity
  8
0
100
AcDbLine
 10
7.099999999999999
 20
199.3999999999999
 30
0.0
 11
8.599999999999999
 21
199.3999999999999
 31
0.0
  0
LINE
  5
70
330
1E
100
AcDbEntity
  8
0
100
AcDbLine
 10
7.099999999999999
 20
199.3999999999999
 30
0.0
 11
8.5
 21
200.0
 31
0.0
  0
LINE
  5
71
330
1E
100
AcDbEntity
  8
0
100
AcDbLine
 10
50.0
 20
114.0
 30
0.0
 11
61.29999999999999
 21
114.0
 31
0.0
  0
LINE
  5
72
330
1E
100
AcDbEntity
  8
0
100
AcDbLine
 10
61.29999999999999
 20
114.0
 30
0.0
 11
71.7
 21
114.0
 31
0.0
  0
LINE
  5
73
330
1E
100
AcDbEntity
  8
0
100
AcDbLine
 10
71.7
 20
114.0
 30
0.0
 11
80.8
 21
114.0
 31
0.0
  0
LINE
  5
74
330
1E
100
AcDbEntity
  8
0
100
AcDbLine
 10
80.8
 20
114.0
 30
0.0
 11
87.70000000000001
 21
114.0
 31
0.0
  0
LINE
  5
75
330
1E
100
AcDbEntity
  8
0
100
AcDbLine
 10
93.49999999999999
 20
114.0
 30
0.0
 11
93.49999999999999
 21
198.0
 31
0.0
  0
LINE
  5
76
330
1E
100
AcDbEntity
  8
0
100
AcDbLine
 10
87.70000000000001
 20
114.0
 30
0.0
 11
92.0
 21
114.0
 31
0.0
  0
LINE
  5
77
330
1E
100
AcDbEntity
  8
0
100
AcDbLine
 10
92.0
 20
114.0
 30
0.0
 11
93.49999999999999
 21
114.0
 31
0.0
  0
LINE
  5
78
330
1E
100
AcDbEntity
  8
0
100
AcDbLine
 10
38.7
 20
114.0
 30
0.0
 11
50.0
 21
114.0
 31
0.0
  0
LINE
  5
79
330
1E
100
AcDbEntity
  8
0
100
AcDbLine
 10
28.3
 20
114.0
 30
0.0
 11
38.7
 21
114.0
 31
0.0
  0
LINE
  5
7A
330
1E
100
AcDbEntity
  8
0
100
AcDbLine
 10
19.19999999999999
 20
114.0
 30
0.0
 11
28.3
 21
114.0
 31
0.0
  0
LINE
  5
7B
330
1E
100
AcDbEntity
  8
0
100
AcDbLine
 10
50.0
 20
199.3999999999999
 30
0.0
 11
61.1
 21
199.3999999999999
 31
0.0
  0
LINE
  5
7C
330
1E
100
AcDbEntity
  8
0
100
AcDbLine
 10
61.1
 20
199.3999999999999
 30
0.0
 11
71.4
 21
199.3999999999999
 31
0.0
  0
LINE
  5
7D
330
1E
100
AcDbEntity
  8
0
100
AcDbLine
 10
71.4
 20
199.3999999999999
 30
0.0
 11
80.29999999999999
 21
199.3999999999999
 31
0.0
  0
LINE
  5
7E
330
1E
100
AcDbEntity
  8
0
100
AcDbLine
 10
80.29999999999999
 20
199.3999999999999
 30
0.0
 11
87.2
 21
199.3999999999999
 31
0.0
  0
LINE
  5
7F
330
1E
100
AcDbEntity
  8
0
100
AcDbLine
 10
87.2
 20
199.3999999999999
 30
0.0
 11
91.4
 21
199.3999999999999
 31
0.0
  0
LINE
  5
80
330
1E
100
AcDbEntity
  8
0
100
AcDbLine
 10
93.49999999999999
 20
198.0
 30
0.0
 11
93.49999999999999
 21
114.0
 31
0.0
  0
LINE
  5
81
330
1E
100
AcDbEntity
  8
0
100
AcDbLine
 10
92.9
 20
199.3999999999999
 30
0.0
 11
93.49999999999999
 21
198.0
 31
0.0
  0
LINE
  5
82
330
1E
100
AcDbEntity
  8
0
100
AcDbLine
 10
91.4
 20
199.3999999999999
 30
0.0
 11
92.9
 21
199.3999999999999
 31
0.0
  0
LINE
  5
83
330
1E
100
AcDbEntity
  8
0
100
AcDbLine
 10
38.9
 20
199.3999999999999
 30
0.0
 11
50.0
 21
199.3999999999999
 31
0.0
  0
LINE
  5
84
330
1E
100
AcDbEntity
  8
0
100
AcDbLine
 10
28.6
 20
199.3999999999999
 30
0.0
 11
38.9
 21
199.3999999999999
 31
0.0
  0
LINE
  5
85
330
1E
100
AcDbEntity
  8
0
100
AcDbLine
 10
19.69999999999999
 20
199.3999999999999
 30
0.0
 11
28.6
 21
199.3999999999999
 31
0.0
  0
LINE
  5
86
330
1E
100
AcDbEntity
  8
0
100
AcDbLine
 10
60.0
 20
200.0
 30
0.0
 11
60.0
 21
361.0
 31
0.0
  0
LINE
  5
87
330
1E
100
AcDbEntity
  8
0
100
AcDbLine
 10
40.0
 20
200.0
 30
0.0
 11
40.0
 21
361.0
 31
0.0
  0
LINE
  5
88
330
1E
100
AcDbEntity
  8
0
100
AcDbLine
 10
50.0
 20
200.0
 30
0.0
 11
79.29999999999999
 21
200.0
 31
0.0
  0
LINE
  5
89
330
1E
100
AcDbEntity
  8
0
100
AcDbLine
 10
79.29999999999999
 20
200.0
 30
0.0
 11
86.0
 21
200.0
 31
0.0
  0
LINE
  5
8A
330
1E
100
AcDbEntity
  8
0
100
AcDbLine
 10
86.0
 20
200.0
 30
0.0
 11
90.09999999999999
 21
200.0
 31
0.0
  0
LINE
  5
8B
330
1E
100
AcDbEntity
  8
0
100
AcDbLine
 10
91.5
 20
200.0
 30
0.0
 11
92.9
 21
199.3999999999999
 31
0.0
  0
LINE
  5
8C
330
1E
100
AcDbEntity
  8
0
100
AcDbLine
 10
90.09999999999999
 20
200.0
 30
0.0
 11
91.5
 21
200.0
 31
0.0
  0
LINE
  5
8D
330
1E
100
AcDbEntity
  8
0
100
AcDbLine
 10
39.2
 20
200.0
 30
0.0
 11
50.0
 21
200.0
 31
0.0
  0
LINE
  5
8E
330
1E
100
AcDbEntity
  8
0
100
AcDbLine
 10
29.3
 20
200.0
 30
0.0
 11
39.2
 21
200.0
 31
0.0
  0
LINE
  5
8F
330
1E
100
AcDbEntity
  8
0
100
AcDbLine
 10
37.5
 20
362.0
 30
0.0
 11
38.7
 21
362.0
 31
0.0
  0
LINE
  5
90
330
1E
100
AcDbEntity
  8
0
100
AcDbLine
 10
38.0
 20
365.0
 30
0.0
 11
38.39999999999999
 21
365.0
 31
0.0
  0
LINE
  5
91
330
1E
100
AcDbEntity
  8
0
100
AcDbLine
 10
37.5
 20
364.0
 30
0.0
 11
38.7
 21
364.0
 31
0.0
  0
LINE
  5
92
330
1E
100
AcDbEntity
  8
0
100
AcDbLine
 10
37.0
 20
364.0
 30
0.0
 11
37.0
 21
362.0
 31
0.0
  0
LINE
  5
93
330
1E
100
AcDbEntity
  8
0
100
AcDbLine
 10
37.0
 20
364.0
 30
0.0
 11
37.5
 21
364.0
 31
0.0
  0
LINE
  5
94
330
1E
100
AcDbEntity
  8
0
100
AcDbLine
 10
37.0
 20
364.0
 30
0.0
 11
38.0
 21
365.0
 31
0.0
  0
LINE
  5
95
330
1E
100
AcDbEntity
  8
0
100
AcDbLine
 10
37.0
 20
362.0
 30
0.0
 11
37.5
 21
362.0
 31
0.0
  0
LINE
  5
96
330
1E
100
AcDbEntity
  8
0
100
AcDbLine
 10
37.0
 20
362.0
 30
0.0
 11
38.0
 21
361.0
 31
0.0
  0
LINE
  5
97
330
1E
100
AcDbEntity
  8
0
100
AcDbLine
 10
37.0
 20
362.0
 30
0.0
 11
37.0
 21
364.0
 31
0.0
  0
LINE
  5
98
330
1E
100
AcDbEntity
  8
0
100
AcDbLine
 10
50.0
 20
361.0
 30
0.0
 11
53.1
 21
361.0
 31
0.0
  0
LINE
  5
99
330
1E
100
AcDbEntity
  8
0
100
AcDbLine
 10
50.0
 20
361.0
 30
0.0
 11
52.6
 21
361.0
 31
0.0
  0
LINE
  5
9A
330
1E
100
AcDbEntity
  8
0
100
AcDbLine
 10
52.6
 20
361.0
 30
0.0
 11
55.0
 21
361.0
 31
0.0
  0
LINE
  5
9B
330
1E
100
AcDbEntity
  8
0
100
AcDbLine
 10
53.1
 20
361.0
 30
0.0
 11
56.0
 21
361.0
 31
0.0
  0
LINE
  5
9C
330
1E
100
AcDbEntity
  8
0
100
AcDbLine
 10
55.0
 20
361.0
 30
0.0
 11
57.1
 21
361.0
 31
0.0
  0
LINE
  5
9D
330
1E
100
AcDbEntity
  8
0
100
AcDbLine
 10
56.0
 20
361.0
 30
0.0
 11
58.5
 21
361.0
 31
0.0
  0
LINE
  5
9E
330
1E
100
AcDbEntity
  8
0
100
AcDbLine
 10
57.1
 20
361.0
 30
0.0
 11
58.7
 21
361.0
 31
0.0
  0
LINE
  5
9F
330
1E
100
AcDbEntity
  8
0
100
AcDbLine
 10
60.0
 20
361.0
 30
0.0
 11
60.4
 21
361.0
 31
0.0
  0
LINE
  5
A0
330
1E
100
AcDbEntity
  8
0
100
AcDbLine
 10
60.0
 20
361.0
 30
0.0
 11
60.0
 21
200.0
 31
0.0
  0
LINE
  5
A1
330
1E
100
AcDbEntity
  8
0
100
AcDbLine
 10
58.5
 20
361.0
 30
0.0
 11
60.4
 21
361.0
 31
0.0
  0
LINE
  5
A2
330
1E
100
AcDbEntity
  8
0
100
AcDbLine
 10
58.7
 20
361.0
 30
0.0
 11
59.6
 21
361.0
 31
0.0
  0
LINE
  5
A3
330
1E
100
AcDbEntity
  8
0
100
AcDbLine
 10
60.4
 20
361.0
 30
0.0
 11
61.6
 21
361.0
 31
0.0
  0
LINE
  5
A4
330
1E
100
AcDbEntity
  8
0
100
AcDbLine
 10
59.6
 20
361.0
 30
0.0
 11
60.0
 21
361.0
 31
0.0
  0
LINE
  5
A5
330
1E
100
AcDbEntity
  8
0
100
AcDbLine
 10
62.0
 20
361.0
 30
0.0
 11
63.0
 21
362.0
 31
0.0
  0
LINE
  5
A6
330
1E
100
AcDbEntity
  8
0
100
AcDbLine
 10
61.6
 20
361.0
 30
0.0
 11
62.0
 21
361.0
 31
0.0
  0
LINE
  5
A7
330
1E
100
AcDbEntity
  8
0
100
AcDbLine
 10
47.4
 20
361.0
 30
0.0
 11
50.0
 21
361.0
 31
0.0
  0
LINE
  5
A8
330
1E
100
AcDbEntity
  8
0
100
AcDbLine
 10
46.9
 20
361.0
 30
0.0
 11
50.0
 21
361.0
 31
0.0
  0
LINE
  5
A9
330
1E
100
AcDbEntity
  8
0
100
AcDbLine
 10
45.0
 20
361.0
 30
0.0
 11
47.4
 21
361.0
 31
0.0
  0
LINE
  5
AA
330
1E
100
AcDbEntity
  8
0
100
AcDbLine
 10
44.0
 20
361.0
 30
0.0
 11
46.9
 21
361.0
 31
0.0
  0
LINE
  5
AB
330
1E
100
AcDbEntity
  8
0
100
AcDbLine
 10
42.9
 20
361.0
 30
0.0
 11
45.0
 21
361.0
 31
0.0
  0
LINE
  5
AC
330
1E
100
AcDbEntity
  8
0
100
AcDbLine
 10
41.5
 20
361.0
 30
0.0
 11
44.0
 21
361.0
 31
0.0
  0
LINE
  5
AD
330
1E
100
AcDbEntity
  8
0
100
AcDbLine
 10
41.29999999999999
 20
361.0
 30
0.0
 11
42.9
 21
361.0
 31
0.0
  0
LINE
  5
AE
330
1E
100
AcDbEntity
  8
0
100
AcDbLine
 10
39.6
 20
361.0
 30
0.0
 11
41.5
 21
361.0
 31
0.0
  0
LINE
  5
AF
330
1E
100
AcDbEntity
  8
0
100
AcDbLine
 10
39.6
 20
361.0
 30
0.0
 11
40.0
 21
361.0
 31
0.0
  0
LINE
  5
B0
330
1E
100
AcDbEntity
  8
0
100
AcDbLine
 10
40.4
 20
361.0
 30
0.0
 11
41.29999999999999
 21
361.0
 31
0.0
  0
LINE
  5
B1
330
1E
100
AcDbEntity
  8
0
100
AcDbLine
 10
38.39999999999999
 20
361.0
 30
0.0
 11
39.6
 21
361.0
 31
0.0
  0
LINE
  5
B2
330
1E
100
AcDbEntity
  8
0
100
AcDbLine
 10
38.39999999999999
 20
365.0
 30
0.0
 11
39.6
 21
365.0
 31
0.0
  0
LINE
  5
B3
330
1E
100
AcDbEntity
  8
0
100
AcDbLine
 10
38.7
 20
364.0
 30
0.0
 11
40.8
 21
364.0
 31
0.0
  0
LINE
  5
B4
330
1E
100
AcDbEntity
  8
0
100
AcDbLine
 10
50.0
 20
362.0
 30
0.0
 11
53.39999999999999
 21
362.0
 31
0.0
  0
LINE
  5
B5
330
1E
100
AcDbEntity
  8
0
100
AcDbLine
 10
53.39999999999999
 20
362.0
 30
0.0
 11
56.5
 21
362.0
 31
0.0
  0
LINE
  5
B6
330
1E
100
AcDbEntity
  8
0
100
AcDbLine
 10
56.5
 20
362.0
 30
0.0
 11
59.2
 21
362.0
 31
0.0
  0
LINE
  5
B7
330
1E
100
AcDbEntity
  8
0
100
AcDbLine
 10
59.2
 20
362.0
 30
0.0
 11
61.29999999999999
 21
362.0
 31
0.0
  0
LINE
  5
B8
330
1E
100
AcDbEntity
  8
0
100
AcDbLine
 10
61.29999999999999
 20
362.0
 30
0.0
 11
62.5
 21
362.0
 31
0.0
  0
LINE
  5
B9
330
1E
100
AcDbEntity
  8
0
100
AcDbLine
 10
63.0
 20
362.0
 30
0.0
 11
63.0
 21
364.0
 31
0.0
  0
LINE
  5
BA
330
1E
100
AcDbEntity
  8
0
100
AcDbLine
 10
62.5
 20
362.0
 30
0.0
 11
63.0
 21
362.0
 31
0.0
  0
LINE
  5
BB
330
1E
100
AcDbEntity
  8
0
100
AcDbLine
 10
46.6
 20
362.0
 30
0.0
 11
50.0
 21
362.0
 31
0.0
  0
LINE
  5
BC
330
1E
100
AcDbEntity
  8
0
100
AcDbLine
 10
43.5
 20
362.0
 30
0.0
 11
46.6
 21
362.0
 31
0.0
  0
LINE
  5
BD
330
1E
100
AcDbEntity
  8
0
100
AcDbLine
 10
39.6
 20
365.0
 30
0.0
 11
41.5
 21
365.0
 31
0.0
  0
LINE
  5
BE
330
1E
100
AcDbEntity
  8
0
100
AcDbLine
 10
50.0
 20
364.0
 30
0.0
 11
53.39999999999999
 21
364.0
 31
0.0
  0
LINE
  5
BF
330
1E
100
AcDbEntity
  8
0
100
AcDbLine
 10
53.39999999999999
 20
364.0
 30
0.0
 11
56.5
 21
364.0
 31
0.0
  0
LINE
  5
C0
330
1E
100
AcDbEntity
  8
0
100
AcDbLine
 10
56.5
 20
364.0
 30
0.0
 11
59.2
 21
364.0
 31
0.0
  0
LINE
  5
C1
330
1E
100
AcDbEntity
  8
0
100
AcDbLine
 10
59.2
 20
364.0
 30
0.0
 11
61.29999999999999
 21
364.0
 31
0.0
  0
LINE
  5
C2
330
1E
100
AcDbEntity
  8
0
100
AcDbLine
 10
63.0
 20
364.0
 30
0.0
 11
63.0
 21
362.0
 31
0.0
  0
LINE
  5
C3
330
1E
100
AcDbEntity
  8
0
100
AcDbLine
 10
61.29999999999999
 20
364.0
 30
0.0
 11
62.5
 21
364.0
 31
0.0
  0
LINE
  5
C4
330
1E
100
AcDbEntity
  8
0
100
AcDbLine
 10
62.5
 20
364.0
 30
0.0
 11
63.0
 21
364.0
 31
0.0
  0
LINE
  5
C5
330
1E
100
AcDbEntity
  8
0
100
AcDbLine
 10
46.6
 20
364.0
 30
0.0
 11
50.0
 21
364.0
 31
0.0
  0
LINE
  5
C6
330
1E
100
AcDbEntity
  8
0
100
AcDbLine
 10
50.0
 20
365.0
 30
0.0
 11
53.1
 21
365.0
 31
0.0
  0
LINE
  5
C7
330
1E
100
AcDbEntity
  8
0
100
AcDbLine
 10
53.1
 20
365.0
 30
0.0
 11
56.0
 21
365.0
 31
0.0
  0
LINE
  5
C8
330
1E
100
AcDbEntity
  8
0
100
AcDbLine
 10
56.0
 20
365.0
 30
0.0
 11
58.5
 21
365.0
 31
0.0
  0
LINE
  5
C9
330
1E
100
AcDbEntity
  8
0
100
AcDbLine
 10
58.5
 20
365.0
 30
0.0
 11
60.4
 21
365.0
 31
0.0
  0
LINE
  5
CA
330
1E
100
AcDbEntity
  8
0
100
AcDbLine
 10
60.4
 20
365.0
 30
0.0
 11
61.6
 21
365.0
 31
0.0
  0
LINE
  5
CB
330
1E
100
AcDbEntity
  8
0
100
AcDbLine
 10
62.0
 20
365.0
 30
0.0
 11
63.0
 21
364.0
 31
0.0
  0
LINE
  5
CC
330
1E
100
AcDbEntity
  8
0
100
AcDbLine
 10
61.6
 20
365.0
 30
0.0
 11
62.0
 21
365.0
 31
0.0
  0
LINE
  5
CD
330
1E
100
AcDbEntity
  8
0
100
AcDbLine
 10
46.9
 20
365.0
 30
0.0
 11
50.0
 21
365.0
 31
0.0
  0
LINE
  5
CE
330
1E
100
AcDbEntity
  8
0
100
AcDbLine
 10
44.0
 20
365.0
 30
0.0
 11
46.9
 21
365.0
 31
0.0
  0
LINE
  5
CF
330
1E
100
AcDbEntity
  8
0
100
AcDbLine
 10
41.5
 20
365.0
 30
0.0
 11
44.0
 21
365.0
 31
0.0
  0
LINE
  5
D0
330
1E
100
AcDbEntity
  8
0
100
AcDbLine
 10
43.5
 20
364.0
 30
0.0
 11
46.6
 21
364.0
 31
0.0
  0
LINE
  5
D1
330
1E
100
AcDbEntity
  8
0
100
AcDbLine
 10
40.8
 20
364.0
 30
0.0
 11
43.5
 21
364.0
 31
0.0
  0
LINE
  5
D2
330
1E
100
AcDbEntity
  8
0
100
AcDbLine
 10
40.8
 20
362.0
 30
0.0
 11
43.5
 21
362.0
 31
0.0
  0
LINE
  5
D3
330
1E
100
AcDbEntity
  8
0
100
AcDbLine
 10
38.7
 20
362.0
 30
0.0
 11
40.8
 21
362.0
 31
0.0
  0
LINE
  5
D4
330
1E
100
AcDbEntity
  8
0
100
AcDbLine
 10
40.0
 20
361.0
 30
0.0
 11
40.4
 21
361.0
 31
0.0
  0
LINE
  5
D5
330
1E
100
AcDbEntity
  8
0
100
AcDbLine
 10
40.0
 20
361.0
 30
0.0
 11
40.0
 21
200.0
 31
0.0
  0
LINE
  5
D6
330
1E
100
AcDbEntity
  8
0
100
AcDbLine
 10
38.0
 20
361.0
 30
0.0
 11
38.39999999999999
 21
361.0
 31
0.0
  0
LINE
  5
D7
330
1E
100
AcDbEntity
  8
0
100
AcDbLine
 10
20.69999999999999
 20
200.0
 30
0.0
 11
29.3
 21
200.0
 31
0.0
  0
LINE
  5
D8
330
1E
100
AcDbEntity
  8
0
100
AcDbLine
 10
8.5
 20
200.0
 30
0.0
 11
20.69999999999999
 21
200.0
 31
0.0
  0
LINE
  5
D9
330
1E
100
AcDbEntity
  8
0
100
AcDbLine
 10
12.8
 20
199.3999999999999
 30
0.0
 11
19.69999999999999
 21
199.3999999999999
 31
0.0
  0
LINE
  5
DA
330
1E
100
AcDbEntity
  8
0
100
AcDbLine
 10
8.599999999999999
 20
199.3999999999999
 30
0.0
 11
12.8
 21
199.3999999999999
 31
0.0
  0
LINE
  5
DB
330
1E
100
AcDbEntity
  8
0
100
AcDbLine
 10
12.3
 20
114.0
 30
0.0
 11
19.19999999999999
 21
114.0
 31
0.0
  0
LINE
  5
DC
330
1E
100
AcDbEntity
  8
0
100
AcDbLine
 10
8.0
 20
114.0
 30
0.0
 11
12.3
 21
114.0
 31
0.0
  0
LINE
  5
DD
330
1E
100
AcDbEntity
  8
0
100
AcDbLine
 10
8.5
 20
112.0
 30
0.0
 11
9.9
 21
112.0
 31
0.0
  0
LINE
  5
DE
330
1E
100
AcDbEntity
  8
0
100
AcDbLine
 10
6.5
 20
114.0
 30
0.0
 11
8.0
 21
114.0
 31
0.0
  0
LINE
  5
DF
330
1E
100
AcDbEntity
  8
0
100
AcDbLine
 10
6.5
 20
114.0
 30
0.0
 11
8.5
 21
112.0
 31
0.0
  0
LINE
  5
E0
330
1E
100
AcDbEntity
  8
0
100
AcDbLine
 10
6.5
 20
114.0
 30
0.0
 11
6.5
 21
198.0
 31
0.0
  0
ENDSEC
  0
SECTION
  2
OBJECTS
  0
DICTIONARY
  5
C
330
0
100
AcDbDictionary
  3
ACAD_GROUP
350
D
  3
ACAD_LAYOUT
350
19
  3
ACAD_MLINESTYLE
350
16
  3
ACAD_PLOTSETTINGS
350
18
  3
ACAD_PLOTSTYLENAME
350
E
  3
ACDBHEADERROUNDTRIPXREC
350
E8
  3
ACDBVARIABLEDICTIONARY
350
E5
  0
DICTIONARY
  5
10A
330
1E
100
AcDbDictionary
280
     1
  3
ACAD_LAYOUTSELFREF
360
10B
  0
DICTIONARY
  5
108
330
1A
100
AcDbDictionary
280
     1
  3
ACAD_LAYOUTSELFREF
360
109
  0
DICTIONARY
  5
D
102
{ACAD_REACTORS
330
C
102
}
330
C
100
AcDbDictionary
  0
DICTIONARY
  5
19
102
{ACAD_REACTORS
330
C
102
}
330
C
100
AcDbDictionary
  0
DICTIONARY
  5
16
102
{ACAD_REACTORS
330
C
102
}
330
C
100
AcDbDictionary
  3
STANDARD
350
17
  0
DICTIONARY
  5
18
102
{ACAD_REACTORS
330
C
102
}
330
C
100
AcDbDictionary
  0
ACDBDICTIONARYWDFLT
  5
E
102
{ACAD_REACTORS
330
C
102
}
330
C
100
AcDbDictionary
281
     1
  3
Normal
350
F
100
AcDbDictionaryWithDefault
340
F
  0
DICTIONARY
  5
E8
102
{ACAD_REACTORS
330
C
102
}
330
C
100
AcDbDictionary
  3
CEPSNTYPE
350
F2
  3
FINGERPRINTGUID
350
F3
  3
HYPERLINKBASE
350
EB
  3
INSUNITS
350
F1
  3
LAYOUTDICT
350
ED
  3
LWETCUNION
350
F0
  3
PLOTSETDICT
350
EE
  3
PLOTSTYLNAMDICT
350
EF
  3
PSVPSCALE
350
F5
  3
PUCSBASE
350
F8
  3
PUCSORGBACK
350
FE
  3
PUCSORGBOTTOM
350
FA
  3
PUCSORGFRONT
350
FD
  3
PUCSORGLEFT
350
FB
  3
PUCSORGRIGHT
350
FC
  3
PUCSORGTOP
350
F9
  3
PUCSORTHOREF
350
F6
  3
PUCSORTHOVIEW
350
F7
  3
STYLESHEET
350
EC
  3
TSTACKALIGN
350
E9
  3
TSTACKSIZE
350
EA
  3
UCSBASE
350
101
  3
UCSORGBACK
350
107
  3
UCSORGBOTTOM
350
103
  3
UCSORGFRONT
350
106
  3
UCSORGLEFT
350
104
  3
UCSORGRIGHT
350
105
  3
UCSORGTOP
350
102
  3
UCSORTHOREF
350
FF
  3
UCSORTHOVIEW
350
100
  3
VERSIONGUID
350
F4
  0
DICTIONARY
  5
E5
102
{ACAD_REACTORS
330
C
102
}
330
C
100
AcDbDictionary
  3
DIMASSOC
350
E6
  0
XRECORD
  5
10B
102
{ACAD_REACTORS
330
10A
102
}
330
10A
100
AcDbXrecord
340
1E
  0
XRECORD
  5
109
102
{ACAD_REACTORS
330
108
102
}
330
108
100
AcDbXrecord
340
1A
  0
MLINESTYLE
  5
17
102
{ACAD_REACTORS
330
16
102
}
330
16
100
AcDbMlineStyle
  2
STANDARD
 70
     0
  3

 62
   256
 51
90.0
 52
90.0
 71
     2
 49
0.5
 62
   256
  6
BYLAYER
 49
-0.5
 62
   256
  6
BYLAYER
  0
ACDBPLACEHOLDER
  5
F
102
{ACAD_REACTORS
330
E
102
}
330
E
100
AcDbPlaceHolder
280
     0
  0
XRECORD
  5
F2
102
{ACAD_REACTORS
330
E8
102
}
330
E8
100
AcDbXrecord
 90
        0
  0
XRECORD
  5
F3
102
{ACAD_REACTORS
330
E8
102
}
330
E8
100
AcDbXrecord
  1
{375D75EE-FB7E-4817-91D8-BD85E0EE3DD8}
  0
XRECORD
  5
EB
102
{ACAD_REACTORS
330
E8
102
}
330
E8
100
AcDbXrecord
  1

  0
XRECORD
  5
F1
102
{ACAD_REACTORS
330
E8
102
}
330
E8
100
AcDbXrecord
 90
        0
  0
XRECORD
  5
ED
102
{ACAD_REACTORS
330
E8
102
}
330
E8
100
AcDbXrecord
340
19
  0
XRECORD
  5
F0
102
{ACAD_REACTORS
330
E8
102
}
330
E8
100
AcDbXrecord
 90
    10781
  0
XRECORD
  5
EE
102
{ACAD_REACTORS
330
E8
102
}
330
E8
100
AcDbXrecord
340
18
  0
XRECORD
  5
EF
102
{ACAD_REACTORS
330
E8
102
}
330
E8
100
AcDbXrecord
340
E
  0
XRECORD
  5
F5
102
{ACAD_REACTORS
330
E8
102
}
330
E8
100
AcDbXrecord
 40
0.0
  0
XRECORD
  5
F8
102
{ACAD_REACTORS
330
E8
102
}
330
E8
100
AcDbXrecord
340
0
  0
XRECORD
  5
FE
102
{ACAD_REACTORS
330
E8
102
}
330
E8
100
AcDbXrecord
 10
0.0
 20
0.0
 30
0.0
  0
XRECORD
  5
FA
102
{ACAD_REACTORS
330
E8
102
}
330
E8
100
AcDbXrecord
 10
0.0
 20
0.0
 30
0.0
  0
XRECORD
  5
FD
102
{ACAD_REACTORS
330
E8
102
}
330
E8
100
AcDbXrecord
 10
0.0
 20
0.0
 30
0.0
  0
XRECORD
  5
FB
102
{ACAD_REACTORS
330
E8
102
}
330
E8
100
AcDbXrecord
 10
0.0
 20
0.0
 30
0.0
  0
XRECORD
  5
FC
102
{ACAD_REACTORS
330
E8
102
}
330
E8
100
AcDbXrecord
 10
0.0
 20
0.0
 30
0.0
  0
XRECORD
  5
F9
102
{ACAD_REACTORS
330
E8
102
}
330
E8
100
AcDbXrecord
 10
0.0
 20
0.0
 30
0.0
  0
XRECORD
  5
F6
102
{ACAD_REACTORS
330
E8
102
}
330
E8
100
AcDbXrecord
340
0
  0
XRECORD
  5
F7
102
{ACAD_REACTORS
330
E8
102
}
330
E8
100
AcDbXrecord
 70
     0
  0
XRECORD
  5
EC
102
{ACAD_REACTORS
330
E8
102
}
330
E8
100
AcDbXrecord
  1

  0
XRECORD
  5
E9
102
{ACAD_REACTORS
330
E8
102
}
330
E8
100
AcDbXrecord
 90
        1
  0
XRECORD
  5
EA
102
{ACAD_REACTORS
330
E8
102
}
330
E8
100
AcDbXrecord
 90
       70
  0
XRECORD
  5
101
102
{ACAD_REACTORS
330
E8
102
}
330
E8
100
AcDbXrecord
340
0
  0
XRECORD
  5
107
102
{ACAD_REACTORS
330
E8
102
}
330
E8
100
AcDbXrecord
 10
0.0
 20
0.0
 30
0.0
  0
XRECORD
  5
103
102
{ACAD_REACTORS
330
E8
102
}
330
E8
100
AcDbXrecord
 10
0.0
 20
0.0
 30
0.0
  0
XRECORD
  5
106
102
{ACAD_REACTORS
330
E8
102
}
330
E8
100
AcDbXrecord
 10
0.0
 20
0.0
 30
0.0
  0
XRECORD
  5
104
102
{ACAD_REACTORS
330
E8
102
}
330
E8
100
AcDbXrecord
 10
0.0
 20
0.0
 30
0.0
  0
XRECORD
  5
105
102
{ACAD_REACTORS
330
E8
102
}
330
E8
100
AcDbXrecord
 10
0.0
 20
0.0
 30
0.0
  0
XRECORD
  5
102
102
{ACAD_REACTORS
330
E8
102
}
330
E8
100
AcDbXrecord
 10
0.0
 20
0.0
 30
0.0
  0
XRECORD
  5
FF
102
{ACAD_REACTORS
330
E8
102
}
330
E8
100
AcDbXrecord
340
0
  0
XRECORD
  5
100
102
{ACAD_REACTORS
330
E8
102
}
330
E8
100
AcDbXrecord
 70
     1
  0
XRECORD
  5
F4
102
{ACAD_REACTORS
330
E8
102
}
330
E8
100
AcDbXrecord
  1
{6EB66AAD-1D53-4281-BA87-5580B31EC62A}
  0
DICTIONARYVAR
  5
E6
102
{ACAD_REACTORS
330
E5
102
}
330
E5
100
DictionaryVariables
280
     0
  1
1
  0
ENDSEC
  0
EOF
