  0
SECTION
  2
HEADER
  9
$ACADVER
  1
AC1014
  9
$ACADMAINTVER
 70
     9
  9
$DWGCODEPAGE
  3
ANSI_1252
  9
$INSBASE
 10
0.0
 20
0.0
 30
0.0
  9
$EXTMIN
 10
-0.0000000000000053
 20
-0.0000000000000015
 30
0.0
  9
$EXTMAX
 10
96.0
 20
177.0
 30
0.0
  9
$LIMMIN
 10
0.0
 20
0.0
  9
$LIMMAX
 10
12.0
 20
9.0
  9
$ORTHOMODE
 70
     0
  9
$REGENMODE
 70
     1
  9
$FILLMODE
 70
     1
  9
$QTEXTMODE
 70
     0
  9
$MIRRTEXT
 70
     1
  9
$DRAGMODE
 70
     2
  9
$LTSCALE
 40
1.0
  9
$OSMODE
 70
    37
  9
$ATTMODE
 70
     1
  9
$TEXTSIZE
 40
0.2
  9
$TRACEWID
 40
0.05
  9
$TEXTSTYLE
  7
STANDARD
  9
$CLAYER
  8
0
  9
$CELTYPE
  6
CONTINUOUS
  9
$CECOLOR
 62
   256
  9
$CELTSCALE
 40
1.0
  9
$DELOBJ
 70
     1
  9
$DISPSILH
 70
     0
  9
$DIMSCALE
 40
1.0
  9
$DIMASZ
 40
0.18
  9
$DIMEXO
 40
0.0625
  9
$DIMDLI
 40
0.38
  9
$DIMRND
 40
0.0
  9
$DIMDLE
 40
0.0
  9
$DIMEXE
 40
0.18
  9
$DIMTP
 40
0.0
  9
$DIMTM
 40
0.0
  9
$DIMTXT
 40
0.18
  9
$DIMCEN
 40
0.09
  9
$DIMTSZ
 40
0.0
  9
$DIMTOL
 70
     0
  9
$DIMLIM
 70
     0
  9
$DIMTIH
 70
     1
  9
$DIMTOH
 70
     1
  9
$DIMSE1
 70
     0
  9
$DIMSE2
 70
     0
  9
$DIMTAD
 70
     0
  9
$DIMZIN
 70
     0
  9
$DIMBLK
  1

  9
$DIMASO
 70
     1
  9
$DIMSHO
 70
     1
  9
$DIMPOST
  1

  9
$DIMAPOST
  1

  9
$DIMALT
 70
     0
  9
$DIMALTD
 70
     2
  9
$DIMALTF
 40
25.4
  9
$DIMLFAC
 40
1.0
  9
$DIMTOFL
 70
     0
  9
$DIMTVP
 40
0.0
  9
$DIMTIX
 70
     0
  9
$DIMSOXD
 70
     0
  9
$DIMSAH
 70
     0
  9
$DIMBLK1
  1

  9
$DIMBLK2
  1

  9
$DIMSTYLE
  2
STANDARD
  9
$DIMCLRD
 70
     0
  9
$DIMCLRE
 70
     0
  9
$DIMCLRT
 70
     0
  9
$DIMTFAC
 40
1.0
  9
$DIMGAP
 40
0.09
  9
$DIMJUST
 70
     0
  9
$DIMSD1
 70
     0
  9
$DIMSD2
 70
     0
  9
$DIMTOLJ
 70
     1
  9
$DIMTZIN
 70
     0
  9
$DIMALTZ
 70
     0
  9
$DIMALTTZ
 70
     0
  9
$DIMFIT
 70
     3
  9
$DIMUPT
 70
     0
  9
$DIMUNIT
 70
     2
  9
$DIMDEC
 70
     4
  9
$DIMTDEC
 70
     4
  9
$DIMALTU
 70
     2
  9
$DIMALTTD
 70
     2
  9
$DIMTXSTY
  7
STANDARD
  9
$DIMAUNIT
 70
     0
  9
$LUNITS
 70
     2
  9
$LUPREC
 70
     4
  9
$SKETCHINC
 40
0.1
  9
$FILLETRAD
 40
0.0
  9
$AUNITS
 70
     0
  9
$AUPREC
 70
     0
  9
$MENU
  1
.
  9
$ELEVATION
 40
0.0
  9
$PELEVATION
 40
0.0
  9
$THICKNESS
 40
0.0
  9
$LIMCHECK
 70
     0
  9
$BLIPMODE
 70
     0
  9
$CHAMFERA
 40
0.0
  9
$CHAMFERB
 40
0.0
  9
$CHAMFERC
 40
0.0
  9
$CHAMFERD
 40
0.0
  9
$SKPOLY
 70
     0
  9
$TDCREATE
 40
2454688.700370729
  9
$TDUPDATE
 40
2454688.701854016
  9
$TDINDWG
 40
0.0014834722
  9
$TDUSRTIMER
 40
0.0014834722
  9
$USRTIMER
 70
     1
  9
$ANGBASE
 50
0.0
  9
$ANGDIR
 70
     0
  9
$PDMODE
 70
     0
  9
$PDSIZE
 40
0.0
  9
$PLINEWID
 40
0.0
  9
$COORDS
 70
     1
  9
$SPLFRAME
 70
     0
  9
$SPLINETYPE
 70
     6
  9
$SPLINESEGS
 70
     8
  9
$ATTDIA
 70
     0
  9
$ATTREQ
 70
     1
  9
$HANDLING
 70
 22529
  9
$HANDSEED
  5
229
  9
$SURFTAB1
 70
     6
  9
$SURFTAB2
 70
     6
  9
$SURFTYPE
 70
     6
  9
$SURFU
 70
     6
  9
$SURFV
 70
     6
  9
$UCSNAME
  2

  9
$UCSORG
 10
0.0
 20
0.0
 30
0.0
  9
$UCSXDIR
 10
1.0
 20
0.0
 30
0.0
  9
$UCSYDIR
 10
0.0
 20
1.0
 30
0.0
  9
$PUCSNAME
  2

  9
$PUCSORG
 10
0.0
 20
0.0
 30
0.0
  9
$PUCSXDIR
 10
1.0
 20
0.0
 30
0.0
  9
$PUCSYDIR
 10
0.0
 20
1.0
 30
0.0
  9
$USERI1
 70
     0
  9
$USERI2
 70
     0
  9
$USERI3
 70
     0
  9
$USERI4
 70
     0
  9
$USERI5
 70
     0
  9
$USERR1
 40
0.0
  9
$USERR2
 40
0.0
  9
$USERR3
 40
0.0
  9
$USERR4
 40
0.0
  9
$USERR5
 40
0.0
  9
$WORLDVIEW
 70
     1
  9
$SHADEDGE
 70
     3
  9
$SHADEDIF
 70
    70
  9
$TILEMODE
 70
     1
  9
$MAXACTVP
 70
    64
  9
$PINSBASE
 10
0.0
 20
0.0
 30
0.0
  9
$PLIMCHECK
 70
     0
  9
$PEXTMIN
 10
1.000000000000000E+20
 20
1.000000000000000E+20
 30
1.000000000000000E+20
  9
$PEXTMAX
 10
-1.000000000000000E+20
 20
-1.000000000000000E+20
 30
-1.000000000000000E+20
  9
$PLIMMIN
 10
0.0
 20
0.0
  9
$PLIMMAX
 10
12.0
 20
9.0
  9
$UNITMODE
 70
     0
  9
$VISRETAIN
 70
     1
  9
$PLINEGEN
 70
     0
  9
$PSLTSCALE
 70
     1
  9
$TREEDEPTH
 70
  3020
  9
$PICKSTYLE
 70
     1
  9
$CMLSTYLE
  2
STANDARD
  9
$CMLJUST
 70
     0
  9
$CMLSCALE
 40
1.0
  9
$PROXYGRAPHICS
 70
     1
  9
$MEASUREMENT
 70
     0
  0
ENDSEC
  0
SECTION
  2
CLASSES
  0
CLASS
  1
ACDBDICTIONARYWDFLT
  2
AcDbDictionaryWithDefault
  3
AutoCAD 2000
 90
        0
280
     0
281
     0
  0
CLASS
  1
ACDBPLACEHOLDER
  2
AcDbPlaceHolder
  3
AutoCAD 2000
 90
        0
280
     0
281
     0
  0
CLASS
  1
LAYOUT
  2
AcDbLayout
  3
AutoCAD 2000
 90
        0
280
     0
281
     0
  0
CLASS
  1
DICTIONARYVAR
  2
AcDbDictionaryVar
  3
AutoCAD 2000
 90
        0
280
     0
281
     0
  0
CLASS
  1
LONG_TRANSACTION
  2
AcDbLongTransaction
  3
AutoCAD 2000
 90
        0
280
     0
281
     0
  0
CLASS
  1
LWPOLYLINE
  2
AcDbPolyline
  3
AutoCAD 2000
 90
        0
280
     0
281
     1
  0
CLASS
  1
HATCH
  2
AcDbHatch
  3
AutoCAD 2000
 90
        0
280
     0
281
     1
  0
CLASS
  1
XRECORD
  2
AcDbXrecord
  3
AutoCAD 2000
 90
        0
280
     0
281
     0
  0
ENDSEC
  0
SECTION
  2
TABLES
  0
TABLE
  2
VPORT
  5
8
330
0
100
AcDbSymbolTable
 70
     2
  0
VPORT
  5
204
330
8
100
AcDbSymbolTableRecord
100
AcDbViewportTableRecord
  2
*ACTIVE
 70
     0
 10
0.0
 20
0.0
 11
1.0
 21
1.0
 12
47.99999999999999
 22
88.49999999999999
 13
0.0
 23
0.0
 14
1.0
 24
1.0
 15
0.0
 25
0.0
 16
0.0
 26
0.0
 36
1.0
 17
0.0
 27
0.0
 37
0.0
 40
178.3580562659846
 41
2.043533930857874
 42
50.0
 43
0.0
 44
0.0
 50
0.0
 51
0.0
 71
     0
 72
   100
 73
     1
 74
     3
 75
     0
 76
     0
 77
     0
 78
     0
  0
ENDTAB
  0
TABLE
  2
LTYPE
  5
5
330
0
100
AcDbSymbolTable
 70
     1
  0
LTYPE
  5
13
330
5
100
AcDbSymbolTableRecord
100
AcDbLinetypeTableRecord
  2
BYBLOCK
 70
     0
  3

 72
    65
 73
     0
 40
0.0
  0
LTYPE
  5
14
330
5
100
AcDbSymbolTableRecord
100
AcDbLinetypeTableRecord
  2
BYLAYER
 70
     0
  3

 72
    65
 73
     0
 40
0.0
  0
LTYPE
  5
15
330
5
100
AcDbSymbolTableRecord
100
AcDbLinetypeTableRecord
  2
CONTINUOUS
 70
     0
  3
Solid line
 72
    65
 73
     0
 40
0.0
  0
ENDTAB
  0
TABLE
  2
LAYER
  5
2
330
0
100
AcDbSymbolTable
 70
     1
  0
LAYER
  5
10
330
2
100
AcDbSymbolTableRecord
100
AcDbLayerTableRecord
  2
0
 70
     0
 62
     7
  6
CONTINUOUS
  0
ENDTAB
  0
TABLE
  2
STYLE
  5
3
330
0
100
AcDbSymbolTable
 70
     1
  0
STYLE
  5
11
330
3
100
AcDbSymbolTableRecord
100
AcDbTextStyleTableRecord
  2
STANDARD
 70
     0
 40
0.0
 41
1.0
 50
0.0
 71
     0
 42
0.2
  3
txt
  4

  0
ENDTAB
  0
TABLE
  2
VIEW
  5
6
330
0
100
AcDbSymbolTable
 70
     0
  0
ENDTAB
  0
TABLE
  2
UCS
  5
7
330
0
100
AcDbSymbolTable
 70
     0
  0
ENDTAB
  0
TABLE
  2
APPID
  5
9
330
0
100
AcDbSymbolTable
 70
     1
  0
APPID
  5
12
330
9
100
AcDbSymbolTableRecord
100
AcDbRegAppTableRecord
  2
ACAD
 70
     0
  0
ENDTAB
  0
TABLE
  2
DIMSTYLE
  5
A
330
0
100
AcDbSymbolTable
 70
     1
  0
DIMSTYLE
105
1FE
330
A
100
AcDbSymbolTableRecord
100
AcDbDimStyleTableRecord
  2
STANDARD
 70
     0
  3

  4

  5

  6

  7

 40
1.0
 41
0.18
 42
0.0625
 43
0.38
 44
0.18
 45
0.0
 46
0.0
 47
0.0
 48
0.0
140
0.18
141
0.09
142
0.0
143
25.4
144
1.0
145
0.0
146
1.0
147
0.09
 71
     0
 72
     0
 73
     1
 74
     1
 75
     0
 76
     0
 77
     0
 78
     0
170
     0
171
     2
172
     0
173
     0
174
     0
175
     0
176
     0
177
     0
178
     0
270
     2
271
     4
272
     4
273
     2
274
     2
340
11
275
     0
280
     0
281
     0
282
     0
283
     1
284
     0
285
     0
286
     0
287
     3
288
     0
  0
ENDTAB
  0
TABLE
  2
BLOCK_RECORD
  5
1
330
0
100
AcDbSymbolTable
 70
     0
  0
BLOCK_RECORD
  5
1E
102
{ACAD_XDICTIONARY
360
227
102
}
330
1
100
AcDbSymbolTableRecord
100
AcDbBlockTableRecord
  2
*MODEL_SPACE
  0
BLOCK_RECORD
  5
1A
102
{ACAD_XDICTIONARY
360
225
102
}
330
1
100
AcDbSymbolTableRecord
100
AcDbBlockTableRecord
  2
*PAPER_SPACE
  0
ENDTAB
  0
ENDSEC
  0
SECTION
  2
BLOCKS
  0
BLOCK
  5
1F
330
1E
100
AcDbEntity
  8
0
100
AcDbBlockBegin
  2
*MODEL_SPACE
 70
     0
 10
0.0
 20
0.0
 30
0.0
  3
*MODEL_SPACE
  1

  0
ENDBLK
  5
20
330
1E
100
AcDbEntity
  8
0
100
AcDbBlockEnd
  0
BLOCK
  5
1B
330
1A
100
AcDbEntity
 67
     1
  8
0
100
AcDbBlockBegin
  2
*PAPER_SPACE
 70
     0
 10
0.0
 20
0.0
 30
0.0
  3
*PAPER_SPACE
  1

  0
ENDBLK
  5
1C
330
1A
100
AcDbEntity
 67
     1
  8
0
100
AcDbBlockEnd
  0
ENDSEC
  0
SECTION
  2
ENTITIES
  0
LINE
  5
22
330
1E
100
AcDbEntity
  8
0
100
AcDbLine
 10
-0.0000000000000049
 20
0.0
 30
0.0
 11
-0.0000000000000012
 21
60.0
 31
0.0
  0
LINE
  5
23
330
1E
100
AcDbEntity
  8
0
100
AcDbLine
 10
-0.0000000000000053
 20
-0.0000000000000005
 30
0.0
 11
16.0
 21
-0.0000000000000014
 31
0.0
  0
LINE
  5
24
330
1E
100
AcDbEntity
  8
0
100
AcDbLine
 10
15.5
 20
0.4999999999999951
 30
0.0
 11
15.5
 21
47.0
 31
0.0
  0
LINE
  5
25
330
1E
100
AcDbEntity
  8
0
100
AcDbLine
 10
0.4999999999999961
 20
0.5
 30
0.0
 11
15.5
 21
0.499999999999999
 31
0.0
  0
LINE
  5
26
330
1E
100
AcDbEntity
  8
0
100
AcDbLine
 10
0.4999999999999951
 20
0.4999999999999951
 30
0.0
 11
0.499999999999999
 21
59.5
 31
0.0
  0
LINE
  5
27
330
1E
100
AcDbEntity
  8
0
100
AcDbLine
 10
-0.0000000000000048
 20
-0.0000000000000005
 30
0.0
 11
0.4999999999999951
 21
0.5
 31
0.0
  0
LINE
  5
28
330
1E
100
AcDbEntity
  8
0
100
AcDbLine
 10
-0.0000000000000049
 20
-0.0000000000000005
 30
0.0
 11
0.4999999999999951
 21
0.5
 31
0.0
  0
LINE
  5
29
330
1E
100
AcDbEntity
  8
0
100
AcDbLine
 10
-0.0000000000000049
 20
-0.0000000000000005
 30
0.0
 11
-0.0000000000000012
 21
60.0
 31
0.0
  0
LINE
  5
2A
330
1E
100
AcDbEntity
  8
0
100
AcDbLine
 10
-0.0000000000000049
 20
-0.0000000000000005
 30
0.0
 11
16.0
 21
-0.0000000000000014
 31
0.0
  0
LINE
  5
2B
330
1E
100
AcDbEntity
  8
0
100
AcDbLine
 10
0.4999999999999951
 20
0.5
 30
0.0
 11
15.5
 21
0.499999999999999
 31
0.0
  0
LINE
  5
2C
330
1E
100
AcDbEntity
  8
0
100
AcDbLine
 10
0.4999999999999951
 20
0.5
 30
0.0
 11
0.499999999999999
 21
59.5
 31
0.0
  0
LINE
  5
2D
330
1E
100
AcDbEntity
  8
0
100
AcDbLine
 10
16.0
 20
-0.0000000000000014
 30
0.0
 11
16.0
 21
47.0
 31
0.0
  0
LINE
  5
2E
330
1E
100
AcDbEntity
  8
0
100
AcDbLine
 10
16.0
 20
0.0
 30
0.0
 11
16.0
 21
47.0
 31
0.0
  0
LINE
  5
2F
330
1E
100
AcDbEntity
  8
0
100
AcDbLine
 10
15.5
 20
0.499999999999999
 30
0.0
 11
15.5
 21
47.0
 31
0.0
  0
LINE
  5
30
330
1E
100
AcDbEntity
  8
0
100
AcDbLine
 10
15.5
 20
0.499999999999999
 30
0.0
 11
16.0
 21
-0.0000000000000014
 31
0.0
  0
LINE
  5
31
330
1E
100
AcDbEntity
  8
0
100
AcDbLine
 10
15.5
 20
0.499999999999999
 30
0.0
 11
16.0
 21
-0.0000000000000015
 31
0.0
  0
LINE
  5
32
330
1E
100
AcDbEntity
  8
0
100
AcDbLine
 10
26.0
 20
33.5
 30
0.0
 11
26.0
 21
34.29999999999999
 31
0.0
  0
LINE
  5
33
330
1E
100
AcDbEntity
  8
0
100
AcDbLine
 10
26.0
 20
33.5
 30
0.0
 11
26.5
 21
33.0
 31
0.0
  0
LINE
  5
34
330
1E
100
AcDbEntity
  8
0
100
AcDbLine
 10
26.0
 20
34.29999999999999
 30
0.0
 11
26.0
 21
33.5
 31
0.0
  0
LINE
  5
35
330
1E
100
AcDbEntity
  8
0
100
AcDbLine
 10
26.0
 20
34.29999999999999
 30
0.0
 11
26.0
 21
36.4
 31
0.0
  0
LINE
  5
36
330
1E
100
AcDbEntity
  8
0
100
AcDbLine
 10
26.0
 20
36.4
 30
0.0
 11
26.0
 21
34.29999999999999
 31
0.0
  0
LINE
  5
37
330
1E
100
AcDbEntity
  8
0
100
AcDbLine
 10
26.0
 20
36.4
 30
0.0
 11
26.0
 21
39.8
 31
0.0
  0
LINE
  5
38
330
1E
100
AcDbEntity
  8
0
100
AcDbLine
 10
26.0
 20
39.8
 30
0.0
 11
26.0
 21
36.4
 31
0.0
  0
LINE
  5
39
330
1E
100
AcDbEntity
  8
0
100
AcDbLine
 10
26.0
 20
39.8
 30
0.0
 11
26.0
 21
44.29999999999999
 31
0.0
  0
LINE
  5
3A
330
1E
100
AcDbEntity
  8
0
100
AcDbLine
 10
16.0
 20
47.0
 30
0.0
 11
16.3
 21
48.2
 31
0.0
  0
LINE
  5
3B
330
1E
100
AcDbEntity
  8
0
100
AcDbLine
 10
15.5
 20
47.0
 30
0.0
 11
15.8
 21
48.3
 31
0.0
  0
LINE
  5
3C
330
1E
100
AcDbEntity
  8
0
100
AcDbLine
 10
16.3
 20
48.2
 30
0.0
 11
16.89999999999999
 21
49.1
 31
0.0
  0
LINE
  5
3D
330
1E
100
AcDbEntity
  8
0
100
AcDbLine
 10
15.8
 20
48.3
 30
0.0
 11
16.6
 21
49.4
 31
0.0
  0
LINE
  5
3E
330
1E
100
AcDbEntity
  8
0
100
AcDbLine
 10
16.89999999999999
 20
49.1
 30
0.0
 11
17.9
 21
49.7
 31
0.0
  0
LINE
  5
3F
330
1E
100
AcDbEntity
  8
0
100
AcDbLine
 10
16.6
 20
49.4
 30
0.0
 11
17.7
 21
50.2
 31
0.0
  0
LINE
  5
40
330
1E
100
AcDbEntity
  8
0
100
AcDbLine
 10
17.9
 20
49.7
 30
0.0
 11
19.0
 21
50.0
 31
0.0
  0
LINE
  5
41
330
1E
100
AcDbEntity
  8
0
100
AcDbLine
 10
19.0
 20
50.0
 30
0.0
 11
26.0
 21
50.0
 31
0.0
  0
LINE
  5
42
330
1E
100
AcDbEntity
  8
0
100
AcDbLine
 10
26.0
 20
44.29999999999999
 30
0.0
 11
26.0
 21
39.8
 31
0.0
  0
LINE
  5
43
330
1E
100
AcDbEntity
  8
0
100
AcDbLine
 10
26.0
 20
44.29999999999999
 30
0.0
 11
26.0
 21
49.5
 31
0.0
  0
LINE
  5
44
330
1E
100
AcDbEntity
  8
0
100
AcDbLine
 10
26.5
 20
33.79999999999999
 30
0.0
 11
26.5
 21
35.89999999999999
 31
0.0
  0
LINE
  5
45
330
1E
100
AcDbEntity
  8
0
100
AcDbLine
 10
26.5
 20
33.79999999999999
 30
0.0
 11
26.5
 21
33.0
 31
0.0
  0
LINE
  5
46
330
1E
100
AcDbEntity
  8
0
100
AcDbLine
 10
26.5
 20
35.89999999999999
 30
0.0
 11
26.5
 21
39.5
 31
0.0
  0
LINE
  5
47
330
1E
100
AcDbEntity
  8
0
100
AcDbLine
 10
26.5
 20
35.89999999999999
 30
0.0
 11
26.5
 21
33.79999999999999
 31
0.0
  0
LINE
  5
48
330
1E
100
AcDbEntity
  8
0
100
AcDbLine
 10
26.5
 20
39.5
 30
0.0
 11
26.5
 21
44.1
 31
0.0
  0
LINE
  5
49
330
1E
100
AcDbEntity
  8
0
100
AcDbLine
 10
26.5
 20
39.5
 30
0.0
 11
26.5
 21
35.89999999999999
 31
0.0
  0
LINE
  5
4A
330
1E
100
AcDbEntity
  8
0
100
AcDbLine
 10
26.5
 20
44.1
 30
0.0
 11
26.5
 21
49.29999999999999
 31
0.0
  0
LINE
  5
4B
330
1E
100
AcDbEntity
  8
0
100
AcDbLine
 10
26.5
 20
44.1
 30
0.0
 11
26.5
 21
39.5
 31
0.0
  0
LINE
  5
4C
330
1E
100
AcDbEntity
  8
0
100
AcDbLine
 10
26.5
 20
49.29999999999999
 30
0.0
 11
26.5
 21
55.0
 31
0.0
  0
LINE
  5
4D
330
1E
100
AcDbEntity
  8
0
100
AcDbLine
 10
26.5
 20
49.29999999999999
 30
0.0
 11
26.5
 21
44.1
 31
0.0
  0
LINE
  5
4E
330
1E
100
AcDbEntity
  8
0
100
AcDbLine
 10
26.5
 20
33.0
 30
0.0
 11
66.0
 21
33.0
 31
0.0
  0
LINE
  5
4F
330
1E
100
AcDbEntity
  8
0
100
AcDbLine
 10
26.5
 20
33.0
 30
0.0
 11
26.5
 21
33.79999999999999
 31
0.0
  0
LINE
  5
50
330
1E
100
AcDbEntity
  8
0
100
AcDbLine
 10
26.0
 20
49.5
 30
0.0
 11
26.0
 21
44.29999999999999
 31
0.0
  0
LINE
  5
51
330
1E
100
AcDbEntity
  8
0
100
AcDbLine
 10
26.0
 20
49.5
 30
0.0
 11
26.0
 21
50.0
 31
0.0
  0
LINE
  5
52
330
1E
100
AcDbEntity
  8
0
100
AcDbLine
 10
26.0
 20
49.5
 30
0.0
 11
26.0
 21
55.0
 31
0.0
  0
LINE
  5
53
330
1E
100
AcDbEntity
  8
0
100
AcDbLine
 10
17.7
 20
50.2
 30
0.0
 11
19.0
 21
50.5
 31
0.0
  0
LINE
  5
54
330
1E
100
AcDbEntity
  8
0
100
AcDbLine
 10
19.0
 20
50.5
 30
0.0
 11
26.0
 21
50.5
 31
0.0
  0
LINE
  5
55
330
1E
100
AcDbEntity
  8
0
100
AcDbLine
 10
26.0
 20
50.5
 30
0.0
 11
26.0
 21
50.0
 31
0.0
  0
LINE
  5
56
330
1E
100
AcDbEntity
  8
0
100
AcDbLine
 10
0.0
 20
60.0
 30
0.0
 11
26.0
 21
60.0
 31
0.0
  0
LINE
  5
57
330
1E
100
AcDbEntity
  8
0
100
AcDbLine
 10
26.0
 20
59.5
 30
0.0
 11
26.0
 21
50.5
 31
0.0
  0
LINE
  5
58
330
1E
100
AcDbEntity
  8
0
100
AcDbLine
 10
0.499999999999999
 20
59.5
 30
0.0
 11
26.0
 21
59.5
 31
0.0
  0
LINE
  5
59
330
1E
100
AcDbEntity
  8
0
100
AcDbLine
 10
0.4999999999999981
 20
59.5
 30
0.0
 11
26.0
 21
59.5
 31
0.0
  0
LINE
  5
5A
330
1E
100
AcDbEntity
  8
0
100
AcDbLine
 10
-0.0000000000000012
 20
60.0
 30
0.0
 11
0.499999999999999
 21
59.5
 31
0.0
  0
LINE
  5
5B
330
1E
100
AcDbEntity
  8
0
100
AcDbLine
 10
-0.0000000000000012
 20
60.0
 30
0.0
 11
0.499999999999999
 21
59.5
 31
0.0
  0
LINE
  5
5C
330
1E
100
AcDbEntity
  8
0
100
AcDbLine
 10
-0.0000000000000012
 20
60.0
 30
0.0
 11
26.0
 21
60.0
 31
0.0
  0
LINE
  5
5D
330
1E
100
AcDbEntity
  8
0
100
AcDbLine
 10
26.0
 20
55.0
 30
0.0
 11
26.0
 21
60.5
 31
0.0
  0
LINE
  5
5E
330
1E
100
AcDbEntity
  8
0
100
AcDbLine
 10
26.0
 20
55.0
 30
0.0
 11
26.0
 21
49.5
 31
0.0
  0
LINE
  5
5F
330
1E
100
AcDbEntity
  8
0
100
AcDbLine
 10
26.0
 20
60.0
 30
0.0
 11
26.0
 21
60.5
 31
0.0
  0
LINE
  5
60
330
1E
100
AcDbEntity
  8
0
100
AcDbLine
 10
26.0
 20
60.0
 30
0.0
 11
26.0
 21
59.5
 31
0.0
  0
LINE
  5
61
330
1E
100
AcDbEntity
  8
0
100
AcDbLine
 10
26.0
 20
76.5
 30
0.0
 11
26.0
 21
75.7
 31
0.0
  0
LINE
  5
62
330
1E
100
AcDbEntity
  8
0
100
AcDbLine
 10
26.0
 20
76.5
 30
0.0
 11
26.5
 21
77.0
 31
0.0
  0
LINE
  5
63
330
1E
100
AcDbEntity
  8
0
100
AcDbLine
 10
26.0
 20
75.7
 30
0.0
 11
26.0
 21
73.59999999999999
 31
0.0
  0
LINE
  5
64
330
1E
100
AcDbEntity
  8
0
100
AcDbLine
 10
26.0
 20
75.7
 30
0.0
 11
26.0
 21
76.5
 31
0.0
  0
LINE
  5
65
330
1E
100
AcDbEntity
  8
0
100
AcDbLine
 10
26.0
 20
73.59999999999999
 30
0.0
 11
26.0
 21
70.2
 31
0.0
  0
LINE
  5
66
330
1E
100
AcDbEntity
  8
0
100
AcDbLine
 10
26.0
 20
73.59999999999999
 30
0.0
 11
26.0
 21
75.7
 31
0.0
  0
LINE
  5
67
330
1E
100
AcDbEntity
  8
0
100
AcDbLine
 10
26.0
 20
70.2
 30
0.0
 11
26.0
 21
65.7
 31
0.0
  0
LINE
  5
68
330
1E
100
AcDbEntity
  8
0
100
AcDbLine
 10
26.0
 20
70.2
 30
0.0
 11
26.0
 21
73.59999999999999
 31
0.0
  0
LINE
  5
69
330
1E
100
AcDbEntity
  8
0
100
AcDbLine
 10
26.0
 20
65.7
 30
0.0
 11
26.0
 21
60.5
 31
0.0
  0
LINE
  5
6A
330
1E
100
AcDbEntity
  8
0
100
AcDbLine
 10
26.0
 20
65.7
 30
0.0
 11
26.0
 21
70.2
 31
0.0
  0
LINE
  5
6B
330
1E
100
AcDbEntity
  8
0
100
AcDbLine
 10
26.5
 20
76.2
 30
0.0
 11
26.5
 21
77.0
 31
0.0
  0
LINE
  5
6C
330
1E
100
AcDbEntity
  8
0
100
AcDbLine
 10
26.5
 20
76.2
 30
0.0
 11
26.5
 21
74.1
 31
0.0
  0
LINE
  5
6D
330
1E
100
AcDbEntity
  8
0
100
AcDbLine
 10
26.5
 20
74.1
 30
0.0
 11
26.5
 21
76.2
 31
0.0
  0
LINE
  5
6E
330
1E
100
AcDbEntity
  8
0
100
AcDbLine
 10
26.5
 20
74.1
 30
0.0
 11
26.5
 21
70.5
 31
0.0
  0
LINE
  5
6F
330
1E
100
AcDbEntity
  8
0
100
AcDbLine
 10
26.5
 20
70.5
 30
0.0
 11
26.5
 21
74.1
 31
0.0
  0
LINE
  5
70
330
1E
100
AcDbEntity
  8
0
100
AcDbLine
 10
26.5
 20
70.5
 30
0.0
 11
26.5
 21
65.9
 31
0.0
  0
LINE
  5
71
330
1E
100
AcDbEntity
  8
0
100
AcDbLine
 10
26.5
 20
65.9
 30
0.0
 11
26.5
 21
70.5
 31
0.0
  0
LINE
  5
72
330
1E
100
AcDbEntity
  8
0
100
AcDbLine
 10
26.5
 20
65.9
 30
0.0
 11
26.5
 21
60.7
 31
0.0
  0
LINE
  5
73
330
1E
100
AcDbEntity
  8
0
100
AcDbLine
 10
26.5
 20
60.7
 30
0.0
 11
26.5
 21
65.9
 31
0.0
  0
LINE
  5
74
330
1E
100
AcDbEntity
  8
0
100
AcDbLine
 10
26.5
 20
60.7
 30
0.0
 11
26.5
 21
55.0
 31
0.0
  0
LINE
  5
75
330
1E
100
AcDbEntity
  8
0
100
AcDbLine
 10
56.0
 20
76.2
 30
0.0
 11
56.0
 21
77.0
 31
0.0
  0
LINE
  5
76
330
1E
100
AcDbEntity
  8
0
100
AcDbLine
 10
56.0
 20
76.2
 30
0.0
 11
56.0
 21
75.25
 31
0.0
  0
LINE
  5
77
330
1E
100
AcDbEntity
  8
0
100
AcDbLine
 10
56.0
 20
75.25
 30
0.0
 11
57.0
 21
74.84999999999999
 31
0.0
  0
LINE
  5
78
330
1E
100
AcDbEntity
  8
0
100
AcDbLine
 10
56.0
 20
75.25
 30
0.0
 11
56.0
 21
76.2
 31
0.0
  0
LINE
  5
79
330
1E
100
AcDbEntity
  8
0
100
AcDbLine
 10
56.0
 20
75.25
 30
0.0
 11
57.5
 21
81.5
 31
0.0
  0
LINE
  5
7A
330
1E
100
AcDbEntity
  8
0
100
AcDbLine
 10
26.5
 20
55.0
 30
0.0
 11
26.5
 21
60.7
 31
0.0
  0
LINE
  5
7B
330
1E
100
AcDbEntity
  8
0
100
AcDbLine
 10
26.5
 20
55.0
 30
0.0
 11
26.5
 21
49.29999999999999
 31
0.0
  0
LINE
  5
7C
330
1E
100
AcDbEntity
  8
0
100
AcDbLine
 10
26.5
 20
77.0
 30
0.0
 11
56.0
 21
77.0
 31
0.0
  0
LINE
  5
7D
330
1E
100
AcDbEntity
  8
0
100
AcDbLine
 10
26.5
 20
77.0
 30
0.0
 11
26.5
 21
76.2
 31
0.0
  0
LINE
  5
7E
330
1E
100
AcDbEntity
  8
0
100
AcDbLine
 10
58.0
 20
81.5
 30
0.0
 11
58.0
 21
82.0
 31
0.0
  0
LINE
  5
7F
330
1E
100
AcDbEntity
  8
0
100
AcDbLine
 10
58.0
 20
82.0
 30
0.0
 11
66.5
 21
82.0
 31
0.0
  0
LINE
  5
80
330
1E
100
AcDbEntity
  8
0
100
AcDbLine
 10
58.0
 20
82.0
 30
0.0
 11
58.0
 21
81.5
 31
0.0
  0
LINE
  5
81
330
1E
100
AcDbEntity
  8
0
100
AcDbLine
 10
58.0
 20
82.0
 30
0.0
 11
58.0
 21
83.0
 31
0.0
  0
LINE
  5
82
330
1E
100
AcDbEntity
  8
0
100
AcDbLine
 10
57.0
 20
74.84999999999999
 30
0.0
 11
66.0
 21
74.84999999999999
 31
0.0
  0
LINE
  5
83
330
1E
100
AcDbEntity
  8
0
100
AcDbLine
 10
57.0
 20
74.84999999999999
 30
0.0
 11
58.0
 21
81.5
 31
0.0
  0
LINE
  5
84
330
1E
100
AcDbEntity
  8
0
100
AcDbLine
 10
56.0
 20
77.0
 30
0.0
 11
57.5
 21
82.5
 31
0.0
  0
LINE
  5
85
330
1E
100
AcDbEntity
  8
0
100
AcDbLine
 10
56.0
 20
77.0
 30
0.0
 11
56.0
 21
76.2
 31
0.0
  0
LINE
  5
86
330
1E
100
AcDbEntity
  8
0
100
AcDbLine
 10
39.0
 20
115.9
 30
0.0
 11
39.0
 21
117.3
 31
0.0
  0
LINE
  5
87
330
1E
100
AcDbEntity
  8
0
100
AcDbLine
 10
39.0
 20
115.9
 30
0.0
 11
39.0
 21
115.5
 31
0.0
  0
LINE
  5
88
330
1E
100
AcDbEntity
  8
0
100
AcDbLine
 10
39.0
 20
115.5
 30
0.0
 11
39.4667
 21
114.5
 31
0.0
  0
LINE
  5
89
330
1E
100
AcDbEntity
  8
0
100
AcDbLine
 10
39.0
 20
115.5
 30
0.0
 11
39.0
 21
115.9
 31
0.0
  0
LINE
  5
8A
330
1E
100
AcDbEntity
  8
0
100
AcDbLine
 10
39.0
 20
117.3
 30
0.0
 11
39.0
 21
119.4
 31
0.0
  0
LINE
  5
8B
330
1E
100
AcDbEntity
  8
0
100
AcDbLine
 10
39.0
 20
117.3
 30
0.0
 11
39.0
 21
115.9
 31
0.0
  0
LINE
  5
8C
330
1E
100
AcDbEntity
  8
0
100
AcDbLine
 10
39.0
 20
129.0
 30
0.0
 11
39.0
 21
132.4999999999999
 31
0.0
  0
LINE
  5
8D
330
1E
100
AcDbEntity
  8
0
100
AcDbLine
 10
39.0
 20
129.0
 30
0.0
 11
39.0
 21
125.5
 31
0.0
  0
LINE
  5
8E
330
1E
100
AcDbEntity
  8
0
100
AcDbLine
 10
39.0
 20
132.4999999999999
 30
0.0
 11
39.0
 21
135.8
 31
0.0
  0
LINE
  5
8F
330
1E
100
AcDbEntity
  8
0
100
AcDbLine
 10
39.0
 20
132.4999999999999
 30
0.0
 11
39.0
 21
129.0
 31
0.0
  0
LINE
  5
90
330
1E
100
AcDbEntity
  8
0
100
AcDbLine
 10
39.0
 20
122.1999999999999
 30
0.0
 11
39.0
 21
125.5
 31
0.0
  0
LINE
  5
91
330
1E
100
AcDbEntity
  8
0
100
AcDbLine
 10
39.0
 20
122.1999999999999
 30
0.0
 11
39.0
 21
119.4
 31
0.0
  0
LINE
  5
92
330
1E
100
AcDbEntity
  8
0
100
AcDbLine
 10
39.0
 20
125.5
 30
0.0
 11
39.0
 21
129.0
 31
0.0
  0
LINE
  5
93
330
1E
100
AcDbEntity
  8
0
100
AcDbLine
 10
39.0
 20
125.5
 30
0.0
 11
39.0
 21
122.1999999999999
 31
0.0
  0
LINE
  5
94
330
1E
100
AcDbEntity
  8
0
100
AcDbLine
 10
39.0
 20
119.4
 30
0.0
 11
39.0
 21
117.3
 31
0.0
  0
LINE
  5
95
330
1E
100
AcDbEntity
  8
0
100
AcDbLine
 10
39.0
 20
119.4
 30
0.0
 11
39.0
 21
122.1999999999999
 31
0.0
  0
LINE
  5
96
330
1E
100
AcDbEntity
  8
0
100
AcDbLine
 10
39.4667
 20
115.0
 30
0.0
 11
39.4667
 21
116.4
 31
0.0
  0
LINE
  5
97
330
1E
100
AcDbEntity
  8
0
100
AcDbLine
 10
39.4667
 20
115.0
 30
0.0
 11
39.4667
 21
114.5
 31
0.0
  0
LINE
  5
98
330
1E
100
AcDbEntity
  8
0
100
AcDbLine
 10
39.4667
 20
129.0
 30
0.0
 11
39.4667
 21
132.8
 31
0.0
  0
LINE
  5
99
330
1E
100
AcDbEntity
  8
0
100
AcDbLine
 10
39.4667
 20
129.0
 30
0.0
 11
39.4667
 21
125.2
 31
0.0
  0
LINE
  5
9A
330
1E
100
AcDbEntity
  8
0
100
AcDbLine
 10
39.4667
 20
125.2
 30
0.0
 11
39.4667
 21
121.7
 31
0.0
  0
LINE
  5
9B
330
1E
100
AcDbEntity
  8
0
100
AcDbLine
 10
39.4667
 20
125.2
 30
0.0
 11
39.4667
 21
129.0
 31
0.0
  0
LINE
  5
9C
330
1E
100
AcDbEntity
  8
0
100
AcDbLine
 10
39.4667
 20
121.7
 30
0.0
 11
39.4667
 21
125.2
 31
0.0
  0
LINE
  5
9D
330
1E
100
AcDbEntity
  8
0
100
AcDbLine
 10
39.4667
 20
121.7
 30
0.0
 11
39.4667
 21
118.7
 31
0.0
  0
LINE
  5
9E
330
1E
100
AcDbEntity
  8
0
100
AcDbLine
 10
39.4667
 20
118.7
 30
0.0
 11
39.4667
 21
121.7
 31
0.0
  0
LINE
  5
9F
330
1E
100
AcDbEntity
  8
0
100
AcDbLine
 10
39.4667
 20
118.7
 30
0.0
 11
39.4667
 21
116.4
 31
0.0
  0
LINE
  5
A0
330
1E
100
AcDbEntity
  8
0
100
AcDbLine
 10
39.4667
 20
116.4
 30
0.0
 11
39.4667
 21
115.0
 31
0.0
  0
LINE
  5
A1
330
1E
100
AcDbEntity
  8
0
100
AcDbLine
 10
39.4667
 20
116.4
 30
0.0
 11
39.4667
 21
118.7
 31
0.0
  0
LINE
  5
A2
330
1E
100
AcDbEntity
  8
0
100
AcDbLine
 10
39.4667
 20
132.8
 30
0.0
 11
39.4667
 21
136.3
 31
0.0
  0
LINE
  5
A3
330
1E
100
AcDbEntity
  8
0
100
AcDbLine
 10
39.4667
 20
136.3
 30
0.0
 11
39.4667
 21
132.8
 31
0.0
  0
LINE
  5
A4
330
1E
100
AcDbEntity
  8
0
100
AcDbLine
 10
39.4667
 20
136.3
 30
0.0
 11
39.4667
 21
139.3
 31
0.0
  0
LINE
  5
A5
330
1E
100
AcDbEntity
  8
0
100
AcDbLine
 10
39.4667
 20
114.5
 30
0.0
 11
40.4
 21
114.0
 31
0.0
  0
LINE
  5
A6
330
1E
100
AcDbEntity
  8
0
100
AcDbLine
 10
39.4667
 20
114.5
 30
0.0
 11
39.4667
 21
115.0
 31
0.0
  0
LINE
  5
A7
330
1E
100
AcDbEntity
  8
0
100
AcDbLine
 10
40.4
 20
114.0
 30
0.0
 11
71.2
 21
114.0
 31
0.0
  0
LINE
  5
A8
330
1E
100
AcDbEntity
  8
0
100
AcDbLine
 10
39.0
 20
135.8
 30
0.0
 11
39.0
 21
138.5999999999999
 31
0.0
  0
LINE
  5
A9
330
1E
100
AcDbEntity
  8
0
100
AcDbLine
 10
39.0
 20
135.8
 30
0.0
 11
39.0
 21
132.4999999999999
 31
0.0
  0
LINE
  5
AA
330
1E
100
AcDbEntity
  8
0
100
AcDbLine
 10
39.0
 20
142.5
 30
0.0
 11
39.4667
 21
143.5
 31
0.0
  0
LINE
  5
AB
330
1E
100
AcDbEntity
  8
0
100
AcDbLine
 10
39.0
 20
142.5
 30
0.0
 11
39.0
 21
142.1
 31
0.0
  0
LINE
  5
AC
330
1E
100
AcDbEntity
  8
0
100
AcDbLine
 10
39.0
 20
140.6999999999999
 30
0.0
 11
39.0
 21
142.1
 31
0.0
  0
LINE
  5
AD
330
1E
100
AcDbEntity
  8
0
100
AcDbLine
 10
39.0
 20
140.6999999999999
 30
0.0
 11
39.0
 21
138.5999999999999
 31
0.0
  0
LINE
  5
AE
330
1E
100
AcDbEntity
  8
0
100
AcDbLine
 10
39.4667
 20
139.3
 30
0.0
 11
39.4667
 21
141.5999999999999
 31
0.0
  0
LINE
  5
AF
330
1E
100
AcDbEntity
  8
0
100
AcDbLine
 10
39.4667
 20
139.3
 30
0.0
 11
39.4667
 21
136.3
 31
0.0
  0
LINE
  5
B0
330
1E
100
AcDbEntity
  8
0
100
AcDbLine
 10
39.4667
 20
143.0
 30
0.0
 11
39.4667
 21
141.5999999999999
 31
0.0
  0
LINE
  5
B1
330
1E
100
AcDbEntity
  8
0
100
AcDbLine
 10
39.4667
 20
143.0
 30
0.0
 11
39.4667
 21
143.5
 31
0.0
  0
LINE
  5
B2
330
1E
100
AcDbEntity
  8
0
100
AcDbLine
 10
39.4667
 20
141.5999999999999
 30
0.0
 11
39.4667
 21
143.0
 31
0.0
  0
LINE
  5
B3
330
1E
100
AcDbEntity
  8
0
100
AcDbLine
 10
39.4667
 20
141.5999999999999
 30
0.0
 11
39.4667
 21
139.3
 31
0.0
  0
LINE
  5
B4
330
1E
100
AcDbEntity
  8
0
100
AcDbLine
 10
40.4
 20
144.0
 30
0.0
 11
47.0
 21
144.0
 31
0.0
  0
LINE
  5
B5
330
1E
100
AcDbEntity
  8
0
100
AcDbLine
 10
39.4667
 20
143.5
 30
0.0
 11
40.4
 21
144.0
 31
0.0
  0
LINE
  5
B6
330
1E
100
AcDbEntity
  8
0
100
AcDbLine
 10
39.4667
 20
143.5
 30
0.0
 11
39.4667
 21
143.0
 31
0.0
  0
LINE
  5
B7
330
1E
100
AcDbEntity
  8
0
100
AcDbLine
 10
39.0
 20
142.1
 30
0.0
 11
39.0
 21
140.6999999999999
 31
0.0
  0
LINE
  5
B8
330
1E
100
AcDbEntity
  8
0
100
AcDbLine
 10
39.0
 20
142.1
 30
0.0
 11
39.0
 21
142.5
 31
0.0
  0
LINE
  5
B9
330
1E
100
AcDbEntity
  8
0
100
AcDbLine
 10
39.0
 20
138.5999999999999
 30
0.0
 11
39.0
 21
135.8
 31
0.0
  0
LINE
  5
BA
330
1E
100
AcDbEntity
  8
0
100
AcDbLine
 10
39.0
 20
138.5999999999999
 30
0.0
 11
39.0
 21
140.6999999999999
 31
0.0
  0
LINE
  5
BB
330
1E
100
AcDbEntity
  8
0
100
AcDbLine
 10
47.0
 20
144.0
 30
0.0
 11
47.0
 21
146.65
 31
0.0
  0
LINE
  5
BC
330
1E
100
AcDbEntity
  8
0
100
AcDbLine
 10
48.4933
 20
146.9
 30
0.0
 11
49.0
 21
146.9
 31
0.0
  0
LINE
  5
BD
330
1E
100
AcDbEntity
  8
0
100
AcDbLine
 10
48.02
 20
146.9
 30
0.0
 11
48.4933
 21
146.9
 31
0.0
  0
LINE
  5
BE
330
1E
100
AcDbEntity
  8
0
100
AcDbLine
 10
47.6133
 20
146.9
 30
0.0
 11
48.02
 21
146.9
 31
0.0
  0
LINE
  5
BF
330
1E
100
AcDbEntity
  8
0
100
AcDbLine
 10
47.29999999999999
 20
146.9
 30
0.0
 11
47.6133
 21
146.9
 31
0.0
  0
LINE
  5
C0
330
1E
100
AcDbEntity
  8
0
100
AcDbLine
 10
47.10669999999999
 20
146.9
 30
0.0
 11
47.29999999999999
 21
146.9
 31
0.0
  0
LINE
  5
C1
330
1E
100
AcDbEntity
  8
0
100
AcDbLine
 10
47.0333
 20
146.9
 30
0.0
 11
49.0
 21
147.0
 31
0.0
  0
LINE
  5
C2
330
1E
100
AcDbEntity
  8
0
100
AcDbLine
 10
47.0333
 20
146.9
 30
0.0
 11
47.10669999999999
 21
146.9
 31
0.0
  0
LINE
  5
C3
330
1E
100
AcDbEntity
  8
0
100
AcDbLine
 10
47.0
 20
146.65
 30
0.0
 11
47.0333
 21
146.9
 31
0.0
  0
LINE
  5
C4
330
1E
100
AcDbEntity
  8
0
100
AcDbLine
 10
47.0
 20
146.65
 30
0.0
 11
47.0
 21
144.0
 31
0.0
  0
LINE
  5
C5
330
1E
100
AcDbEntity
  8
0
100
AcDbLine
 10
49.0
 20
146.9
 30
0.0
 11
49.5067
 21
146.9
 31
0.0
  0
LINE
  5
C6
330
1E
100
AcDbEntity
  8
0
100
AcDbLine
 10
49.5067
 20
146.9
 30
0.0
 11
49.98
 21
146.9
 31
0.0
  0
LINE
  5
C7
330
1E
100
AcDbEntity
  8
0
100
AcDbLine
 10
49.98
 20
146.9
 30
0.0
 11
50.38669999999999
 21
146.9
 31
0.0
  0
LINE
  5
C8
330
1E
100
AcDbEntity
  8
0
100
AcDbLine
 10
50.38669999999999
 20
146.9
 30
0.0
 11
50.7
 21
146.9
 31
0.0
  0
LINE
  5
C9
330
1E
100
AcDbEntity
  8
0
100
AcDbLine
 10
50.7
 20
146.9
 30
0.0
 11
50.8933
 21
146.9
 31
0.0
  0
LINE
  5
CA
330
1E
100
AcDbEntity
  8
0
100
AcDbLine
 10
49.0
 20
147.0
 30
0.0
 11
50.9667
 21
146.9
 31
0.0
  0
LINE
  5
CB
330
1E
100
AcDbEntity
  8
0
100
AcDbLine
 10
50.8933
 20
146.9
 30
0.0
 11
50.9667
 21
146.9
 31
0.0
  0
LINE
  5
CC
330
1E
100
AcDbEntity
  8
0
100
AcDbLine
 10
51.0
 20
146.65
 30
0.0
 11
51.0
 21
144.0
 31
0.0
  0
LINE
  5
CD
330
1E
100
AcDbEntity
  8
0
100
AcDbLine
 10
50.9667
 20
146.9
 30
0.0
 11
51.0
 21
146.65
 31
0.0
  0
LINE
  5
CE
330
1E
100
AcDbEntity
  8
0
100
AcDbLine
 10
51.0
 20
144.0
 30
0.0
 11
51.0
 21
146.65
 31
0.0
  0
LINE
  5
CF
330
1E
100
AcDbEntity
  8
0
100
AcDbLine
 10
51.0
 20
144.0
 30
0.0
 11
71.2
 21
144.0
 31
0.0
  0
LINE
  5
D0
330
1E
100
AcDbEntity
  8
0
100
AcDbLine
 10
58.0
 20
83.0
 30
0.0
 11
59.00004996752111
 21
83.0
 31
0.0
  0
LINE
  5
D1
330
1E
100
AcDbEntity
  8
0
100
AcDbLine
 10
58.0
 20
83.0
 30
0.0
 11
58.0
 21
82.0
 31
0.0
  0
LINE
  5
D2
330
1E
100
AcDbEntity
  8
0
100
AcDbLine
 10
58.0
 20
83.0
 30
0.0
 11
59.00004996752111
 21
83.0
 31
0.0
  0
LINE
  5
D3
330
1E
100
AcDbEntity
  8
0
100
AcDbLine
 10
57.5
 20
82.5
 30
0.0
 11
58.0
 21
83.0
 31
0.0
  0
LINE
  5
D4
330
1E
100
AcDbEntity
  8
0
100
AcDbLine
 10
26.0
 20
60.5
 30
0.0
 11
26.0
 21
60.0
 31
0.0
  0
LINE
  5
D5
330
1E
100
AcDbEntity
  8
0
100
AcDbLine
 10
26.0
 20
60.5
 30
0.0
 11
26.0
 21
65.7
 31
0.0
  0
LINE
  5
D6
330
1E
100
AcDbEntity
  8
0
100
AcDbLine
 10
26.0
 20
60.5
 30
0.0
 11
26.0
 21
55.0
 31
0.0
  0
LINE
  5
D7
330
1E
100
AcDbEntity
  8
0
100
AcDbLine
 10
26.0
 20
50.0
 30
0.0
 11
26.0
 21
49.5
 31
0.0
  0
LINE
  5
D8
330
1E
100
AcDbEntity
  8
0
100
AcDbLine
 10
66.0
 20
27.5
 30
0.0
 11
66.0
 21
28.5
 31
0.0
  0
LINE
  5
D9
330
1E
100
AcDbEntity
  8
0
100
AcDbLine
 10
66.0
 20
27.5
 30
0.0
 11
66.5
 21
27.0
 31
0.0
  0
LINE
  5
DA
330
1E
100
AcDbEntity
  8
0
100
AcDbLine
 10
66.0
 20
28.5
 30
0.0
 11
66.0
 21
27.5
 31
0.0
  0
LINE
  5
DB
330
1E
100
AcDbEntity
  8
0
100
AcDbLine
 10
66.0
 20
28.5
 30
0.0
 11
66.0
 21
31.2
 31
0.0
  0
LINE
  5
DC
330
1E
100
AcDbEntity
  8
0
100
AcDbLine
 10
66.0
 20
35.6
 30
0.0
 11
66.0
 21
41.29999999999999
 31
0.0
  0
LINE
  5
DD
330
1E
100
AcDbEntity
  8
0
100
AcDbLine
 10
66.0
 20
35.6
 30
0.0
 11
66.0
 21
31.2
 31
0.0
  0
LINE
  5
DE
330
1E
100
AcDbEntity
  8
0
100
AcDbLine
 10
66.0
 20
33.79999999999999
 30
0.0
 11
66.0
 21
35.89999999999999
 31
0.0
  0
LINE
  5
DF
330
1E
100
AcDbEntity
  8
0
100
AcDbLine
 10
66.0
 20
33.79999999999999
 30
0.0
 11
66.0
 21
33.0
 31
0.0
  0
LINE
  5
E0
330
1E
100
AcDbEntity
  8
0
100
AcDbLine
 10
66.0
 20
35.89999999999999
 30
0.0
 11
66.0
 21
39.5
 31
0.0
  0
LINE
  5
E1
330
1E
100
AcDbEntity
  8
0
100
AcDbLine
 10
66.0
 20
35.89999999999999
 30
0.0
 11
66.0
 21
33.79999999999999
 31
0.0
  0
LINE
  5
E2
330
1E
100
AcDbEntity
  8
0
100
AcDbLine
 10
66.0
 20
49.29999999999999
 30
0.0
 11
66.0
 21
44.1
 31
0.0
  0
LINE
  5
E3
330
1E
100
AcDbEntity
  8
0
100
AcDbLine
 10
66.0
 20
41.29999999999999
 30
0.0
 11
66.0
 21
47.9
 31
0.0
  0
LINE
  5
E4
330
1E
100
AcDbEntity
  8
0
100
AcDbLine
 10
66.0
 20
41.29999999999999
 30
0.0
 11
66.0
 21
35.6
 31
0.0
  0
LINE
  5
E5
330
1E
100
AcDbEntity
  8
0
100
AcDbLine
 10
66.0
 20
47.9
 30
0.0
 11
66.0
 21
55.0
 31
0.0
  0
LINE
  5
E6
330
1E
100
AcDbEntity
  8
0
100
AcDbLine
 10
66.0
 20
47.9
 30
0.0
 11
66.0
 21
41.29999999999999
 31
0.0
  0
LINE
  5
E7
330
1E
100
AcDbEntity
  8
0
100
AcDbLine
 10
66.0
 20
39.5
 30
0.0
 11
66.0
 21
44.1
 31
0.0
  0
LINE
  5
E8
330
1E
100
AcDbEntity
  8
0
100
AcDbLine
 10
66.0
 20
39.5
 30
0.0
 11
66.0
 21
35.89999999999999
 31
0.0
  0
LINE
  5
E9
330
1E
100
AcDbEntity
  8
0
100
AcDbLine
 10
66.0
 20
44.1
 30
0.0
 11
66.0
 21
49.29999999999999
 31
0.0
  0
LINE
  5
EA
330
1E
100
AcDbEntity
  8
0
100
AcDbLine
 10
66.0
 20
44.1
 30
0.0
 11
66.0
 21
39.5
 31
0.0
  0
LINE
  5
EB
330
1E
100
AcDbEntity
  8
0
100
AcDbLine
 10
66.0
 20
31.2
 30
0.0
 11
66.0
 21
28.5
 31
0.0
  0
LINE
  5
EC
330
1E
100
AcDbEntity
  8
0
100
AcDbLine
 10
66.0
 20
31.2
 30
0.0
 11
66.0
 21
33.0
 31
0.0
  0
LINE
  5
ED
330
1E
100
AcDbEntity
  8
0
100
AcDbLine
 10
66.0
 20
31.2
 30
0.0
 11
66.0
 21
35.6
 31
0.0
  0
LINE
  5
EE
330
1E
100
AcDbEntity
  8
0
100
AcDbLine
 10
66.0
 20
74.84999999999999
 30
0.0
 11
66.0
 21
81.5
 31
0.0
  0
LINE
  5
EF
330
1E
100
AcDbEntity
  8
0
100
AcDbLine
 10
66.0
 20
74.84999999999999
 30
0.0
 11
66.0
 21
74.1
 31
0.0
  0
LINE
  5
F0
330
1E
100
AcDbEntity
  8
0
100
AcDbLine
 10
66.0
 20
81.5
 30
0.0
 11
66.0
 21
78.79999999999999
 31
0.0
  0
LINE
  5
F1
330
1E
100
AcDbEntity
  8
0
100
AcDbLine
 10
66.0
 20
81.5
 30
0.0
 11
66.5
 21
82.0
 31
0.0
  0
LINE
  5
F2
330
1E
100
AcDbEntity
  8
0
100
AcDbLine
 10
66.0
 20
81.5
 30
0.0
 11
66.0
 21
74.84999999999999
 31
0.0
  0
LINE
  5
F3
330
1E
100
AcDbEntity
  8
0
100
AcDbLine
 10
66.0
 20
78.79999999999999
 30
0.0
 11
66.0
 21
81.5
 31
0.0
  0
LINE
  5
F4
330
1E
100
AcDbEntity
  8
0
100
AcDbLine
 10
66.0
 20
78.79999999999999
 30
0.0
 11
66.0
 21
74.40000000000001
 31
0.0
  0
LINE
  5
F5
330
1E
100
AcDbEntity
  8
0
100
AcDbLine
 10
66.0
 20
74.40000000000001
 30
0.0
 11
66.0
 21
78.79999999999999
 31
0.0
  0
LINE
  5
F6
330
1E
100
AcDbEntity
  8
0
100
AcDbLine
 10
66.0
 20
74.40000000000001
 30
0.0
 11
66.0
 21
68.7
 31
0.0
  0
LINE
  5
F7
330
1E
100
AcDbEntity
  8
0
100
AcDbLine
 10
66.0
 20
74.1
 30
0.0
 11
66.0
 21
70.5
 31
0.0
  0
LINE
  5
F8
330
1E
100
AcDbEntity
  8
0
100
AcDbLine
 10
66.0
 20
74.1
 30
0.0
 11
66.0
 21
74.84999999999999
 31
0.0
  0
LINE
  5
F9
330
1E
100
AcDbEntity
  8
0
100
AcDbLine
 10
66.0
 20
68.7
 30
0.0
 11
66.0
 21
74.40000000000001
 31
0.0
  0
LINE
  5
FA
330
1E
100
AcDbEntity
  8
0
100
AcDbLine
 10
66.0
 20
68.7
 30
0.0
 11
66.0
 21
62.1
 31
0.0
  0
LINE
  5
FB
330
1E
100
AcDbEntity
  8
0
100
AcDbLine
 10
66.0
 20
70.5
 30
0.0
 11
66.0
 21
65.9
 31
0.0
  0
LINE
  5
FC
330
1E
100
AcDbEntity
  8
0
100
AcDbLine
 10
66.0
 20
70.5
 30
0.0
 11
66.0
 21
74.1
 31
0.0
  0
LINE
  5
FD
330
1E
100
AcDbEntity
  8
0
100
AcDbLine
 10
66.0
 20
62.1
 30
0.0
 11
66.0
 21
68.7
 31
0.0
  0
LINE
  5
FE
330
1E
100
AcDbEntity
  8
0
100
AcDbLine
 10
66.0
 20
62.1
 30
0.0
 11
66.0
 21
55.0
 31
0.0
  0
LINE
  5
FF
330
1E
100
AcDbEntity
  8
0
100
AcDbLine
 10
66.0
 20
65.9
 30
0.0
 11
66.0
 21
70.5
 31
0.0
  0
LINE
  5
100
330
1E
100
AcDbEntity
  8
0
100
AcDbLine
 10
66.0
 20
65.9
 30
0.0
 11
66.0
 21
60.7
 31
0.0
  0
LINE
  5
101
330
1E
100
AcDbEntity
  8
0
100
AcDbLine
 10
66.0
 20
60.7
 30
0.0
 11
66.0
 21
65.9
 31
0.0
  0
LINE
  5
102
330
1E
100
AcDbEntity
  8
0
100
AcDbLine
 10
66.0
 20
60.7
 30
0.0
 11
66.0
 21
55.0
 31
0.0
  0
LINE
  5
103
330
1E
100
AcDbEntity
  8
0
100
AcDbLine
 10
66.5
 20
28.0
 30
0.0
 11
66.5
 21
30.7
 31
0.0
  0
LINE
  5
104
330
1E
100
AcDbEntity
  8
0
100
AcDbLine
 10
66.5
 20
28.0
 30
0.0
 11
66.5
 21
27.0
 31
0.0
  0
LINE
  5
105
330
1E
100
AcDbEntity
  8
0
100
AcDbLine
 10
66.5
 20
30.7
 30
0.0
 11
66.5
 21
35.2
 31
0.0
  0
LINE
  5
106
330
1E
100
AcDbEntity
  8
0
100
AcDbLine
 10
66.5
 20
30.7
 30
0.0
 11
66.5
 21
28.0
 31
0.0
  0
LINE
  5
107
330
1E
100
AcDbEntity
  8
0
100
AcDbLine
 10
66.5
 20
35.2
 30
0.0
 11
66.5
 21
41.1
 31
0.0
  0
LINE
  5
108
330
1E
100
AcDbEntity
  8
0
100
AcDbLine
 10
66.5
 20
35.2
 30
0.0
 11
66.5
 21
30.7
 31
0.0
  0
LINE
  5
109
330
1E
100
AcDbEntity
  8
0
100
AcDbLine
 10
66.5
 20
41.1
 30
0.0
 11
66.5
 21
47.8
 31
0.0
  0
LINE
  5
10A
330
1E
100
AcDbEntity
  8
0
100
AcDbLine
 10
66.5
 20
41.1
 30
0.0
 11
66.5
 21
35.2
 31
0.0
  0
LINE
  5
10B
330
1E
100
AcDbEntity
  8
0
100
AcDbLine
 10
66.5
 20
47.8
 30
0.0
 11
66.5
 21
55.0
 31
0.0
  0
LINE
  5
10C
330
1E
100
AcDbEntity
  8
0
100
AcDbLine
 10
66.5
 20
47.8
 30
0.0
 11
66.5
 21
41.1
 31
0.0
  0
LINE
  5
10D
330
1E
100
AcDbEntity
  8
0
100
AcDbLine
 10
66.5
 20
82.0
 30
0.0
 11
66.5
 21
79.29999999999999
 31
0.0
  0
LINE
  5
10E
330
1E
100
AcDbEntity
  8
0
100
AcDbLine
 10
66.5
 20
79.29999999999999
 30
0.0
 11
66.5
 21
82.0
 31
0.0
  0
LINE
  5
10F
330
1E
100
AcDbEntity
  8
0
100
AcDbLine
 10
66.5
 20
79.29999999999999
 30
0.0
 11
66.5
 21
74.8
 31
0.0
  0
LINE
  5
110
330
1E
100
AcDbEntity
  8
0
100
AcDbLine
 10
66.5
 20
74.8
 30
0.0
 11
66.5
 21
79.29999999999999
 31
0.0
  0
LINE
  5
111
330
1E
100
AcDbEntity
  8
0
100
AcDbLine
 10
66.5
 20
74.8
 30
0.0
 11
66.5
 21
68.9
 31
0.0
  0
LINE
  5
112
330
1E
100
AcDbEntity
  8
0
100
AcDbLine
 10
66.5
 20
68.9
 30
0.0
 11
66.5
 21
74.8
 31
0.0
  0
LINE
  5
113
330
1E
100
AcDbEntity
  8
0
100
AcDbLine
 10
66.5
 20
68.9
 30
0.0
 11
66.5
 21
62.2
 31
0.0
  0
LINE
  5
114
330
1E
100
AcDbEntity
  8
0
100
AcDbLine
 10
66.5
 20
62.2
 30
0.0
 11
66.5
 21
68.9
 31
0.0
  0
LINE
  5
115
330
1E
100
AcDbEntity
  8
0
100
AcDbLine
 10
66.5
 20
62.2
 30
0.0
 11
66.5
 21
55.0
 31
0.0
  0
LINE
  5
116
330
1E
100
AcDbEntity
  8
0
100
AcDbLine
 10
66.5
 20
55.0
 30
0.0
 11
66.5
 21
62.2
 31
0.0
  0
LINE
  5
117
330
1E
100
AcDbEntity
  8
0
100
AcDbLine
 10
66.5
 20
55.0
 30
0.0
 11
66.5
 21
47.8
 31
0.0
  0
LINE
  5
118
330
1E
100
AcDbEntity
  8
0
100
AcDbLine
 10
66.0
 20
55.0
 30
0.0
 11
66.0
 21
60.7
 31
0.0
  0
LINE
  5
119
330
1E
100
AcDbEntity
  8
0
100
AcDbLine
 10
66.0
 20
55.0
 30
0.0
 11
66.0
 21
62.1
 31
0.0
  0
LINE
  5
11A
330
1E
100
AcDbEntity
  8
0
100
AcDbLine
 10
66.5
 20
27.0
 30
0.0
 11
76.0
 21
27.0
 31
0.0
  0
LINE
  5
11B
330
1E
100
AcDbEntity
  8
0
100
AcDbLine
 10
66.5
 20
27.0
 30
0.0
 11
66.5
 21
28.0
 31
0.0
  0
LINE
  5
11C
330
1E
100
AcDbEntity
  8
0
100
AcDbLine
 10
66.0
 20
33.0
 30
0.0
 11
66.0
 21
31.2
 31
0.0
  0
LINE
  5
11D
330
1E
100
AcDbEntity
  8
0
100
AcDbLine
 10
66.0
 20
33.0
 30
0.0
 11
66.0
 21
33.79999999999999
 31
0.0
  0
LINE
  5
11E
330
1E
100
AcDbEntity
  8
0
100
AcDbLine
 10
67.0
 20
83.0
 30
0.0
 11
67.0
 21
84.0013
 31
0.0
  0
LINE
  5
11F
330
1E
100
AcDbEntity
  8
0
100
AcDbLine
 10
67.0
 20
83.0
 30
0.0
 11
76.0
 21
83.0
 31
0.0
  0
LINE
  5
120
330
1E
100
AcDbEntity
  8
0
100
AcDbLine
 10
76.0
 20
27.0
 30
0.0
 11
76.0
 21
28.0
 31
0.0
  0
LINE
  5
121
330
1E
100
AcDbEntity
  8
0
100
AcDbLine
 10
76.0
 20
28.0
 30
0.0
 11
76.0
 21
30.7
 31
0.0
  0
LINE
  5
122
330
1E
100
AcDbEntity
  8
0
100
AcDbLine
 10
76.0
 20
28.0
 30
0.0
 11
76.0
 21
27.0
 31
0.0
  0
LINE
  5
123
330
1E
100
AcDbEntity
  8
0
100
AcDbLine
 10
83.0
 20
7.0
 30
0.0
 11
96.0
 21
6.99999999999999
 31
0.0
  0
LINE
  5
124
330
1E
100
AcDbEntity
  8
0
100
AcDbLine
 10
83.0
 20
7.5
 30
0.0
 11
96.0
 21
7.49999999999999
 31
0.0
  0
LINE
  5
125
330
1E
100
AcDbEntity
  8
0
100
AcDbLine
 10
96.0
 20
7.49999999999999
 30
0.0
 11
96.0
 21
6.99999999999999
 31
0.0
  0
LINE
  5
126
330
1E
100
AcDbEntity
  8
0
100
AcDbLine
 10
96.0
 20
7.49999999999999
 30
0.0
 11
96.0
 21
8.999999999999991
 31
0.0
  0
LINE
  5
127
330
1E
100
AcDbEntity
  8
0
100
AcDbLine
 10
81.0
 20
9.0
 30
0.0
 11
81.0
 21
92.0
 31
0.0
  0
LINE
  5
128
330
1E
100
AcDbEntity
  8
0
100
AcDbLine
 10
81.0
 20
9.0
 30
0.0
 11
81.5
 21
7.5
 31
0.0
  0
LINE
  5
129
330
1E
100
AcDbEntity
  8
0
100
AcDbLine
 10
81.5
 20
9.0
 30
0.0
 11
81.5
 21
8.0
 31
0.0
  0
LINE
  5
12A
330
1E
100
AcDbEntity
  8
0
100
AcDbLine
 10
81.5
 20
9.0
 30
0.0
 11
81.5
 21
92.0
 31
0.0
  0
LINE
  5
12B
330
1E
100
AcDbEntity
  8
0
100
AcDbLine
 10
81.5
 20
8.0
 30
0.0
 11
83.0
 21
7.5
 31
0.0
  0
LINE
  5
12C
330
1E
100
AcDbEntity
  8
0
100
AcDbLine
 10
81.5
 20
8.0
 30
0.0
 11
81.5
 21
7.5
 31
0.0
  0
LINE
  5
12D
330
1E
100
AcDbEntity
  8
0
100
AcDbLine
 10
81.5
 20
8.0
 30
0.0
 11
81.5
 21
9.0
 31
0.0
  0
LINE
  5
12E
330
1E
100
AcDbEntity
  8
0
100
AcDbLine
 10
81.5
 20
7.5
 30
0.0
 11
83.0
 21
7.0
 31
0.0
  0
LINE
  5
12F
330
1E
100
AcDbEntity
  8
0
100
AcDbLine
 10
81.5
 20
7.5
 30
0.0
 11
81.5
 21
8.0
 31
0.0
  0
LINE
  5
130
330
1E
100
AcDbEntity
  8
0
100
AcDbLine
 10
96.0
 20
9.0
 30
0.0
 11
96.0
 21
92.0
 31
0.0
  0
LINE
  5
131
330
1E
100
AcDbEntity
  8
0
100
AcDbLine
 10
96.0
 20
6.99999999999999
 30
0.0
 11
96.0
 21
7.49999999999999
 31
0.0
  0
LINE
  5
132
330
1E
100
AcDbEntity
  8
0
100
AcDbLine
 10
96.0
 20
8.999999999999991
 30
0.0
 11
96.0
 21
92.0
 31
0.0
  0
LINE
  5
133
330
1E
100
AcDbEntity
  8
0
100
AcDbLine
 10
96.0
 20
8.999999999999991
 30
0.0
 11
96.0
 21
7.49999999999999
 31
0.0
  0
LINE
  5
134
330
1E
100
AcDbEntity
  8
0
100
AcDbLine
 10
81.0
 20
31.0
 30
0.0
 11
81.0
 21
31.89999999999999
 31
0.0
  0
LINE
  5
135
330
1E
100
AcDbEntity
  8
0
100
AcDbLine
 10
76.0
 20
30.7
 30
0.0
 11
76.0
 21
35.2
 31
0.0
  0
LINE
  5
136
330
1E
100
AcDbEntity
  8
0
100
AcDbLine
 10
76.0
 20
30.7
 30
0.0
 11
76.0
 21
28.0
 31
0.0
  0
LINE
  5
137
330
1E
100
AcDbEntity
  8
0
100
AcDbLine
 10
76.0
 20
35.2
 30
0.0
 11
76.0
 21
41.1
 31
0.0
  0
LINE
  5
138
330
1E
100
AcDbEntity
  8
0
100
AcDbLine
 10
76.0
 20
35.2
 30
0.0
 11
76.0
 21
30.7
 31
0.0
  0
LINE
  5
139
330
1E
100
AcDbEntity
  8
0
100
AcDbLine
 10
76.0
 20
41.1
 30
0.0
 11
76.0
 21
47.8
 31
0.0
  0
LINE
  5
13A
330
1E
100
AcDbEntity
  8
0
100
AcDbLine
 10
76.0
 20
41.1
 30
0.0
 11
76.0
 21
35.2
 31
0.0
  0
LINE
  5
13B
330
1E
100
AcDbEntity
  8
0
100
AcDbLine
 10
76.0
 20
47.8
 30
0.0
 11
76.0
 21
55.0
 31
0.0
  0
LINE
  5
13C
330
1E
100
AcDbEntity
  8
0
100
AcDbLine
 10
76.0
 20
47.8
 30
0.0
 11
76.0
 21
41.1
 31
0.0
  0
LINE
  5
13D
330
1E
100
AcDbEntity
  8
0
100
AcDbLine
 10
76.0
 20
83.0
 30
0.0
 11
76.0
 21
82.0
 31
0.0
  0
LINE
  5
13E
330
1E
100
AcDbEntity
  8
0
100
AcDbLine
 10
76.0
 20
82.0
 30
0.0
 11
76.0
 21
83.0
 31
0.0
  0
LINE
  5
13F
330
1E
100
AcDbEntity
  8
0
100
AcDbLine
 10
76.0
 20
82.0
 30
0.0
 11
76.0
 21
79.29999999999999
 31
0.0
  0
LINE
  5
140
330
1E
100
AcDbEntity
  8
0
100
AcDbLine
 10
76.0
 20
79.29999999999999
 30
0.0
 11
76.0
 21
82.0
 31
0.0
  0
LINE
  5
141
330
1E
100
AcDbEntity
  8
0
100
AcDbLine
 10
76.0
 20
79.29999999999999
 30
0.0
 11
76.0
 21
74.8
 31
0.0
  0
LINE
  5
142
330
1E
100
AcDbEntity
  8
0
100
AcDbLine
 10
76.0
 20
74.8
 30
0.0
 11
76.0
 21
79.29999999999999
 31
0.0
  0
LINE
  5
143
330
1E
100
AcDbEntity
  8
0
100
AcDbLine
 10
76.0
 20
74.8
 30
0.0
 11
76.0
 21
68.9
 31
0.0
  0
LINE
  5
144
330
1E
100
AcDbEntity
  8
0
100
AcDbLine
 10
76.0
 20
68.9
 30
0.0
 11
76.0
 21
74.8
 31
0.0
  0
LINE
  5
145
330
1E
100
AcDbEntity
  8
0
100
AcDbLine
 10
76.0
 20
68.9
 30
0.0
 11
76.0
 21
62.2
 31
0.0
  0
LINE
  5
146
330
1E
100
AcDbEntity
  8
0
100
AcDbLine
 10
76.0
 20
62.2
 30
0.0
 11
76.0
 21
68.9
 31
0.0
  0
LINE
  5
147
330
1E
100
AcDbEntity
  8
0
100
AcDbLine
 10
76.0
 20
62.2
 30
0.0
 11
76.0
 21
55.0
 31
0.0
  0
LINE
  5
148
330
1E
100
AcDbEntity
  8
0
100
AcDbLine
 10
76.0
 20
55.0
 30
0.0
 11
76.0
 21
62.2
 31
0.0
  0
LINE
  5
149
330
1E
100
AcDbEntity
  8
0
100
AcDbLine
 10
76.0
 20
55.0
 30
0.0
 11
76.0
 21
47.8
 31
0.0
  0
LINE
  5
14A
330
1E
100
AcDbEntity
  8
0
100
AcDbLine
 10
81.0
 20
31.89999999999999
 30
0.0
 11
81.0
 21
34.2
 31
0.0
  0
LINE
  5
14B
330
1E
100
AcDbEntity
  8
0
100
AcDbLine
 10
81.0
 20
34.2
 30
0.0
 11
81.0
 21
38.1
 31
0.0
  0
LINE
  5
14C
330
1E
100
AcDbEntity
  8
0
100
AcDbLine
 10
81.0
 20
38.1
 30
0.0
 11
81.0
 21
43.1
 31
0.0
  0
LINE
  5
14D
330
1E
100
AcDbEntity
  8
0
100
AcDbLine
 10
81.0
 20
43.1
 30
0.0
 11
81.0
 21
48.79999999999999
 31
0.0
  0
LINE
  5
14E
330
1E
100
AcDbEntity
  8
0
100
AcDbLine
 10
81.0
 20
48.79999999999999
 30
0.0
 11
81.0
 21
55.0
 31
0.0
  0
LINE
  5
14F
330
1E
100
AcDbEntity
  8
0
100
AcDbLine
 10
81.0
 20
55.0
 30
0.0
 11
81.0
 21
61.2
 31
0.0
  0
LINE
  5
150
330
1E
100
AcDbEntity
  8
0
100
AcDbLine
 10
76.0
 20
79.0
 30
0.0
 11
81.0
 21
79.0
 31
0.0
  0
LINE
  5
151
330
1E
100
AcDbEntity
  8
0
100
AcDbLine
 10
76.0
 20
31.0
 30
0.0
 11
81.0
 21
31.0
 31
0.0
  0
LINE
  5
152
330
1E
100
AcDbEntity
  8
0
100
AcDbLine
 10
67.0
 20
84.0013
 30
0.0
 11
67.0
 21
83.0
 31
0.0
  0
LINE
  5
153
330
1E
100
AcDbEntity
  8
0
100
AcDbLine
 10
65.6666
 20
86.93330000000001
 30
0.0
 11
66.73309999999999
 21
85.4667
 31
0.0
  0
LINE
  5
154
330
1E
100
AcDbEntity
  8
0
100
AcDbLine
 10
66.73309999999999
 20
85.4667
 30
0.0
 11
67.0
 21
84.0013
 31
0.0
  0
LINE
  5
155
330
1E
100
AcDbEntity
  8
0
100
AcDbLine
 10
71.2
 20
114.5
 30
0.0
 11
71.2
 21
116.0
 31
0.0
  0
LINE
  5
156
330
1E
100
AcDbEntity
  8
0
100
AcDbLine
 10
71.2
 20
114.5
 30
0.0
 11
71.2
 21
114.0
 31
0.0
  0
LINE
  5
157
330
1E
100
AcDbEntity
  8
0
100
AcDbLine
 10
71.2
 20
116.0
 30
0.0
 11
71.2
 21
114.5
 31
0.0
  0
LINE
  5
158
330
1E
100
AcDbEntity
  8
0
100
AcDbLine
 10
71.2
 20
116.0
 30
0.0
 11
71.2
 21
118.4
 31
0.0
  0
LINE
  5
159
330
1E
100
AcDbEntity
  8
0
100
AcDbLine
 10
71.6667
 20
114.5
 30
0.0
 11
71.6667
 21
115.0
 31
0.0
  0
LINE
  5
15A
330
1E
100
AcDbEntity
  8
0
100
AcDbLine
 10
71.6667
 20
116.4
 30
0.0
 11
71.6667
 21
115.0
 31
0.0
  0
LINE
  5
15B
330
1E
100
AcDbEntity
  8
0
100
AcDbLine
 10
71.6667
 20
116.4
 30
0.0
 11
71.6667
 21
118.7
 31
0.0
  0
LINE
  5
15C
330
1E
100
AcDbEntity
  8
0
100
AcDbLine
 10
71.6667
 20
115.0
 30
0.0
 11
71.6667
 21
116.4
 31
0.0
  0
LINE
  5
15D
330
1E
100
AcDbEntity
  8
0
100
AcDbLine
 10
71.6667
 20
115.0
 30
0.0
 11
71.6667
 21
114.5
 31
0.0
  0
LINE
  5
15E
330
1E
100
AcDbEntity
  8
0
100
AcDbLine
 10
71.2
 20
114.0
 30
0.0
 11
71.6667
 21
114.5
 31
0.0
  0
LINE
  5
15F
330
1E
100
AcDbEntity
  8
0
100
AcDbLine
 10
71.2
 20
114.0
 30
0.0
 11
71.2
 21
114.5
 31
0.0
  0
LINE
  5
160
330
1E
100
AcDbEntity
  8
0
100
AcDbLine
 10
71.2
 20
118.4
 30
0.0
 11
71.2
 21
121.5
 31
0.0
  0
LINE
  5
161
330
1E
100
AcDbEntity
  8
0
100
AcDbLine
 10
71.2
 20
118.4
 30
0.0
 11
71.2
 21
116.0
 31
0.0
  0
LINE
  5
162
330
1E
100
AcDbEntity
  8
0
100
AcDbLine
 10
71.2
 20
121.5
 30
0.0
 11
71.2
 21
125.0999999999999
 31
0.0
  0
LINE
  5
163
330
1E
100
AcDbEntity
  8
0
100
AcDbLine
 10
71.2
 20
121.5
 30
0.0
 11
71.2
 21
118.4
 31
0.0
  0
LINE
  5
164
330
1E
100
AcDbEntity
  8
0
100
AcDbLine
 10
71.2
 20
125.0999999999999
 30
0.0
 11
71.2
 21
121.5
 31
0.0
  0
LINE
  5
165
330
1E
100
AcDbEntity
  8
0
100
AcDbLine
 10
71.2
 20
125.0999999999999
 30
0.0
 11
71.2
 21
129.0
 31
0.0
  0
LINE
  5
166
330
1E
100
AcDbEntity
  8
0
100
AcDbLine
 10
71.2
 20
136.4999999999999
 30
0.0
 11
71.2
 21
139.5999999999999
 31
0.0
  0
LINE
  5
167
330
1E
100
AcDbEntity
  8
0
100
AcDbLine
 10
71.2
 20
136.4999999999999
 30
0.0
 11
71.2
 21
132.9
 31
0.0
  0
LINE
  5
168
330
1E
100
AcDbEntity
  8
0
100
AcDbLine
 10
71.2
 20
132.9
 30
0.0
 11
71.2
 21
136.4999999999999
 31
0.0
  0
LINE
  5
169
330
1E
100
AcDbEntity
  8
0
100
AcDbLine
 10
71.2
 20
132.9
 30
0.0
 11
71.2
 21
129.0
 31
0.0
  0
LINE
  5
16A
330
1E
100
AcDbEntity
  8
0
100
AcDbLine
 10
71.2
 20
129.0
 30
0.0
 11
71.2
 21
132.9
 31
0.0
  0
LINE
  5
16B
330
1E
100
AcDbEntity
  8
0
100
AcDbLine
 10
71.2
 20
129.0
 30
0.0
 11
71.2
 21
125.0999999999999
 31
0.0
  0
LINE
  5
16C
330
1E
100
AcDbEntity
  8
0
100
AcDbLine
 10
71.6667
 20
132.8
 30
0.0
 11
71.6667
 21
129.0
 31
0.0
  0
LINE
  5
16D
330
1E
100
AcDbEntity
  8
0
100
AcDbLine
 10
71.6667
 20
132.8
 30
0.0
 11
71.6667
 21
136.3
 31
0.0
  0
LINE
  5
16E
330
1E
100
AcDbEntity
  8
0
100
AcDbLine
 10
71.2
 20
139.5999999999999
 30
0.0
 11
71.2
 21
142.0
 31
0.0
  0
LINE
  5
16F
330
1E
100
AcDbEntity
  8
0
100
AcDbLine
 10
71.2
 20
139.5999999999999
 30
0.0
 11
71.2
 21
136.4999999999999
 31
0.0
  0
LINE
  5
170
330
1E
100
AcDbEntity
  8
0
100
AcDbLine
 10
71.6667
 20
139.3
 30
0.0
 11
71.6667
 21
136.3
 31
0.0
  0
LINE
  5
171
330
1E
100
AcDbEntity
  8
0
100
AcDbLine
 10
71.6667
 20
139.3
 30
0.0
 11
71.6667
 21
141.5999999999999
 31
0.0
  0
LINE
  5
172
330
1E
100
AcDbEntity
  8
0
100
AcDbLine
 10
71.6667
 20
136.3
 30
0.0
 11
71.6667
 21
132.8
 31
0.0
  0
LINE
  5
173
330
1E
100
AcDbEntity
  8
0
100
AcDbLine
 10
71.6667
 20
136.3
 30
0.0
 11
71.6667
 21
139.3
 31
0.0
  0
LINE
  5
174
330
1E
100
AcDbEntity
  8
0
100
AcDbLine
 10
71.6667
 20
125.2
 30
0.0
 11
71.6667
 21
121.7
 31
0.0
  0
LINE
  5
175
330
1E
100
AcDbEntity
  8
0
100
AcDbLine
 10
71.6667
 20
125.2
 30
0.0
 11
71.6667
 21
129.0
 31
0.0
  0
LINE
  5
176
330
1E
100
AcDbEntity
  8
0
100
AcDbLine
 10
71.6667
 20
121.7
 30
0.0
 11
71.6667
 21
118.7
 31
0.0
  0
LINE
  5
177
330
1E
100
AcDbEntity
  8
0
100
AcDbLine
 10
71.6667
 20
121.7
 30
0.0
 11
71.6667
 21
125.2
 31
0.0
  0
LINE
  5
178
330
1E
100
AcDbEntity
  8
0
100
AcDbLine
 10
71.6667
 20
118.7
 30
0.0
 11
71.6667
 21
116.4
 31
0.0
  0
LINE
  5
179
330
1E
100
AcDbEntity
  8
0
100
AcDbLine
 10
71.6667
 20
118.7
 30
0.0
 11
71.6667
 21
121.7
 31
0.0
  0
LINE
  5
17A
330
1E
100
AcDbEntity
  8
0
100
AcDbLine
 10
71.6667
 20
129.0
 30
0.0
 11
71.6667
 21
125.2
 31
0.0
  0
LINE
  5
17B
330
1E
100
AcDbEntity
  8
0
100
AcDbLine
 10
71.6667
 20
129.0
 30
0.0
 11
71.6667
 21
132.8
 31
0.0
  0
LINE
  5
17C
330
1E
100
AcDbEntity
  8
0
100
AcDbLine
 10
71.6667
 20
117.0
 30
0.0
 11
74.46670000000001
 21
117.0
 31
0.0
  0
LINE
  5
17D
330
1E
100
AcDbEntity
  8
0
100
AcDbLine
 10
74.46670000000001
 20
115.0
 30
0.0
 11
74.46670000000001
 21
115.5
 31
0.0
  0
LINE
  5
17E
330
1E
100
AcDbEntity
  8
0
100
AcDbLine
 10
74.46670000000001
 20
115.0
 30
0.0
 11
75.4
 21
114.0
 31
0.0
  0
LINE
  5
17F
330
1E
100
AcDbEntity
  8
0
100
AcDbLine
 10
74.46670000000001
 20
115.5
 30
0.0
 11
74.46670000000001
 21
116.9
 31
0.0
  0
LINE
  5
180
330
1E
100
AcDbEntity
  8
0
100
AcDbLine
 10
74.46670000000001
 20
115.5
 30
0.0
 11
74.46670000000001
 21
115.0
 31
0.0
  0
LINE
  5
181
330
1E
100
AcDbEntity
  8
0
100
AcDbLine
 10
74.46670000000001
 20
117.4
 30
0.0
 11
74.46670000000001
 21
118.5999999999999
 31
0.0
  0
LINE
  5
182
330
1E
100
AcDbEntity
  8
0
100
AcDbLine
 10
74.46670000000001
 20
117.4
 30
0.0
 11
74.46670000000001
 21
117.0
 31
0.0
  0
LINE
  5
183
330
1E
100
AcDbEntity
  8
0
100
AcDbLine
 10
74.46670000000001
 20
123.0
 30
0.0
 11
74.46670000000001
 21
120.5
 31
0.0
  0
LINE
  5
184
330
1E
100
AcDbEntity
  8
0
100
AcDbLine
 10
74.46670000000001
 20
123.0
 30
0.0
 11
74.46670000000001
 21
125.9
 31
0.0
  0
LINE
  5
185
330
1E
100
AcDbEntity
  8
0
100
AcDbLine
 10
74.46670000000001
 20
119.1
 30
0.0
 11
74.46670000000001
 21
122.0
 31
0.0
  0
LINE
  5
186
330
1E
100
AcDbEntity
  8
0
100
AcDbLine
 10
74.46670000000001
 20
119.1
 30
0.0
 11
74.46670000000001
 21
116.9
 31
0.0
  0
LINE
  5
187
330
1E
100
AcDbEntity
  8
0
100
AcDbLine
 10
74.46670000000001
 20
122.0
 30
0.0
 11
74.46670000000001
 21
125.4
 31
0.0
  0
LINE
  5
188
330
1E
100
AcDbEntity
  8
0
100
AcDbLine
 10
74.46670000000001
 20
122.0
 30
0.0
 11
74.46670000000001
 21
119.1
 31
0.0
  0
LINE
  5
189
330
1E
100
AcDbEntity
  8
0
100
AcDbLine
 10
74.46670000000001
 20
132.0999999999999
 30
0.0
 11
74.46670000000001
 21
129.0
 31
0.0
  0
LINE
  5
18A
330
1E
100
AcDbEntity
  8
0
100
AcDbLine
 10
74.46670000000001
 20
132.0999999999999
 30
0.0
 11
74.46670000000001
 21
135.0
 31
0.0
  0
LINE
  5
18B
330
1E
100
AcDbEntity
  8
0
100
AcDbLine
 10
74.46670000000001
 20
129.0
 30
0.0
 11
74.46670000000001
 21
132.6
 31
0.0
  0
LINE
  5
18C
330
1E
100
AcDbEntity
  8
0
100
AcDbLine
 10
74.46670000000001
 20
129.0
 30
0.0
 11
74.46670000000001
 21
132.0999999999999
 31
0.0
  0
LINE
  5
18D
330
1E
100
AcDbEntity
  8
0
100
AcDbLine
 10
74.46670000000001
 20
129.0
 30
0.0
 11
74.46670000000001
 21
125.9
 31
0.0
  0
LINE
  5
18E
330
1E
100
AcDbEntity
  8
0
100
AcDbLine
 10
74.46670000000001
 20
129.0
 30
0.0
 11
74.46670000000001
 21
125.4
 31
0.0
  0
LINE
  5
18F
330
1E
100
AcDbEntity
  8
0
100
AcDbLine
 10
74.46670000000001
 20
135.0
 30
0.0
 11
74.46670000000001
 21
137.5
 31
0.0
  0
LINE
  5
190
330
1E
100
AcDbEntity
  8
0
100
AcDbLine
 10
74.46670000000001
 20
135.0
 30
0.0
 11
74.46670000000001
 21
132.0999999999999
 31
0.0
  0
LINE
  5
191
330
1E
100
AcDbEntity
  8
0
100
AcDbLine
 10
74.46670000000001
 20
136.0
 30
0.0
 11
74.46670000000001
 21
138.9
 31
0.0
  0
LINE
  5
192
330
1E
100
AcDbEntity
  8
0
100
AcDbLine
 10
74.46670000000001
 20
136.0
 30
0.0
 11
74.46670000000001
 21
132.6
 31
0.0
  0
LINE
  5
193
330
1E
100
AcDbEntity
  8
0
100
AcDbLine
 10
74.46670000000001
 20
132.6
 30
0.0
 11
74.46670000000001
 21
129.0
 31
0.0
  0
LINE
  5
194
330
1E
100
AcDbEntity
  8
0
100
AcDbLine
 10
74.46670000000001
 20
132.6
 30
0.0
 11
74.46670000000001
 21
136.0
 31
0.0
  0
LINE
  5
195
330
1E
100
AcDbEntity
  8
0
100
AcDbLine
 10
74.46670000000001
 20
125.9
 30
0.0
 11
74.46670000000001
 21
123.0
 31
0.0
  0
LINE
  5
196
330
1E
100
AcDbEntity
  8
0
100
AcDbLine
 10
74.46670000000001
 20
125.9
 30
0.0
 11
74.46670000000001
 21
129.0
 31
0.0
  0
LINE
  5
197
330
1E
100
AcDbEntity
  8
0
100
AcDbLine
 10
74.46670000000001
 20
125.4
 30
0.0
 11
74.46670000000001
 21
122.0
 31
0.0
  0
LINE
  5
198
330
1E
100
AcDbEntity
  8
0
100
AcDbLine
 10
74.46670000000001
 20
125.4
 30
0.0
 11
74.46670000000001
 21
129.0
 31
0.0
  0
LINE
  5
199
330
1E
100
AcDbEntity
  8
0
100
AcDbLine
 10
74.46670000000001
 20
137.5
 30
0.0
 11
74.46670000000001
 21
139.4
 31
0.0
  0
LINE
  5
19A
330
1E
100
AcDbEntity
  8
0
100
AcDbLine
 10
74.46670000000001
 20
137.5
 30
0.0
 11
74.46670000000001
 21
135.0
 31
0.0
  0
LINE
  5
19B
330
1E
100
AcDbEntity
  8
0
100
AcDbLine
 10
74.46670000000001
 20
138.9
 30
0.0
 11
74.46670000000001
 21
141.1
 31
0.0
  0
LINE
  5
19C
330
1E
100
AcDbEntity
  8
0
100
AcDbLine
 10
74.46670000000001
 20
138.9
 30
0.0
 11
74.46670000000001
 21
136.0
 31
0.0
  0
LINE
  5
19D
330
1E
100
AcDbEntity
  8
0
100
AcDbLine
 10
74.46670000000001
 20
139.4
 30
0.0
 11
74.46670000000001
 21
137.5
 31
0.0
  0
LINE
  5
19E
330
1E
100
AcDbEntity
  8
0
100
AcDbLine
 10
74.46670000000001
 20
139.4
 30
0.0
 11
74.46670000000001
 21
140.5999999999999
 31
0.0
  0
LINE
  5
19F
330
1E
100
AcDbEntity
  8
0
100
AcDbLine
 10
74.46670000000001
 20
140.5999999999999
 30
0.0
 11
74.46670000000001
 21
139.4
 31
0.0
  0
LINE
  5
1A0
330
1E
100
AcDbEntity
  8
0
100
AcDbLine
 10
74.46670000000001
 20
140.5999999999999
 30
0.0
 11
74.46670000000001
 21
141.0
 31
0.0
  0
LINE
  5
1A1
330
1E
100
AcDbEntity
  8
0
100
AcDbLine
 10
74.46670000000001
 20
120.5
 30
0.0
 11
74.46670000000001
 21
118.5999999999999
 31
0.0
  0
LINE
  5
1A2
330
1E
100
AcDbEntity
  8
0
100
AcDbLine
 10
74.46670000000001
 20
120.5
 30
0.0
 11
74.46670000000001
 21
123.0
 31
0.0
  0
LINE
  5
1A3
330
1E
100
AcDbEntity
  8
0
100
AcDbLine
 10
74.46670000000001
 20
118.5999999999999
 30
0.0
 11
74.46670000000001
 21
120.5
 31
0.0
  0
LINE
  5
1A4
330
1E
100
AcDbEntity
  8
0
100
AcDbLine
 10
74.46670000000001
 20
118.5999999999999
 30
0.0
 11
74.46670000000001
 21
117.4
 31
0.0
  0
LINE
  5
1A5
330
1E
100
AcDbEntity
  8
0
100
AcDbLine
 10
74.46670000000001
 20
117.0
 30
0.0
 11
74.46670000000001
 21
116.9
 31
0.0
  0
LINE
  5
1A6
330
1E
100
AcDbEntity
  8
0
100
AcDbLine
 10
74.46670000000001
 20
117.0
 30
0.0
 11
74.46670000000001
 21
117.4
 31
0.0
  0
LINE
  5
1A7
330
1E
100
AcDbEntity
  8
0
100
AcDbLine
 10
74.46670000000001
 20
116.9
 30
0.0
 11
74.46670000000001
 21
115.5
 31
0.0
  0
LINE
  5
1A8
330
1E
100
AcDbEntity
  8
0
100
AcDbLine
 10
74.46670000000001
 20
116.9
 30
0.0
 11
74.46670000000001
 21
117.0
 31
0.0
  0
LINE
  5
1A9
330
1E
100
AcDbEntity
  8
0
100
AcDbLine
 10
74.46670000000001
 20
116.9
 30
0.0
 11
74.46670000000001
 21
119.1
 31
0.0
  0
LINE
  5
1AA
330
1E
100
AcDbEntity
  8
0
100
AcDbLine
 10
71.6667
 20
141.0
 30
0.0
 11
74.46670000000001
 21
141.0
 31
0.0
  0
LINE
  5
1AB
330
1E
100
AcDbEntity
  8
0
100
AcDbLine
 10
71.6667
 20
141.5999999999999
 30
0.0
 11
71.6667
 21
143.0
 31
0.0
  0
LINE
  5
1AC
330
1E
100
AcDbEntity
  8
0
100
AcDbLine
 10
71.6667
 20
141.5999999999999
 30
0.0
 11
71.6667
 21
139.3
 31
0.0
  0
LINE
  5
1AD
330
1E
100
AcDbEntity
  8
0
100
AcDbLine
 10
71.2
 20
142.0
 30
0.0
 11
71.2
 21
143.5
 31
0.0
  0
LINE
  5
1AE
330
1E
100
AcDbEntity
  8
0
100
AcDbLine
 10
71.2
 20
142.0
 30
0.0
 11
71.2
 21
139.5999999999999
 31
0.0
  0
LINE
  5
1AF
330
1E
100
AcDbEntity
  8
0
100
AcDbLine
 10
71.2
 20
143.5
 30
0.0
 11
71.2
 21
142.0
 31
0.0
  0
LINE
  5
1B0
330
1E
100
AcDbEntity
  8
0
100
AcDbLine
 10
71.2
 20
143.5
 30
0.0
 11
71.2
 21
144.0
 31
0.0
  0
LINE
  5
1B1
330
1E
100
AcDbEntity
  8
0
100
AcDbLine
 10
71.6667
 20
143.5
 30
0.0
 11
71.6667
 21
143.0
 31
0.0
  0
LINE
  5
1B2
330
1E
100
AcDbEntity
  8
0
100
AcDbLine
 10
71.6667
 20
143.0
 30
0.0
 11
71.6667
 21
141.5999999999999
 31
0.0
  0
LINE
  5
1B3
330
1E
100
AcDbEntity
  8
0
100
AcDbLine
 10
71.6667
 20
143.0
 30
0.0
 11
71.6667
 21
143.5
 31
0.0
  0
LINE
  5
1B4
330
1E
100
AcDbEntity
  8
0
100
AcDbLine
 10
71.2
 20
144.0
 30
0.0
 11
71.6667
 21
143.5
 31
0.0
  0
LINE
  5
1B5
330
1E
100
AcDbEntity
  8
0
100
AcDbLine
 10
71.2
 20
144.0
 30
0.0
 11
71.2
 21
143.5
 31
0.0
  0
LINE
  5
1B6
330
1E
100
AcDbEntity
  8
0
100
AcDbLine
 10
74.46670000000001
 20
142.5
 30
0.0
 11
74.46670000000001
 21
143.0
 31
0.0
  0
LINE
  5
1B7
330
1E
100
AcDbEntity
  8
0
100
AcDbLine
 10
74.46670000000001
 20
142.5
 30
0.0
 11
74.46670000000001
 21
141.1
 31
0.0
  0
LINE
  5
1B8
330
1E
100
AcDbEntity
  8
0
100
AcDbLine
 10
74.46670000000001
 20
143.0
 30
0.0
 11
75.4
 21
144.0
 31
0.0
  0
LINE
  5
1B9
330
1E
100
AcDbEntity
  8
0
100
AcDbLine
 10
74.46670000000001
 20
143.0
 30
0.0
 11
74.46670000000001
 21
142.5
 31
0.0
  0
LINE
  5
1BA
330
1E
100
AcDbEntity
  8
0
100
AcDbLine
 10
74.46670000000001
 20
141.1
 30
0.0
 11
74.46670000000001
 21
142.5
 31
0.0
  0
LINE
  5
1BB
330
1E
100
AcDbEntity
  8
0
100
AcDbLine
 10
74.46670000000001
 20
141.1
 30
0.0
 11
74.46670000000001
 21
141.0
 31
0.0
  0
LINE
  5
1BC
330
1E
100
AcDbEntity
  8
0
100
AcDbLine
 10
74.46670000000001
 20
141.1
 30
0.0
 11
74.46670000000001
 21
138.9
 31
0.0
  0
LINE
  5
1BD
330
1E
100
AcDbEntity
  8
0
100
AcDbLine
 10
81.0
 20
114.0
 30
0.0
 11
81.0
 21
114.5
 31
0.0
  0
LINE
  5
1BE
330
1E
100
AcDbEntity
  8
0
100
AcDbLine
 10
75.4
 20
118.4
 30
0.0
 11
75.4
 21
116.0
 31
0.0
  0
LINE
  5
1BF
330
1E
100
AcDbEntity
  8
0
100
AcDbLine
 10
75.4
 20
118.4
 30
0.0
 11
75.4
 21
121.5
 31
0.0
  0
LINE
  5
1C0
330
1E
100
AcDbEntity
  8
0
100
AcDbLine
 10
75.4
 20
116.0
 30
0.0
 11
75.4
 21
114.5
 31
0.0
  0
LINE
  5
1C1
330
1E
100
AcDbEntity
  8
0
100
AcDbLine
 10
75.4
 20
116.0
 30
0.0
 11
75.4
 21
118.4
 31
0.0
  0
LINE
  5
1C2
330
1E
100
AcDbEntity
  8
0
100
AcDbLine
 10
75.4
 20
136.4999999999999
 30
0.0
 11
75.4
 21
132.9
 31
0.0
  0
LINE
  5
1C3
330
1E
100
AcDbEntity
  8
0
100
AcDbLine
 10
75.4
 20
136.4999999999999
 30
0.0
 11
75.4
 21
139.5999999999999
 31
0.0
  0
LINE
  5
1C4
330
1E
100
AcDbEntity
  8
0
100
AcDbLine
 10
75.4
 20
129.0
 30
0.0
 11
75.4
 21
132.9
 31
0.0
  0
LINE
  5
1C5
330
1E
100
AcDbEntity
  8
0
100
AcDbLine
 10
75.4
 20
129.0
 30
0.0
 11
75.4
 21
125.0999999999999
 31
0.0
  0
LINE
  5
1C6
330
1E
100
AcDbEntity
  8
0
100
AcDbLine
 10
75.4
 20
132.9
 30
0.0
 11
75.4
 21
129.0
 31
0.0
  0
LINE
  5
1C7
330
1E
100
AcDbEntity
  8
0
100
AcDbLine
 10
75.4
 20
132.9
 30
0.0
 11
75.4
 21
136.4999999999999
 31
0.0
  0
LINE
  5
1C8
330
1E
100
AcDbEntity
  8
0
100
AcDbLine
 10
75.4
 20
139.5999999999999
 30
0.0
 11
75.4
 21
142.0
 31
0.0
  0
LINE
  5
1C9
330
1E
100
AcDbEntity
  8
0
100
AcDbLine
 10
75.4
 20
139.5999999999999
 30
0.0
 11
75.4
 21
136.4999999999999
 31
0.0
  0
LINE
  5
1CA
330
1E
100
AcDbEntity
  8
0
100
AcDbLine
 10
75.4
 20
125.0999999999999
 30
0.0
 11
75.4
 21
121.5
 31
0.0
  0
LINE
  5
1CB
330
1E
100
AcDbEntity
  8
0
100
AcDbLine
 10
75.4
 20
125.0999999999999
 30
0.0
 11
75.4
 21
129.0
 31
0.0
  0
LINE
  5
1CC
330
1E
100
AcDbEntity
  8
0
100
AcDbLine
 10
75.4
 20
121.5
 30
0.0
 11
75.4
 21
125.0999999999999
 31
0.0
  0
LINE
  5
1CD
330
1E
100
AcDbEntity
  8
0
100
AcDbLine
 10
81.0
 20
118.4
 30
0.0
 11
81.0
 21
121.5
 31
0.0
  0
LINE
  5
1CE
330
1E
100
AcDbEntity
  8
0
100
AcDbLine
 10
81.0
 20
116.0
 30
0.0
 11
81.0
 21
118.4
 31
0.0
  0
LINE
  5
1CF
330
1E
100
AcDbEntity
  8
0
100
AcDbLine
 10
81.0
 20
125.0999999999999
 30
0.0
 11
81.0
 21
129.0
 31
0.0
  0
LINE
  5
1D0
330
1E
100
AcDbEntity
  8
0
100
AcDbLine
 10
81.0
 20
143.5
 30
0.0
 11
81.0
 21
144.0
 31
0.0
  0
LINE
  5
1D1
330
1E
100
AcDbEntity
  8
0
100
AcDbLine
 10
81.0
 20
132.9
 30
0.0
 11
81.0
 21
136.4999999999999
 31
0.0
  0
LINE
  5
1D2
330
1E
100
AcDbEntity
  8
0
100
AcDbLine
 10
81.0
 20
136.4999999999999
 30
0.0
 11
81.0
 21
139.5999999999999
 31
0.0
  0
LINE
  5
1D3
330
1E
100
AcDbEntity
  8
0
100
AcDbLine
 10
81.0
 20
129.0
 30
0.0
 11
81.0
 21
132.9
 31
0.0
  0
LINE
  5
1D4
330
1E
100
AcDbEntity
  8
0
100
AcDbLine
 10
81.0
 20
139.5999999999999
 30
0.0
 11
81.0
 21
142.0
 31
0.0
  0
LINE
  5
1D5
330
1E
100
AcDbEntity
  8
0
100
AcDbLine
 10
81.0
 20
121.5
 30
0.0
 11
81.0
 21
125.0999999999999
 31
0.0
  0
LINE
  5
1D6
330
1E
100
AcDbEntity
  8
0
100
AcDbLine
 10
75.4
 20
142.0
 30
0.0
 11
75.4
 21
143.5
 31
0.0
  0
LINE
  5
1D7
330
1E
100
AcDbEntity
  8
0
100
AcDbLine
 10
75.4
 20
142.0
 30
0.0
 11
75.4
 21
139.5999999999999
 31
0.0
  0
LINE
  5
1D8
330
1E
100
AcDbEntity
  8
0
100
AcDbLine
 10
75.4
 20
143.5
 30
0.0
 11
75.4
 21
142.0
 31
0.0
  0
LINE
  5
1D9
330
1E
100
AcDbEntity
  8
0
100
AcDbLine
 10
75.4
 20
143.5
 30
0.0
 11
75.4
 21
144.0
 31
0.0
  0
LINE
  5
1DA
330
1E
100
AcDbEntity
  8
0
100
AcDbLine
 10
81.0
 20
142.0
 30
0.0
 11
81.0
 21
143.5
 31
0.0
  0
LINE
  5
1DB
330
1E
100
AcDbEntity
  8
0
100
AcDbLine
 10
81.0
 20
114.5
 30
0.0
 11
81.0
 21
116.0
 31
0.0
  0
LINE
  5
1DC
330
1E
100
AcDbEntity
  8
0
100
AcDbLine
 10
75.4
 20
114.5
 30
0.0
 11
75.4
 21
116.0
 31
0.0
  0
LINE
  5
1DD
330
1E
100
AcDbEntity
  8
0
100
AcDbLine
 10
75.4
 20
114.5
 30
0.0
 11
75.4
 21
114.0
 31
0.0
  0
LINE
  5
1DE
330
1E
100
AcDbEntity
  8
0
100
AcDbLine
 10
75.4
 20
114.0
 30
0.0
 11
81.0
 21
114.0
 31
0.0
  0
LINE
  5
1DF
330
1E
100
AcDbEntity
  8
0
100
AcDbLine
 10
75.4
 20
114.0
 30
0.0
 11
75.4
 21
114.5
 31
0.0
  0
LINE
  5
1E0
330
1E
100
AcDbEntity
  8
0
100
AcDbLine
 10
74.46670000000001
 20
141.0
 30
0.0
 11
74.46670000000001
 21
141.1
 31
0.0
  0
LINE
  5
1E1
330
1E
100
AcDbEntity
  8
0
100
AcDbLine
 10
74.46670000000001
 20
141.0
 30
0.0
 11
74.46670000000001
 21
140.5999999999999
 31
0.0
  0
LINE
  5
1E2
330
1E
100
AcDbEntity
  8
0
100
AcDbLine
 10
75.4
 20
144.0
 30
0.0
 11
81.0
 21
144.0
 31
0.0
  0
LINE
  5
1E3
330
1E
100
AcDbEntity
  8
0
100
AcDbLine
 10
75.4
 20
144.0
 30
0.0
 11
75.4
 21
143.5
 31
0.0
  0
LINE
  5
1E4
330
1E
100
AcDbEntity
  8
0
100
AcDbLine
 10
81.0
 20
92.0
 30
0.0
 11
81.0
 21
175.0
 31
0.0
  0
LINE
  5
1E5
330
1E
100
AcDbEntity
  8
0
100
AcDbLine
 10
81.0
 20
175.0
 30
0.0
 11
81.0
 21
92.0
 31
0.0
  0
LINE
  5
1E6
330
1E
100
AcDbEntity
  8
0
100
AcDbLine
 10
81.0
 20
175.0
 30
0.0
 11
81.5
 21
176.5
 31
0.0
  0
LINE
  5
1E7
330
1E
100
AcDbEntity
  8
0
100
AcDbLine
 10
81.5
 20
175.0
 30
0.0
 11
81.5
 21
176.0
 31
0.0
  0
LINE
  5
1E8
330
1E
100
AcDbEntity
  8
0
100
AcDbLine
 10
96.0
 20
92.0
 30
0.0
 11
96.0
 21
175.0
 31
0.0
  0
LINE
  5
1E9
330
1E
100
AcDbEntity
  8
0
100
AcDbLine
 10
81.5
 20
176.0
 30
0.0
 11
81.5
 21
175.0
 31
0.0
  0
LINE
  5
1EA
330
1E
100
AcDbEntity
  8
0
100
AcDbLine
 10
81.5
 20
176.0
 30
0.0
 11
83.0
 21
176.5
 31
0.0
  0
LINE
  5
1EB
330
1E
100
AcDbEntity
  8
0
100
AcDbLine
 10
81.5
 20
176.0
 30
0.0
 11
81.5
 21
176.5
 31
0.0
  0
LINE
  5
1EC
330
1E
100
AcDbEntity
  8
0
100
AcDbLine
 10
83.0
 20
176.5
 30
0.0
 11
96.0
 21
176.5
 31
0.0
  0
LINE
  5
1ED
330
1E
100
AcDbEntity
  8
0
100
AcDbLine
 10
96.0
 20
176.5
 30
0.0
 11
96.0
 21
175.0
 31
0.0
  0
LINE
  5
1EE
330
1E
100
AcDbEntity
  8
0
100
AcDbLine
 10
96.0
 20
176.5
 30
0.0
 11
96.0
 21
177.0
 31
0.0
  0
LINE
  5
1EF
330
1E
100
AcDbEntity
  8
0
100
AcDbLine
 10
96.0
 20
175.0
 30
0.0
 11
96.0
 21
92.0
 31
0.0
  0
LINE
  5
1F0
330
1E
100
AcDbEntity
  8
0
100
AcDbLine
 10
96.0
 20
175.0
 30
0.0
 11
96.0
 21
176.5
 31
0.0
  0
LINE
  5
1F1
330
1E
100
AcDbEntity
  8
0
100
AcDbLine
 10
81.5
 20
92.0
 30
0.0
 11
81.5
 21
9.0
 31
0.0
  0
LINE
  5
1F2
330
1E
100
AcDbEntity
  8
0
100
AcDbLine
 10
81.5
 20
92.0
 30
0.0
 11
81.5
 21
175.0
 31
0.0
  0
LINE
  5
1F3
330
1E
100
AcDbEntity
  8
0
100
AcDbLine
 10
83.0
 20
177.0
 30
0.0
 11
96.0
 21
177.0
 31
0.0
  0
LINE
  5
1F4
330
1E
100
AcDbEntity
  8
0
100
AcDbLine
 10
96.0
 20
177.0
 30
0.0
 11
96.0
 21
176.5
 31
0.0
  0
LINE
  5
1F5
330
1E
100
AcDbEntity
  8
0
100
AcDbLine
 10
81.5
 20
176.5
 30
0.0
 11
81.5
 21
176.0
 31
0.0
  0
LINE
  5
1F6
330
1E
100
AcDbEntity
  8
0
100
AcDbLine
 10
81.5
 20
176.5
 30
0.0
 11
83.0
 21
177.0
 31
0.0
  0
LINE
  5
1F7
330
1E
100
AcDbEntity
  8
0
100
AcDbLine
 10
62.9999
 20
88.0
 30
0.0
 11
64.0668
 21
87.86799999999999
 31
0.0
  0
LINE
  5
1F8
330
1E
100
AcDbEntity
  8
0
100
AcDbLine
 10
64.0668
 20
87.86799999999999
 30
0.0
 11
65.6666
 21
86.93330000000001
 31
0.0
  0
LINE
  5
1F9
330
1E
100
AcDbEntity
  8
0
100
AcDbLine
 10
61.9333
 20
87.86669999999999
 30
0.0
 11
62.9999
 21
88.0
 31
0.0
  0
LINE
  5
1FA
330
1E
100
AcDbEntity
  8
0
100
AcDbLine
 10
60.33339999999999
 20
86.93470000000001
 30
0.0
 11
61.9333
 21
87.86669999999999
 31
0.0
  0
LINE
  5
1FB
330
1E
100
AcDbEntity
  8
0
100
AcDbLine
 10
59.2667
 20
85.4667
 30
0.0
 11
60.33339999999999
 21
86.93470000000001
 31
0.0
  0
LINE
  5
1FC
330
1E
100
AcDbEntity
  8
0
100
AcDbLine
 10
59.0001
 20
84.0013
 30
0.0
 11
59.2667
 21
85.4667
 31
0.0
  0
LINE
  5
1FD
330
1E
100
AcDbEntity
  8
0
100
AcDbLine
 10
59.00004996752111
 20
83.0
 30
0.0
 11
59.0001
 21
84.0013
 31
0.0
  0
ENDSEC
  0
SECTION
  2
OBJECTS
  0
DICTIONARY
  5
C
330
0
100
AcDbDictionary
  3
ACAD_GROUP
350
D
  3
ACAD_LAYOUT
350
19
  3
ACAD_MLINESTYLE
350
16
  3
ACAD_PLOTSETTINGS
350
18
  3
ACAD_PLOTSTYLENAME
350
E
  3
ACDBHEADERROUNDTRIPXREC
350
205
  3
ACDBVARIABLEDICTIONARY
350
202
  0
DICTIONARY
  5
227
330
1E
100
AcDbDictionary
280
     1
  3
ACAD_LAYOUTSELFREF
360
228
  0
DICTIONARY
  5
225
330
1A
100
AcDbDictionary
280
     1
  3
ACAD_LAYOUTSELFREF
360
226
  0
DICTIONARY
  5
D
102
{ACAD_REACTORS
330
C
102
}
330
C
100
AcDbDictionary
  0
DICTIONARY
  5
19
102
{ACAD_REACTORS
330
C
102
}
330
C
100
AcDbDictionary
  0
DICTIONARY
  5
16
102
{ACAD_REACTORS
330
C
102
}
330
C
100
AcDbDictionary
  3
STANDARD
350
17
  0
DICTIONARY
  5
18
102
{ACAD_REACTORS
330
C
102
}
330
C
100
AcDbDictionary
  0
ACDBDICTIONARYWDFLT
  5
E
102
{ACAD_REACTORS
330
C
102
}
330
C
100
AcDbDictionary
281
     1
  3
Normal
350
F
100
AcDbDictionaryWithDefault
340
F
  0
DICTIONARY
  5
205
102
{ACAD_REACTORS
330
C
102
}
330
C
100
AcDbDictionary
  3
CEPSNTYPE
350
20F
  3
FINGERPRINTGUID
350
210
  3
HYPERLINKBASE
350
208
  3
INSUNITS
350
20E
  3
LAYOUTDICT
350
20A
  3
LWETCUNION
350
20D
  3
PLOTSETDICT
350
20B
  3
PLOTSTYLNAMDICT
350
20C
  3
PSVPSCALE
350
212
  3
PUCSBASE
350
215
  3
PUCSORGBACK
350
21B
  3
PUCSORGBOTTOM
350
217
  3
PUCSORGFRONT
350
21A
  3
PUCSORGLEFT
350
218
  3
PUCSORGRIGHT
350
219
  3
PUCSORGTOP
350
216
  3
PUCSORTHOREF
350
213
  3
PUCSORTHOVIEW
350
214
  3
STYLESHEET
350
209
  3
TSTACKALIGN
350
206
  3
TSTACKSIZE
350
207
  3
UCSBASE
350
21E
  3
UCSORGBACK
350
224
  3
UCSORGBOTTOM
350
220
  3
UCSORGFRONT
350
223
  3
UCSORGLEFT
350
221
  3
UCSORGRIGHT
350
222
  3
UCSORGTOP
350
21F
  3
UCSORTHOREF
350
21C
  3
UCSORTHOVIEW
350
21D
  3
VERSIONGUID
350
211
  0
DICTIONARY
  5
202
102
{ACAD_REACTORS
330
C
102
}
330
C
100
AcDbDictionary
  3
DIMASSOC
350
203
  0
XRECORD
  5
228
102
{ACAD_REACTORS
330
227
102
}
330
227
100
AcDbXrecord
340
1E
  0
XRECORD
  5
226
102
{ACAD_REACTORS
330
225
102
}
330
225
100
AcDbXrecord
340
1A
  0
MLINESTYLE
  5
17
102
{ACAD_REACTORS
330
16
102
}
330
16
100
AcDbMlineStyle
  2
STANDARD
 70
     0
  3

 62
   256
 51
90.0
 52
90.0
 71
     2
 49
0.5
 62
   256
  6
BYLAYER
 49
-0.5
 62
   256
  6
BYLAYER
  0
ACDBPLACEHOLDER
  5
F
102
{ACAD_REACTORS
330
E
102
}
330
E
100
AcDbPlaceHolder
280
     0
  0
XRECORD
  5
20F
102
{ACAD_REACTORS
330
205
102
}
330
205
100
AcDbXrecord
 90
        0
  0
XRECORD
  5
210
102
{ACAD_REACTORS
330
205
102
}
330
205
100
AcDbXrecord
  1
{A953B2EC-7F83-459D-9847-79790879352A}
  0
XRECORD
  5
208
102
{ACAD_REACTORS
330
205
102
}
330
205
100
AcDbXrecord
  1

  0
XRECORD
  5
20E
102
{ACAD_REACTORS
330
205
102
}
330
205
100
AcDbXrecord
 90
        0
  0
XRECORD
  5
20A
102
{ACAD_REACTORS
330
205
102
}
330
205
100
AcDbXrecord
340
19
  0
XRECORD
  5
20D
102
{ACAD_REACTORS
330
205
102
}
330
205
100
AcDbXrecord
 90
    10781
  0
XRECORD
  5
20B
102
{ACAD_REACTORS
330
205
102
}
330
205
100
AcDbXrecord
340
18
  0
XRECORD
  5
20C
102
{ACAD_REACTORS
330
205
102
}
330
205
100
AcDbXrecord
340
E
  0
XRECORD
  5
212
102
{ACAD_REACTORS
330
205
102
}
330
205
100
AcDbXrecord
 40
0.0
  0
XRECORD
  5
215
102
{ACAD_REACTORS
330
205
102
}
330
205
100
AcDbXrecord
340
0
  0
XRECORD
  5
21B
102
{ACAD_REACTORS
330
205
102
}
330
205
100
AcDbXrecord
 10
0.0
 20
0.0
 30
0.0
  0
XRECORD
  5
217
102
{ACAD_REACTORS
330
205
102
}
330
205
100
AcDbXrecord
 10
0.0
 20
0.0
 30
0.0
  0
XRECORD
  5
21A
102
{ACAD_REACTORS
330
205
102
}
330
205
100
AcDbXrecord
 10
0.0
 20
0.0
 30
0.0
  0
XRECORD
  5
218
102
{ACAD_REACTORS
330
205
102
}
330
205
100
AcDbXrecord
 10
0.0
 20
0.0
 30
0.0
  0
XRECORD
  5
219
102
{ACAD_REACTORS
330
205
102
}
330
205
100
AcDbXrecord
 10
0.0
 20
0.0
 30
0.0
  0
XRECORD
  5
216
102
{ACAD_REACTORS
330
205
102
}
330
205
100
AcDbXrecord
 10
0.0
 20
0.0
 30
0.0
  0
XRECORD
  5
213
102
{ACAD_REACTORS
330
205
102
}
330
205
100
AcDbXrecord
340
0
  0
XRECORD
  5
214
102
{ACAD_REACTORS
330
205
102
}
330
205
100
AcDbXrecord
 70
     0
  0
XRECORD
  5
209
102
{ACAD_REACTORS
330
205
102
}
330
205
100
AcDbXrecord
  1

  0
XRECORD
  5
206
102
{ACAD_REACTORS
330
205
102
}
330
205
100
AcDbXrecord
 90
        1
  0
XRECORD
  5
207
102
{ACAD_REACTORS
330
205
102
}
330
205
100
AcDbXrecord
 90
       70
  0
XRECORD
  5
21E
102
{ACAD_REACTORS
330
205
102
}
330
205
100
AcDbXrecord
340
0
  0
XRECORD
  5
224
102
{ACAD_REACTORS
330
205
102
}
330
205
100
AcDbXrecord
 10
0.0
 20
0.0
 30
0.0
  0
XRECORD
  5
220
102
{ACAD_REACTORS
330
205
102
}
330
205
100
AcDbXrecord
 10
0.0
 20
0.0
 30
0.0
  0
XRECORD
  5
223
102
{ACAD_REACTORS
330
205
102
}
330
205
100
AcDbXrecord
 10
0.0
 20
0.0
 30
0.0
  0
XRECORD
  5
221
102
{ACAD_REACTORS
330
205
102
}
330
205
100
AcDbXrecord
 10
0.0
 20
0.0
 30
0.0
  0
XRECORD
  5
222
102
{ACAD_REACTORS
330
205
102
}
330
205
100
AcDbXrecord
 10
0.0
 20
0.0
 30
0.0
  0
XRECORD
  5
21F
102
{ACAD_REACTORS
330
205
102
}
330
205
100
AcDbXrecord
 10
0.0
 20
0.0
 30
0.0
  0
XRECORD
  5
21C
102
{ACAD_REACTORS
330
205
102
}
330
205
100
AcDbXrecord
340
0
  0
XRECORD
  5
21D
102
{ACAD_REACTORS
330
205
102
}
330
205
100
AcDbXrecord
 70
     1
  0
XRECORD
  5
211
102
{ACAD_REACTORS
330
205
102
}
330
205
100
AcDbXrecord
  1
{CCD46955-900A-43E8-9634-2787B51C0D4C}
  0
DICTIONARYVAR
  5
203
102
{ACAD_REACTORS
330
202
102
}
330
202
100
DictionaryVariables
280
     0
  1
1
  0
ENDSEC
  0
EOF
