  0
SECTION
  2
HEADER
  9
$ACADVER
  1
AC1015
  9
$ACADMAINTVER
 70
    13
  9
$DWGCODEPAGE
  3
ANSI_1252
  9
$INSBASE
 10
0.0
 20
0.0
 30
0.0
  9
$EXTMIN
 10
-0.0000000000000113
 20
0.165000000000038
 30
0.0
  9
$EXTMAX
 10
559.0
 20
1442.835
 30
0.0
  9
$LIMMIN
 10
0.0
 20
0.0
  9
$LIMMAX
 10
12.0
 20
9.0
  9
$ORTHOMODE
 70
     0
  9
$REGENMODE
 70
     1
  9
$FILLMODE
 70
     1
  9
$QTEXTMODE
 70
     0
  9
$MIRRTEXT
 70
     1
  9
$LTSCALE
 40
1.0
  9
$ATTMODE
 70
     1
  9
$TEXTSIZE
 40
0.2
  9
$TRACEWID
 40
0.05
  9
$TEXTSTYLE
  7
Standard
  9
$CLAYER
  8
0
  9
$CELTYPE
  6
Continuous
  9
$CECOLOR
 62
   256
  9
$CELTSCALE
 40
1.0
  9
$DISPSILH
 70
     0
  9
$DIMSCALE
 40
1.0
  9
$DIMASZ
 40
0.18
  9
$DIMEXO
 40
0.0625
  9
$DIMDLI
 40
0.38
  9
$DIMRND
 40
0.0
  9
$DIMDLE
 40
0.0
  9
$DIMEXE
 40
0.18
  9
$DIMTP
 40
0.0
  9
$DIMTM
 40
0.0
  9
$DIMTXT
 40
0.18
  9
$DIMCEN
 40
0.09
  9
$DIMTSZ
 40
0.0
  9
$DIMTOL
 70
     0
  9
$DIMLIM
 70
     0
  9
$DIMTIH
 70
     1
  9
$DIMTOH
 70
     1
  9
$DIMSE1
 70
     0
  9
$DIMSE2
 70
     0
  9
$DIMTAD
 70
     0
  9
$DIMZIN
 70
     0
  9
$DIMBLK
  1

  9
$DIMASO
 70
     1
  9
$DIMSHO
 70
     1
  9
$DIMPOST
  1

  9
$DIMAPOST
  1

  9
$DIMALT
 70
     0
  9
$DIMALTD
 70
     2
  9
$DIMALTF
 40
25.4
  9
$DIMLFAC
 40
1.0
  9
$DIMTOFL
 70
     0
  9
$DIMTVP
 40
0.0
  9
$DIMTIX
 70
     0
  9
$DIMSOXD
 70
     0
  9
$DIMSAH
 70
     0
  9
$DIMBLK1
  1

  9
$DIMBLK2
  1

  9
$DIMSTYLE
  2
Standard
  9
$DIMCLRD
 70
     0
  9
$DIMCLRE
 70
     0
  9
$DIMCLRT
 70
     0
  9
$DIMTFAC
 40
1.0
  9
$DIMGAP
 40
0.09
  9
$DIMJUST
 70
     0
  9
$DIMSD1
 70
     0
  9
$DIMSD2
 70
     0
  9
$DIMTOLJ
 70
     1
  9
$DIMTZIN
 70
     0
  9
$DIMALTZ
 70
     0
  9
$DIMALTTZ
 70
     0
  9
$DIMUPT
 70
     0
  9
$DIMDEC
 70
     4
  9
$DIMTDEC
 70
     4
  9
$DIMALTU
 70
     2
  9
$DIMALTTD
 70
     2
  9
$DIMTXSTY
  7
Standard
  9
$DIMAUNIT
 70
     0
  9
$DIMADEC
 70
     0
  9
$DIMALTRND
 40
0.0
  9
$DIMAZIN
 70
     0
  9
$DIMDSEP
 70
    46
  9
$DIMATFIT
 70
     3
  9
$DIMFRAC
 70
     0
  9
$DIMLDRBLK
  1

  9
$DIMLUNIT
 70
     2
  9
$DIMLWD
 70
    -2
  9
$DIMLWE
 70
    -2
  9
$DIMTMOVE
 70
     0
  9
$LUNITS
 70
     2
  9
$LUPREC
 70
     4
  9
$SKETCHINC
 40
0.1
  9
$FILLETRAD
 40
0.0
  9
$AUNITS
 70
     0
  9
$AUPREC
 70
     0
  9
$MENU
  1
.
  9
$ELEVATION
 40
0.0
  9
$PELEVATION
 40
0.0
  9
$THICKNESS
 40
0.0
  9
$LIMCHECK
 70
     0
  9
$CHAMFERA
 40
0.0
  9
$CHAMFERB
 40
0.0
  9
$CHAMFERC
 40
0.0
  9
$CHAMFERD
 40
0.0
  9
$SKPOLY
 70
     0
  9
$TDCREATE
 40
2454636.784206088
  9
$TDUCREATE
 40
2454636.700872754
  9
$TDUPDATE
 40
2454636.790835138
  9
$TDUUPDATE
 40
2454636.707501805
  9
$TDINDWG
 40
0.0066290509
  9
$TDUSRTIMER
 40
0.0066290509
  9
$USRTIMER
 70
     1
  9
$ANGBASE
 50
0.0
  9
$ANGDIR
 70
     0
  9
$PDMODE
 70
     0
  9
$PDSIZE
 40
0.0
  9
$PLINEWID
 40
0.0
  9
$SPLFRAME
 70
     0
  9
$SPLINETYPE
 70
     6
  9
$SPLINESEGS
 70
     8
  9
$HANDSEED
  5
725
  9
$SURFTAB1
 70
     6
  9
$SURFTAB2
 70
     6
  9
$SURFTYPE
 70
     6
  9
$SURFU
 70
     6
  9
$SURFV
 70
     6
  9
$UCSBASE
  2

  9
$UCSNAME
  2

  9
$UCSORG
 10
0.0
 20
0.0
 30
0.0
  9
$UCSXDIR
 10
1.0
 20
0.0
 30
0.0
  9
$UCSYDIR
 10
0.0
 20
1.0
 30
0.0
  9
$UCSORTHOREF
  2

  9
$UCSORTHOVIEW
 70
     1
  9
$UCSORGTOP
 10
0.0
 20
0.0
 30
0.0
  9
$UCSORGBOTTOM
 10
0.0
 20
0.0
 30
0.0
  9
$UCSORGLEFT
 10
0.0
 20
0.0
 30
0.0
  9
$UCSORGRIGHT
 10
0.0
 20
0.0
 30
0.0
  9
$UCSORGFRONT
 10
0.0
 20
0.0
 30
0.0
  9
$UCSORGBACK
 10
0.0
 20
0.0
 30
0.0
  9
$PUCSBASE
  2

  9
$PUCSNAME
  2

  9
$PUCSORG
 10
0.0
 20
0.0
 30
0.0
  9
$PUCSXDIR
 10
1.0
 20
0.0
 30
0.0
  9
$PUCSYDIR
 10
0.0
 20
1.0
 30
0.0
  9
$PUCSORTHOREF
  2

  9
$PUCSORTHOVIEW
 70
     0
  9
$PUCSORGTOP
 10
0.0
 20
0.0
 30
0.0
  9
$PUCSORGBOTTOM
 10
0.0
 20
0.0
 30
0.0
  9
$PUCSORGLEFT
 10
0.0
 20
0.0
 30
0.0
  9
$PUCSORGRIGHT
 10
0.0
 20
0.0
 30
0.0
  9
$PUCSORGFRONT
 10
0.0
 20
0.0
 30
0.0
  9
$PUCSORGBACK
 10
0.0
 20
0.0
 30
0.0
  9
$USERI1
 70
     0
  9
$USERI2
 70
     0
  9
$USERI3
 70
     0
  9
$USERI4
 70
     0
  9
$USERI5
 70
     0
  9
$USERR1
 40
0.0
  9
$USERR2
 40
0.0
  9
$USERR3
 40
0.0
  9
$USERR4
 40
0.0
  9
$USERR5
 40
0.0
  9
$WORLDVIEW
 70
     1
  9
$SHADEDGE
 70
     3
  9
$SHADEDIF
 70
    70
  9
$TILEMODE
 70
     1
  9
$MAXACTVP
 70
    64
  9
$PINSBASE
 10
0.0
 20
0.0
 30
0.0
  9
$PLIMCHECK
 70
     0
  9
$PEXTMIN
 10
1.000000000000000E+20
 20
1.000000000000000E+20
 30
1.000000000000000E+20
  9
$PEXTMAX
 10
-1.000000000000000E+20
 20
-1.000000000000000E+20
 30
-1.000000000000000E+20
  9
$PLIMMIN
 10
0.0
 20
0.0
  9
$PLIMMAX
 10
12.0
 20
9.0
  9
$UNITMODE
 70
     0
  9
$VISRETAIN
 70
     1
  9
$PLINEGEN
 70
     0
  9
$PSLTSCALE
 70
     1
  9
$TREEDEPTH
 70
  3020
  9
$CMLSTYLE
  2
Standard
  9
$CMLJUST
 70
     0
  9
$CMLSCALE
 40
1.0
  9
$PROXYGRAPHICS
 70
     1
  9
$MEASUREMENT
 70
     0
  9
$CELWEIGHT
370
    -1
  9
$ENDCAPS
280
     0
  9
$JOINSTYLE
280
     0
  9
$LWDISPLAY
290
     0
  9
$INSUNITS
 70
     0
  9
$HYPERLINKBASE
  1

  9
$STYLESHEET
  1

  9
$XEDIT
290
     1
  9
$CEPSNTYPE
380
     0
  9
$PSTYLEMODE
290
     1
  9
$FINGERPRINTGUID
  2
{7722D47F-8BE3-41EF-9849-48E88EBD30DF}
  9
$VERSIONGUID
  2
{4590C31C-FB76-4328-9034-9C4A8C52E582}
  9
$EXTNAMES
290
     1
  9
$PSVPSCALE
 40
0.0
  9
$OLESTARTUP
290
     0
  0
ENDSEC
  0
SECTION
  2
CLASSES
  0
CLASS
  1
ACDBDICTIONARYWDFLT
  2
AcDbDictionaryWithDefault
  3
AutoCAD 2000
 90
        0
280
     0
281
     0
  0
CLASS
  1
ACDBPLACEHOLDER
  2
AcDbPlaceHolder
  3
AutoCAD 2000
 90
        0
280
     0
281
     0
  0
CLASS
  1
LAYOUT
  2
AcDbLayout
  3
AutoCAD 2000
 90
        0
280
     0
281
     0
  0
CLASS
  1
DICTIONARYVAR
  2
AcDbDictionaryVar
  3
AutoCAD 2000
 90
        0
280
     0
281
     0
  0
ENDSEC
  0
SECTION
  2
TABLES
  0
TABLE
  2
VPORT
  5
8
330
0
100
AcDbSymbolTable
 70
     2
  0
VPORT
  5
724
330
8
100
AcDbSymbolTableRecord
100
AcDbViewportTableRecord
  2
*Active
 70
     0
 10
0.0
 20
0.0
 11
1.0
 21
1.0
 12
279.4999999999999
 22
721.5000000000001
 13
0.0
 23
0.0
 14
1.0
 24
1.0
 15
0.0
 25
0.0
 16
0.0
 26
0.0
 36
1.0
 17
0.0
 27
0.0
 37
0.0
 40
1453.739079283887
 41
2.043533930857874
 42
50.0
 43
0.0
 44
0.0
 50
0.0
 51
0.0
 71
     0
 72
   100
 73
     1
 74
     3
 75
     0
 76
     0
 77
     0
 78
     0
281
     0
 65
     1
110
0.0
120
0.0
130
0.0
111
1.0
121
0.0
131
0.0
112
0.0
122
1.0
132
0.0
 79
     1
146
0.0
  0
ENDTAB
  0
TABLE
  2
LTYPE
  5
5
330
0
100
AcDbSymbolTable
 70
     1
  0
LTYPE
  5
13
330
5
100
AcDbSymbolTableRecord
100
AcDbLinetypeTableRecord
  2
ByBlock
 70
     0
  3

 72
    65
 73
     0
 40
0.0
  0
LTYPE
  5
14
330
5
100
AcDbSymbolTableRecord
100
AcDbLinetypeTableRecord
  2
ByLayer
 70
     0
  3

 72
    65
 73
     0
 40
0.0
  0
LTYPE
  5
15
330
5
100
AcDbSymbolTableRecord
100
AcDbLinetypeTableRecord
  2
Continuous
 70
     0
  3
Solid line
 72
    65
 73
     0
 40
0.0
  0
ENDTAB
  0
TABLE
  2
LAYER
  5
2
330
0
100
AcDbSymbolTable
 70
     1
  0
LAYER
  5
10
330
2
100
AcDbSymbolTableRecord
100
AcDbLayerTableRecord
  2
0
 70
     0
 62
     7
  6
Continuous
370
    -3
390
F
  0
ENDTAB
  0
TABLE
  2
STYLE
  5
3
330
0
100
AcDbSymbolTable
 70
     1
  0
STYLE
  5
11
330
3
100
AcDbSymbolTableRecord
100
AcDbTextStyleTableRecord
  2
Standard
 70
     0
 40
0.0
 41
1.0
 50
0.0
 71
     0
 42
0.2
  3
txt
  4

  0
ENDTAB
  0
TABLE
  2
VIEW
  5
6
330
0
100
AcDbSymbolTable
 70
     0
  0
ENDTAB
  0
TABLE
  2
UCS
  5
7
330
0
100
AcDbSymbolTable
 70
     0
  0
ENDTAB
  0
TABLE
  2
APPID
  5
9
330
0
100
AcDbSymbolTable
 70
     1
  0
APPID
  5
12
330
9
100
AcDbSymbolTableRecord
100
AcDbRegAppTableRecord
  2
ACAD
 70
     0
  0
ENDTAB
  0
TABLE
  2
DIMSTYLE
  5
A
330
0
100
AcDbSymbolTable
 70
     1
100
AcDbDimStyleTable
 71
     0
  0
DIMSTYLE
105
717
330
A
100
AcDbSymbolTableRecord
100
AcDbDimStyleTableRecord
  2
Standard
 70
     0
340
11
  0
ENDTAB
  0
TABLE
  2
BLOCK_RECORD
  5
1
330
0
100
AcDbSymbolTable
 70
     0
  0
BLOCK_RECORD
  5
1E
330
1
100
AcDbSymbolTableRecord
100
AcDbBlockTableRecord
  2
*Model_Space
340
21
  0
BLOCK_RECORD
  5
1A
330
1
100
AcDbSymbolTableRecord
100
AcDbBlockTableRecord
  2
*Paper_Space
340
1D
  0
ENDTAB
  0
ENDSEC
  0
SECTION
  2
BLOCKS
  0
BLOCK
  5
1F
330
1E
100
AcDbEntity
  8
0
100
AcDbBlockBegin
  2
*Model_Space
 70
     0
 10
0.0
 20
0.0
 30
0.0
  3
*Model_Space
  1

  0
ENDBLK
  5
20
330
1E
100
AcDbEntity
  8
0
100
AcDbBlockEnd
  0
BLOCK
  5
1B
330
1A
100
AcDbEntity
 67
     1
  8
0
100
AcDbBlockBegin
  2
*Paper_Space
 70
     0
 10
0.0
 20
0.0
 30
0.0
  3
*Paper_Space
  1

  0
ENDBLK
  5
1C
330
1A
100
AcDbEntity
 67
     1
  8
0
100
AcDbBlockEnd
  0
ENDSEC
  0
SECTION
  2
ENTITIES
  0
LINE
  5
22
330
1E
100
AcDbEntity
  8
0
100
AcDbLine
 10
6.99999999999999
 20
1163.835
 30
0.0
 11
6.99999999999999
 21
1165.835
 31
0.0
  0
LINE
  5
23
330
1E
100
AcDbEntity
  8
0
100
AcDbLine
 10
4.99999999999999
 20
1165.835
 30
0.0
 11
6.99999999999999
 21
1165.835
 31
0.0
  0
LINE
  5
24
330
1E
100
AcDbEntity
  8
0
100
AcDbLine
 10
4.99999999999999
 20
1163.835
 30
0.0
 11
4.99999999999999
 21
1165.835
 31
0.0
  0
LINE
  5
25
330
1E
100
AcDbEntity
  8
0
100
AcDbLine
 10
4.99999999999999
 20
1163.835
 30
0.0
 11
6.99999999999999
 21
1163.835
 31
0.0
  0
LINE
  5
26
330
1E
100
AcDbEntity
  8
0
100
AcDbLine
 10
4.199999999999979
 20
1165.835
 30
0.0
 11
4.99999999999999
 21
1165.835
 31
0.0
  0
LINE
  5
27
330
1E
100
AcDbEntity
  8
0
100
AcDbLine
 10
4.199999999999979
 20
1165.835
 30
0.0
 11
12.9
 21
1165.835
 31
0.0
  0
LINE
  5
28
330
1E
100
AcDbEntity
  8
0
100
AcDbLine
 10
9.569000000000061
 20
1163.835
 30
0.0
 11
10.08699999999999
 21
1163.835
 31
0.0
  0
LINE
  5
29
330
1E
100
AcDbEntity
  8
0
100
AcDbLine
 10
10.08699999999999
 20
1163.835
 30
0.0
 11
10.08699999999999
 21
1165.835
 31
0.0
  0
LINE
  5
2A
330
1E
100
AcDbEntity
  8
0
100
AcDbLine
 10
8.15499999999996
 20
1163.835
 30
0.0
 11
8.15499999999996
 21
1165.835
 31
0.0
  0
LINE
  5
2B
330
1E
100
AcDbEntity
  8
0
100
AcDbLine
 10
8.15499999999996
 20
1163.835
 30
0.0
 11
10.08699999999999
 21
1163.835
 31
0.0
  0
LINE
  5
2C
330
1E
100
AcDbEntity
  8
0
100
AcDbLine
 10
7.63699999999999
 20
1163.835
 30
0.0
 11
7.63699999999999
 21
1165.835
 31
0.0
  0
LINE
  5
2D
330
1E
100
AcDbEntity
  8
0
100
AcDbLine
 10
7.63699999999999
 20
1163.835
 30
0.0
 11
9.569000000000061
 21
1163.835
 31
0.0
  0
LINE
  5
2E
330
1E
100
AcDbEntity
  8
0
100
AcDbLine
 10
7.63699999999999
 20
1163.835
 30
0.0
 11
8.15499999999996
 21
1163.835
 31
0.0
  0
LINE
  5
2F
330
1E
100
AcDbEntity
  8
0
100
AcDbLine
 10
17.62
 20
1163.835
 30
0.0
 11
18.62
 21
1163.835
 31
0.0
  0
LINE
  5
30
330
1E
100
AcDbEntity
  8
0
100
AcDbLine
 10
18.62
 20
1163.835
 30
0.0
 11
18.62
 21
1165.835
 31
0.0
  0
LINE
  5
31
330
1E
100
AcDbEntity
  8
0
100
AcDbLine
 10
16.88799999999999
 20
1163.835
 30
0.0
 11
16.88799999999999
 21
1165.835
 31
0.0
  0
LINE
  5
32
330
1E
100
AcDbEntity
  8
0
100
AcDbLine
 10
16.88799999999999
 20
1163.835
 30
0.0
 11
18.62
 21
1163.835
 31
0.0
  0
LINE
  5
33
330
1E
100
AcDbEntity
  8
0
100
AcDbLine
 10
8.15499999999996
 20
1165.835
 30
0.0
 11
8.15499999999996
 21
1163.835
 31
0.0
  0
LINE
  5
34
330
1E
100
AcDbEntity
  8
0
100
AcDbLine
 10
8.15499999999996
 20
1165.835
 30
0.0
 11
10.08699999999999
 21
1165.835
 31
0.0
  0
LINE
  5
35
330
1E
100
AcDbEntity
  8
0
100
AcDbLine
 10
7.63699999999999
 20
1165.835
 30
0.0
 11
7.63699999999999
 21
1163.835
 31
0.0
  0
LINE
  5
36
330
1E
100
AcDbEntity
  8
0
100
AcDbLine
 10
7.63699999999999
 20
1165.835
 30
0.0
 11
8.15499999999996
 21
1165.835
 31
0.0
  0
LINE
  5
37
330
1E
100
AcDbEntity
  8
0
100
AcDbLine
 10
16.88799999999999
 20
1165.835
 30
0.0
 11
16.88799999999999
 21
1163.835
 31
0.0
  0
LINE
  5
38
330
1E
100
AcDbEntity
  8
0
100
AcDbLine
 10
16.88799999999999
 20
1165.835
 30
0.0
 11
18.62
 21
1165.835
 31
0.0
  0
LINE
  5
39
330
1E
100
AcDbEntity
  8
0
100
AcDbLine
 10
15.88799999999999
 20
1165.835
 30
0.0
 11
15.88799999999999
 21
1163.835
 31
0.0
  0
LINE
  5
3A
330
1E
100
AcDbEntity
  8
0
100
AcDbLine
 10
15.88799999999999
 20
1165.835
 30
0.0
 11
16.88799999999999
 21
1165.835
 31
0.0
  0
LINE
  5
3B
330
1E
100
AcDbEntity
  8
0
100
AcDbLine
 10
15.88799999999999
 20
1163.835
 30
0.0
 11
15.88799999999999
 21
1165.835
 31
0.0
  0
LINE
  5
3C
330
1E
100
AcDbEntity
  8
0
100
AcDbLine
 10
15.88799999999999
 20
1163.835
 30
0.0
 11
17.62
 21
1163.835
 31
0.0
  0
LINE
  5
3D
330
1E
100
AcDbEntity
  8
0
100
AcDbLine
 10
15.88799999999999
 20
1163.835
 30
0.0
 11
16.88799999999999
 21
1163.835
 31
0.0
  0
LINE
  5
3E
330
1E
100
AcDbEntity
  8
0
100
AcDbLine
 10
22.0
 20
1163.835
 30
0.0
 11
22.0
 21
1165.835
 31
0.0
  0
LINE
  5
3F
330
1E
100
AcDbEntity
  8
0
100
AcDbLine
 10
20.0
 20
1165.835
 30
0.0
 11
20.0
 21
1163.835
 31
0.0
  0
LINE
  5
40
330
1E
100
AcDbEntity
  8
0
100
AcDbLine
 10
20.0
 20
1165.835
 30
0.0
 11
22.0
 21
1165.835
 31
0.0
  0
LINE
  5
41
330
1E
100
AcDbEntity
  8
0
100
AcDbLine
 10
20.0
 20
1163.835
 30
0.0
 11
20.0
 21
1165.835
 31
0.0
  0
LINE
  5
42
330
1E
100
AcDbEntity
  8
0
100
AcDbLine
 10
20.0
 20
1163.835
 30
0.0
 11
22.0
 21
1163.835
 31
0.0
  0
LINE
  5
43
330
1E
100
AcDbEntity
  8
0
100
AcDbLine
 10
29.878
 20
1163.835
 30
0.0
 11
31.61
 21
1163.835
 31
0.0
  0
LINE
  5
44
330
1E
100
AcDbEntity
  8
0
100
AcDbLine
 10
28.878
 20
1163.835
 30
0.0
 11
28.878
 21
1165.835
 31
0.0
  0
LINE
  5
45
330
1E
100
AcDbEntity
  8
0
100
AcDbLine
 10
28.878
 20
1163.835
 30
0.0
 11
30.60999999999999
 21
1163.835
 31
0.0
  0
LINE
  5
46
330
1E
100
AcDbEntity
  8
0
100
AcDbLine
 10
28.878
 20
1163.835
 30
0.0
 11
29.878
 21
1163.835
 31
0.0
  0
LINE
  5
47
330
1E
100
AcDbEntity
  8
0
100
AcDbLine
 10
24.058
 20
1163.835
 30
0.0
 11
24.576
 21
1163.835
 31
0.0
  0
LINE
  5
48
330
1E
100
AcDbEntity
  8
0
100
AcDbLine
 10
24.576
 20
1163.835
 30
0.0
 11
24.576
 21
1165.835
 31
0.0
  0
LINE
  5
49
330
1E
100
AcDbEntity
  8
0
100
AcDbLine
 10
22.644
 20
1163.835
 30
0.0
 11
22.644
 21
1165.835
 31
0.0
  0
LINE
  5
4A
330
1E
100
AcDbEntity
  8
0
100
AcDbLine
 10
22.644
 20
1163.835
 30
0.0
 11
24.576
 21
1163.835
 31
0.0
  0
LINE
  5
4B
330
1E
100
AcDbEntity
  8
0
100
AcDbLine
 10
22.12599999999999
 20
1163.835
 30
0.0
 11
22.12599999999999
 21
1165.835
 31
0.0
  0
LINE
  5
4C
330
1E
100
AcDbEntity
  8
0
100
AcDbLine
 10
22.12599999999999
 20
1163.835
 30
0.0
 11
24.058
 21
1163.835
 31
0.0
  0
LINE
  5
4D
330
1E
100
AcDbEntity
  8
0
100
AcDbLine
 10
22.12599999999999
 20
1163.835
 30
0.0
 11
22.644
 21
1163.835
 31
0.0
  0
LINE
  5
4E
330
1E
100
AcDbEntity
  8
0
100
AcDbLine
 10
30.60999999999999
 20
1163.835
 30
0.0
 11
31.61
 21
1163.835
 31
0.0
  0
LINE
  5
4F
330
1E
100
AcDbEntity
  8
0
100
AcDbLine
 10
32.01699999999999
 20
1163.835
 30
0.0
 11
32.01699999999999
 21
1165.835
 31
0.0
  0
LINE
  5
50
330
1E
100
AcDbEntity
  8
0
100
AcDbLine
 10
30.603
 20
1163.835
 30
0.0
 11
30.603
 21
1165.835
 31
0.0
  0
LINE
  5
51
330
1E
100
AcDbEntity
  8
0
100
AcDbLine
 10
30.603
 20
1163.835
 30
0.0
 11
32.01699999999999
 21
1163.835
 31
0.0
  0
LINE
  5
52
330
1E
100
AcDbEntity
  8
0
100
AcDbLine
 10
28.878
 20
1165.835
 30
0.0
 11
28.878
 21
1163.835
 31
0.0
  0
LINE
  5
53
330
1E
100
AcDbEntity
  8
0
100
AcDbLine
 10
28.878
 20
1165.835
 30
0.0
 11
29.189
 21
1165.835
 31
0.0
  0
LINE
  5
54
330
1E
100
AcDbEntity
  8
0
100
AcDbLine
 10
22.644
 20
1165.835
 30
0.0
 11
22.644
 21
1163.835
 31
0.0
  0
LINE
  5
55
330
1E
100
AcDbEntity
  8
0
100
AcDbLine
 10
22.644
 20
1165.835
 30
0.0
 11
24.576
 21
1165.835
 31
0.0
  0
LINE
  5
56
330
1E
100
AcDbEntity
  8
0
100
AcDbLine
 10
22.12599999999999
 20
1165.835
 30
0.0
 11
22.12599999999999
 21
1163.835
 31
0.0
  0
LINE
  5
57
330
1E
100
AcDbEntity
  8
0
100
AcDbLine
 10
22.12599999999999
 20
1165.835
 30
0.0
 11
22.644
 21
1165.835
 31
0.0
  0
LINE
  5
58
330
1E
100
AcDbEntity
  8
0
100
AcDbLine
 10
30.603
 20
1165.835
 30
0.0
 11
30.603
 21
1163.835
 31
0.0
  0
LINE
  5
59
330
1E
100
AcDbEntity
  8
0
100
AcDbLine
 10
30.603
 20
1165.835
 30
0.0
 11
32.01699999999999
 21
1165.835
 31
0.0
  0
LINE
  5
5A
330
1E
100
AcDbEntity
  8
0
100
AcDbLine
 10
29.189
 20
1165.835
 30
0.0
 11
29.189
 21
1163.835
 31
0.0
  0
LINE
  5
5B
330
1E
100
AcDbEntity
  8
0
100
AcDbLine
 10
29.189
 20
1165.835
 30
0.0
 11
30.603
 21
1165.835
 31
0.0
  0
LINE
  5
5C
330
1E
100
AcDbEntity
  8
0
100
AcDbLine
 10
29.189
 20
1163.835
 30
0.0
 11
29.189
 21
1165.835
 31
0.0
  0
LINE
  5
5D
330
1E
100
AcDbEntity
  8
0
100
AcDbLine
 10
29.189
 20
1163.835
 30
0.0
 11
30.603
 21
1163.835
 31
0.0
  0
LINE
  5
5E
330
1E
100
AcDbEntity
  8
0
100
AcDbLine
 10
35.0
 20
1163.835
 30
0.0
 11
35.0
 21
1165.835
 31
0.0
  0
LINE
  5
5F
330
1E
100
AcDbEntity
  8
0
100
AcDbLine
 10
35.0
 20
1163.835
 30
0.0
 11
37.0
 21
1163.835
 31
0.0
  0
LINE
  5
60
330
1E
100
AcDbEntity
  8
0
100
AcDbLine
 10
38.54699999999999
 20
1163.835
 30
0.0
 11
39.06499999999999
 21
1163.835
 31
0.0
  0
LINE
  5
61
330
1E
100
AcDbEntity
  8
0
100
AcDbLine
 10
39.06499999999999
 20
1163.835
 30
0.0
 11
39.06499999999999
 21
1165.835
 31
0.0
  0
LINE
  5
62
330
1E
100
AcDbEntity
  8
0
100
AcDbLine
 10
37.133
 20
1163.835
 30
0.0
 11
37.133
 21
1165.835
 31
0.0
  0
LINE
  5
63
330
1E
100
AcDbEntity
  8
0
100
AcDbLine
 10
37.133
 20
1163.835
 30
0.0
 11
39.06499999999999
 21
1163.835
 31
0.0
  0
LINE
  5
64
330
1E
100
AcDbEntity
  8
0
100
AcDbLine
 10
35.0
 20
1165.835
 30
0.0
 11
35.0
 21
1163.835
 31
0.0
  0
LINE
  5
65
330
1E
100
AcDbEntity
  8
0
100
AcDbLine
 10
35.0
 20
1165.835
 30
0.0
 11
36.615
 21
1165.835
 31
0.0
  0
LINE
  5
66
330
1E
100
AcDbEntity
  8
0
100
AcDbLine
 10
37.133
 20
1165.835
 30
0.0
 11
37.133
 21
1163.835
 31
0.0
  0
LINE
  5
67
330
1E
100
AcDbEntity
  8
0
100
AcDbLine
 10
37.133
 20
1165.835
 30
0.0
 11
39.06499999999999
 21
1165.835
 31
0.0
  0
LINE
  5
68
330
1E
100
AcDbEntity
  8
0
100
AcDbLine
 10
36.615
 20
1165.835
 30
0.0
 11
36.615
 21
1163.835
 31
0.0
  0
LINE
  5
69
330
1E
100
AcDbEntity
  8
0
100
AcDbLine
 10
36.615
 20
1165.835
 30
0.0
 11
37.133
 21
1165.835
 31
0.0
  0
LINE
  5
6A
330
1E
100
AcDbEntity
  8
0
100
AcDbLine
 10
36.615
 20
1163.835
 30
0.0
 11
36.615
 21
1165.835
 31
0.0
  0
LINE
  5
6B
330
1E
100
AcDbEntity
  8
0
100
AcDbLine
 10
36.615
 20
1163.835
 30
0.0
 11
38.54699999999999
 21
1163.835
 31
0.0
  0
LINE
  5
6C
330
1E
100
AcDbEntity
  8
0
100
AcDbLine
 10
36.615
 20
1163.835
 30
0.0
 11
37.133
 21
1163.835
 31
0.0
  0
LINE
  5
6D
330
1E
100
AcDbEntity
  8
0
100
AcDbLine
 10
42.62399999999999
 20
1163.835
 30
0.0
 11
42.62399999999999
 21
1165.835
 31
0.0
  0
LINE
  5
6E
330
1E
100
AcDbEntity
  8
0
100
AcDbLine
 10
41.21
 20
1163.835
 30
0.0
 11
41.21
 21
1165.835
 31
0.0
  0
LINE
  5
6F
330
1E
100
AcDbEntity
  8
0
100
AcDbLine
 10
41.21
 20
1163.835
 30
0.0
 11
42.62399999999999
 21
1163.835
 31
0.0
  0
LINE
  5
70
330
1E
100
AcDbEntity
  8
0
100
AcDbLine
 10
39.795
 20
1163.835
 30
0.0
 11
39.795
 21
1165.835
 31
0.0
  0
LINE
  5
71
330
1E
100
AcDbEntity
  8
0
100
AcDbLine
 10
39.795
 20
1163.835
 30
0.0
 11
41.21
 21
1163.835
 31
0.0
  0
LINE
  5
72
330
1E
100
AcDbEntity
  8
0
100
AcDbLine
 10
47.63399999999999
 20
1163.835
 30
0.0
 11
49.36600000000001
 21
1163.835
 31
0.0
  0
LINE
  5
73
330
1E
100
AcDbEntity
  8
0
100
AcDbLine
 10
49.36600000000001
 20
1163.835
 30
0.0
 11
49.36600000000001
 21
1165.835
 31
0.0
  0
LINE
  5
74
330
1E
100
AcDbEntity
  8
0
100
AcDbLine
 10
48.366
 20
1163.835
 30
0.0
 11
48.366
 21
1165.835
 31
0.0
  0
LINE
  5
75
330
1E
100
AcDbEntity
  8
0
100
AcDbLine
 10
48.366
 20
1163.835
 30
0.0
 11
49.36600000000001
 21
1163.835
 31
0.0
  0
LINE
  5
76
330
1E
100
AcDbEntity
  8
0
100
AcDbLine
 10
46.63399999999999
 20
1163.835
 30
0.0
 11
46.63399999999999
 21
1165.835
 31
0.0
  0
LINE
  5
77
330
1E
100
AcDbEntity
  8
0
100
AcDbLine
 10
46.63399999999999
 20
1163.835
 30
0.0
 11
47.63399999999999
 21
1163.835
 31
0.0
  0
LINE
  5
78
330
1E
100
AcDbEntity
  8
0
100
AcDbLine
 10
46.63399999999999
 20
1163.835
 30
0.0
 11
48.366
 21
1163.835
 31
0.0
  0
LINE
  5
79
330
1E
100
AcDbEntity
  8
0
100
AcDbLine
 10
43.601
 20
1163.835
 30
0.0
 11
44.601
 21
1163.835
 31
0.0
  0
LINE
  5
7A
330
1E
100
AcDbEntity
  8
0
100
AcDbLine
 10
44.601
 20
1163.835
 30
0.0
 11
44.601
 21
1165.835
 31
0.0
  0
LINE
  5
7B
330
1E
100
AcDbEntity
  8
0
100
AcDbLine
 10
42.869
 20
1163.835
 30
0.0
 11
42.869
 21
1165.835
 31
0.0
  0
LINE
  5
7C
330
1E
100
AcDbEntity
  8
0
100
AcDbLine
 10
42.869
 20
1163.835
 30
0.0
 11
44.601
 21
1163.835
 31
0.0
  0
LINE
  5
7D
330
1E
100
AcDbEntity
  8
0
100
AcDbLine
 10
41.21
 20
1165.835
 30
0.0
 11
41.21
 21
1163.835
 31
0.0
  0
LINE
  5
7E
330
1E
100
AcDbEntity
  8
0
100
AcDbLine
 10
41.21
 20
1165.835
 30
0.0
 11
42.62399999999999
 21
1165.835
 31
0.0
  0
LINE
  5
7F
330
1E
100
AcDbEntity
  8
0
100
AcDbLine
 10
39.795
 20
1165.835
 30
0.0
 11
39.795
 21
1163.835
 31
0.0
  0
LINE
  5
80
330
1E
100
AcDbEntity
  8
0
100
AcDbLine
 10
39.795
 20
1165.835
 30
0.0
 11
41.21
 21
1165.835
 31
0.0
  0
LINE
  5
81
330
1E
100
AcDbEntity
  8
0
100
AcDbLine
 10
48.366
 20
1165.835
 30
0.0
 11
48.366
 21
1163.835
 31
0.0
  0
LINE
  5
82
330
1E
100
AcDbEntity
  8
0
100
AcDbLine
 10
48.366
 20
1165.835
 30
0.0
 11
49.36600000000001
 21
1165.835
 31
0.0
  0
LINE
  5
83
330
1E
100
AcDbEntity
  8
0
100
AcDbLine
 10
46.63399999999999
 20
1165.835
 30
0.0
 11
46.63399999999999
 21
1163.835
 31
0.0
  0
LINE
  5
84
330
1E
100
AcDbEntity
  8
0
100
AcDbLine
 10
46.63399999999999
 20
1165.835
 30
0.0
 11
48.366
 21
1165.835
 31
0.0
  0
LINE
  5
85
330
1E
100
AcDbEntity
  8
0
100
AcDbLine
 10
42.869
 20
1165.835
 30
0.0
 11
42.869
 21
1163.835
 31
0.0
  0
LINE
  5
86
330
1E
100
AcDbEntity
  8
0
100
AcDbLine
 10
42.869
 20
1165.835
 30
0.0
 11
44.601
 21
1165.835
 31
0.0
  0
LINE
  5
87
330
1E
100
AcDbEntity
  8
0
100
AcDbLine
 10
42.62399999999999
 20
1165.835
 30
0.0
 11
42.869
 21
1165.835
 31
0.0
  0
LINE
  5
88
330
1E
100
AcDbEntity
  8
0
100
AcDbLine
 10
42.62399999999999
 20
1165.835
 30
0.0
 11
42.62399999999999
 21
1163.835
 31
0.0
  0
LINE
  5
89
330
1E
100
AcDbEntity
  8
0
100
AcDbLine
 10
41.869
 20
1163.835
 30
0.0
 11
43.601
 21
1163.835
 31
0.0
  0
LINE
  5
8A
330
1E
100
AcDbEntity
  8
0
100
AcDbLine
 10
41.869
 20
1163.835
 30
0.0
 11
42.869
 21
1163.835
 31
0.0
  0
LINE
  5
8B
330
1E
100
AcDbEntity
  8
0
100
AcDbLine
 10
50.0
 20
1163.835
 30
0.0
 11
50.0
 21
1165.835
 31
0.0
  0
LINE
  5
8C
330
1E
100
AcDbEntity
  8
0
100
AcDbLine
 10
50.0
 20
1163.835
 30
0.0
 11
52.0
 21
1163.835
 31
0.0
  0
LINE
  5
8D
330
1E
100
AcDbEntity
  8
0
100
AcDbLine
 10
50.402
 20
1163.835
 30
0.0
 11
50.402
 21
1165.835
 31
0.0
  0
LINE
  5
8E
330
1E
100
AcDbEntity
  8
0
100
AcDbLine
 10
50.402
 20
1163.835
 30
0.0
 11
51.816
 21
1163.835
 31
0.0
  0
LINE
  5
8F
330
1E
100
AcDbEntity
  8
0
100
AcDbLine
 10
53.23
 20
1163.835
 30
0.0
 11
53.23
 21
1165.835
 31
0.0
  0
LINE
  5
90
330
1E
100
AcDbEntity
  8
0
100
AcDbLine
 10
51.816
 20
1163.835
 30
0.0
 11
51.816
 21
1165.835
 31
0.0
  0
LINE
  5
91
330
1E
100
AcDbEntity
  8
0
100
AcDbLine
 10
51.816
 20
1163.835
 30
0.0
 11
53.23
 21
1163.835
 31
0.0
  0
LINE
  5
92
330
1E
100
AcDbEntity
  8
0
100
AcDbLine
 10
53.036
 20
1163.835
 30
0.0
 11
53.55399999999999
 21
1163.835
 31
0.0
  0
LINE
  5
93
330
1E
100
AcDbEntity
  8
0
100
AcDbLine
 10
55.85899999999999
 20
1163.835
 30
0.0
 11
57.591
 21
1163.835
 31
0.0
  0
LINE
  5
94
330
1E
100
AcDbEntity
  8
0
100
AcDbLine
 10
54.85899999999999
 20
1163.835
 30
0.0
 11
56.591
 21
1163.835
 31
0.0
  0
LINE
  5
95
330
1E
100
AcDbEntity
  8
0
100
AcDbLine
 10
54.85899999999999
 20
1163.835
 30
0.0
 11
55.85899999999999
 21
1163.835
 31
0.0
  0
LINE
  5
96
330
1E
100
AcDbEntity
  8
0
100
AcDbLine
 10
53.55399999999999
 20
1163.835
 30
0.0
 11
53.55399999999999
 21
1165.835
 31
0.0
  0
LINE
  5
97
330
1E
100
AcDbEntity
  8
0
100
AcDbLine
 10
51.622
 20
1163.835
 30
0.0
 11
53.55399999999999
 21
1163.835
 31
0.0
  0
LINE
  5
98
330
1E
100
AcDbEntity
  8
0
100
AcDbLine
 10
51.104
 20
1163.835
 30
0.0
 11
53.036
 21
1163.835
 31
0.0
  0
LINE
  5
99
330
1E
100
AcDbEntity
  8
0
100
AcDbLine
 10
51.104
 20
1163.835
 30
0.0
 11
51.622
 21
1163.835
 31
0.0
  0
LINE
  5
9A
330
1E
100
AcDbEntity
  8
0
100
AcDbLine
 10
55.13399999999999
 20
1163.835
 30
0.0
 11
56.86600000000001
 21
1163.835
 31
0.0
  0
LINE
  5
9B
330
1E
100
AcDbEntity
  8
0
100
AcDbLine
 10
56.591
 20
1163.835
 30
0.0
 11
57.591
 21
1163.835
 31
0.0
  0
LINE
  5
9C
330
1E
100
AcDbEntity
  8
0
100
AcDbLine
 10
57.591
 20
1163.835
 30
0.0
 11
57.591
 21
1165.835
 31
0.0
  0
LINE
  5
9D
330
1E
100
AcDbEntity
  8
0
100
AcDbLine
 10
56.86600000000001
 20
1163.835
 30
0.0
 11
56.86600000000001
 21
1165.835
 31
0.0
  0
LINE
  5
9E
330
1E
100
AcDbEntity
  8
0
100
AcDbLine
 10
55.866
 20
1163.835
 30
0.0
 11
55.866
 21
1165.835
 31
0.0
  0
LINE
  5
9F
330
1E
100
AcDbEntity
  8
0
100
AcDbLine
 10
55.866
 20
1163.835
 30
0.0
 11
56.86600000000001
 21
1163.835
 31
0.0
  0
LINE
  5
A0
330
1E
100
AcDbEntity
  8
0
100
AcDbLine
 10
50.0
 20
1165.835
 30
0.0
 11
50.0
 21
1163.835
 31
0.0
  0
LINE
  5
A1
330
1E
100
AcDbEntity
  8
0
100
AcDbLine
 10
50.0
 20
1165.835
 30
0.0
 11
50.402
 21
1165.835
 31
0.0
  0
LINE
  5
A2
330
1E
100
AcDbEntity
  8
0
100
AcDbLine
 10
51.816
 20
1165.835
 30
0.0
 11
51.816
 21
1163.835
 31
0.0
  0
LINE
  5
A3
330
1E
100
AcDbEntity
  8
0
100
AcDbLine
 10
51.816
 20
1165.835
 30
0.0
 11
53.23
 21
1165.835
 31
0.0
  0
LINE
  5
A4
330
1E
100
AcDbEntity
  8
0
100
AcDbLine
 10
50.402
 20
1165.835
 30
0.0
 11
50.402
 21
1163.835
 31
0.0
  0
LINE
  5
A5
330
1E
100
AcDbEntity
  8
0
100
AcDbLine
 10
50.402
 20
1165.835
 30
0.0
 11
51.816
 21
1165.835
 31
0.0
  0
LINE
  5
A6
330
1E
100
AcDbEntity
  8
0
100
AcDbLine
 10
53.23
 20
1165.835
 30
0.0
 11
53.55399999999999
 21
1165.835
 31
0.0
  0
LINE
  5
A7
330
1E
100
AcDbEntity
  8
0
100
AcDbLine
 10
53.23
 20
1165.835
 30
0.0
 11
53.23
 21
1163.835
 31
0.0
  0
LINE
  5
A8
330
1E
100
AcDbEntity
  8
0
100
AcDbLine
 10
56.86600000000001
 20
1165.835
 30
0.0
 11
56.86600000000001
 21
1163.835
 31
0.0
  0
LINE
  5
A9
330
1E
100
AcDbEntity
  8
0
100
AcDbLine
 10
56.86600000000001
 20
1165.835
 30
0.0
 11
57.591
 21
1165.835
 31
0.0
  0
LINE
  5
AA
330
1E
100
AcDbEntity
  8
0
100
AcDbLine
 10
55.866
 20
1165.835
 30
0.0
 11
55.866
 21
1163.835
 31
0.0
  0
LINE
  5
AB
330
1E
100
AcDbEntity
  8
0
100
AcDbLine
 10
55.866
 20
1165.835
 30
0.0
 11
56.86600000000001
 21
1165.835
 31
0.0
  0
LINE
  5
AC
330
1E
100
AcDbEntity
  8
0
100
AcDbLine
 10
54.13399999999999
 20
1165.835
 30
0.0
 11
54.13399999999999
 21
1163.835
 31
0.0
  0
LINE
  5
AD
330
1E
100
AcDbEntity
  8
0
100
AcDbLine
 10
54.13399999999999
 20
1165.835
 30
0.0
 11
55.866
 21
1165.835
 31
0.0
  0
LINE
  5
AE
330
1E
100
AcDbEntity
  8
0
100
AcDbLine
 10
54.13399999999999
 20
1163.835
 30
0.0
 11
54.13399999999999
 21
1165.835
 31
0.0
  0
LINE
  5
AF
330
1E
100
AcDbEntity
  8
0
100
AcDbLine
 10
54.13399999999999
 20
1163.835
 30
0.0
 11
55.13399999999999
 21
1163.835
 31
0.0
  0
LINE
  5
B0
330
1E
100
AcDbEntity
  8
0
100
AcDbLine
 10
54.13399999999999
 20
1163.835
 30
0.0
 11
55.866
 21
1163.835
 31
0.0
  0
LINE
  5
B1
330
1E
100
AcDbEntity
  8
0
100
AcDbLine
 10
49.36600000000001
 20
1165.835
 30
0.0
 11
50.0
 21
1165.835
 31
0.0
  0
LINE
  5
B2
330
1E
100
AcDbEntity
  8
0
100
AcDbLine
 10
49.36600000000001
 20
1165.835
 30
0.0
 11
49.36600000000001
 21
1163.835
 31
0.0
  0
LINE
  5
B3
330
1E
100
AcDbEntity
  8
0
100
AcDbLine
 10
53.55399999999999
 20
1165.835
 30
0.0
 11
54.13399999999999
 21
1165.835
 31
0.0
  0
LINE
  5
B4
330
1E
100
AcDbEntity
  8
0
100
AcDbLine
 10
53.55399999999999
 20
1165.835
 30
0.0
 11
53.55399999999999
 21
1163.835
 31
0.0
  0
LINE
  5
B5
330
1E
100
AcDbEntity
  8
0
100
AcDbLine
 10
62.423
 20
1163.835
 30
0.0
 11
63.837
 21
1163.835
 31
0.0
  0
LINE
  5
B6
330
1E
100
AcDbEntity
  8
0
100
AcDbLine
 10
61.0090000000001
 20
1163.835
 30
0.0
 11
61.0090000000001
 21
1165.835
 31
0.0
  0
LINE
  5
B7
330
1E
100
AcDbEntity
  8
0
100
AcDbLine
 10
61.0090000000001
 20
1163.835
 30
0.0
 11
62.423
 21
1163.835
 31
0.0
  0
LINE
  5
B8
330
1E
100
AcDbEntity
  8
0
100
AcDbLine
 10
62.63399999999999
 20
1163.835
 30
0.0
 11
64.366
 21
1163.835
 31
0.0
  0
LINE
  5
B9
330
1E
100
AcDbEntity
  8
0
100
AcDbLine
 10
65.0
 20
1163.835
 30
0.0
 11
65.0
 21
1165.835
 31
0.0
  0
LINE
  5
BA
330
1E
100
AcDbEntity
  8
0
100
AcDbLine
 10
65.0
 20
1163.835
 30
0.0
 11
67.0
 21
1163.835
 31
0.0
  0
LINE
  5
BB
330
1E
100
AcDbEntity
  8
0
100
AcDbLine
 10
64.366
 20
1163.835
 30
0.0
 11
64.366
 21
1165.835
 31
0.0
  0
LINE
  5
BC
330
1E
100
AcDbEntity
  8
0
100
AcDbLine
 10
63.366
 20
1163.835
 30
0.0
 11
63.366
 21
1165.835
 31
0.0
  0
LINE
  5
BD
330
1E
100
AcDbEntity
  8
0
100
AcDbLine
 10
63.366
 20
1163.835
 30
0.0
 11
64.366
 21
1163.835
 31
0.0
  0
LINE
  5
BE
330
1E
100
AcDbEntity
  8
0
100
AcDbLine
 10
61.63399999999999
 20
1163.835
 30
0.0
 11
61.63399999999999
 21
1165.835
 31
0.0
  0
LINE
  5
BF
330
1E
100
AcDbEntity
  8
0
100
AcDbLine
 10
61.63399999999999
 20
1163.835
 30
0.0
 11
62.63399999999999
 21
1163.835
 31
0.0
  0
LINE
  5
C0
330
1E
100
AcDbEntity
  8
0
100
AcDbLine
 10
61.63399999999999
 20
1163.835
 30
0.0
 11
63.366
 21
1163.835
 31
0.0
  0
LINE
  5
C1
330
1E
100
AcDbEntity
  8
0
100
AcDbLine
 10
67.55199999999999
 20
1163.835
 30
0.0
 11
69.48399999999999
 21
1163.835
 31
0.0
  0
LINE
  5
C2
330
1E
100
AcDbEntity
  8
0
100
AcDbLine
 10
67.03399999999999
 20
1163.835
 30
0.0
 11
67.03399999999999
 21
1165.835
 31
0.0
  0
LINE
  5
C3
330
1E
100
AcDbEntity
  8
0
100
AcDbLine
 10
67.03399999999999
 20
1163.835
 30
0.0
 11
67.55199999999999
 21
1163.835
 31
0.0
  0
LINE
  5
C4
330
1E
100
AcDbEntity
  8
0
100
AcDbLine
 10
67.03399999999999
 20
1163.835
 30
0.0
 11
68.96600000000001
 21
1163.835
 31
0.0
  0
LINE
  5
C5
330
1E
100
AcDbEntity
  8
0
100
AcDbLine
 10
67.52500000000001
 20
1163.835
 30
0.0
 11
68.04300000000001
 21
1163.835
 31
0.0
  0
LINE
  5
C6
330
1E
100
AcDbEntity
  8
0
100
AcDbLine
 10
66.111
 20
1163.835
 30
0.0
 11
66.111
 21
1165.835
 31
0.0
  0
LINE
  5
C7
330
1E
100
AcDbEntity
  8
0
100
AcDbLine
 10
66.111
 20
1163.835
 30
0.0
 11
68.04300000000001
 21
1163.835
 31
0.0
  0
LINE
  5
C8
330
1E
100
AcDbEntity
  8
0
100
AcDbLine
 10
61.0090000000001
 20
1165.835
 30
0.0
 11
61.0090000000001
 21
1163.835
 31
0.0
  0
LINE
  5
C9
330
1E
100
AcDbEntity
  8
0
100
AcDbLine
 10
61.0090000000001
 20
1165.835
 30
0.0
 11
61.63399999999999
 21
1165.835
 31
0.0
  0
LINE
  5
CA
330
1E
100
AcDbEntity
  8
0
100
AcDbLine
 10
65.0
 20
1165.835
 30
0.0
 11
65.0
 21
1163.835
 31
0.0
  0
LINE
  5
CB
330
1E
100
AcDbEntity
  8
0
100
AcDbLine
 10
65.0
 20
1165.835
 30
0.0
 11
65.593
 21
1165.835
 31
0.0
  0
LINE
  5
CC
330
1E
100
AcDbEntity
  8
0
100
AcDbLine
 10
63.366
 20
1165.835
 30
0.0
 11
63.366
 21
1163.835
 31
0.0
  0
LINE
  5
CD
330
1E
100
AcDbEntity
  8
0
100
AcDbLine
 10
63.366
 20
1165.835
 30
0.0
 11
64.366
 21
1165.835
 31
0.0
  0
LINE
  5
CE
330
1E
100
AcDbEntity
  8
0
100
AcDbLine
 10
61.63399999999999
 20
1165.835
 30
0.0
 11
61.63399999999999
 21
1163.835
 31
0.0
  0
LINE
  5
CF
330
1E
100
AcDbEntity
  8
0
100
AcDbLine
 10
61.63399999999999
 20
1165.835
 30
0.0
 11
63.366
 21
1165.835
 31
0.0
  0
LINE
  5
D0
330
1E
100
AcDbEntity
  8
0
100
AcDbLine
 10
67.03399999999999
 20
1165.835
 30
0.0
 11
67.03399999999999
 21
1163.835
 31
0.0
  0
LINE
  5
D1
330
1E
100
AcDbEntity
  8
0
100
AcDbLine
 10
67.03399999999999
 20
1165.835
 30
0.0
 11
68.96600000000001
 21
1165.835
 31
0.0
  0
LINE
  5
D2
330
1E
100
AcDbEntity
  8
0
100
AcDbLine
 10
66.111
 20
1165.835
 30
0.0
 11
66.111
 21
1163.835
 31
0.0
  0
LINE
  5
D3
330
1E
100
AcDbEntity
  8
0
100
AcDbLine
 10
66.111
 20
1165.835
 30
0.0
 11
67.03399999999999
 21
1165.835
 31
0.0
  0
LINE
  5
D4
330
1E
100
AcDbEntity
  8
0
100
AcDbLine
 10
65.593
 20
1165.835
 30
0.0
 11
65.593
 21
1163.835
 31
0.0
  0
LINE
  5
D5
330
1E
100
AcDbEntity
  8
0
100
AcDbLine
 10
65.593
 20
1165.835
 30
0.0
 11
66.111
 21
1165.835
 31
0.0
  0
LINE
  5
D6
330
1E
100
AcDbEntity
  8
0
100
AcDbLine
 10
65.593
 20
1163.835
 30
0.0
 11
65.593
 21
1165.835
 31
0.0
  0
LINE
  5
D7
330
1E
100
AcDbEntity
  8
0
100
AcDbLine
 10
65.593
 20
1163.835
 30
0.0
 11
67.52500000000001
 21
1163.835
 31
0.0
  0
LINE
  5
D8
330
1E
100
AcDbEntity
  8
0
100
AcDbLine
 10
65.593
 20
1163.835
 30
0.0
 11
66.111
 21
1163.835
 31
0.0
  0
LINE
  5
D9
330
1E
100
AcDbEntity
  8
0
100
AcDbLine
 10
69.48399999999999
 20
1163.835
 30
0.0
 11
69.48399999999999
 21
1165.835
 31
0.0
  0
LINE
  5
DA
330
1E
100
AcDbEntity
  8
0
100
AcDbLine
 10
68.96600000000001
 20
1163.835
 30
0.0
 11
68.96600000000001
 21
1165.835
 31
0.0
  0
LINE
  5
DB
330
1E
100
AcDbEntity
  8
0
100
AcDbLine
 10
68.96600000000001
 20
1163.835
 30
0.0
 11
69.48399999999999
 21
1163.835
 31
0.0
  0
LINE
  5
DC
330
1E
100
AcDbEntity
  8
0
100
AcDbLine
 10
69.134
 20
1163.835
 30
0.0
 11
70.134
 21
1163.835
 31
0.0
  0
LINE
  5
DD
330
1E
100
AcDbEntity
  8
0
100
AcDbLine
 10
69.134
 20
1163.835
 30
0.0
 11
70.866
 21
1163.835
 31
0.0
  0
LINE
  5
DE
330
1E
100
AcDbEntity
  8
0
100
AcDbLine
 10
71.43399999999999
 20
1163.835
 30
0.0
 11
73.366
 21
1163.835
 31
0.0
  0
LINE
  5
DF
330
1E
100
AcDbEntity
  8
0
100
AcDbLine
 10
73.366
 20
1163.835
 30
0.0
 11
73.366
 21
1165.835
 31
0.0
  0
LINE
  5
E0
330
1E
100
AcDbEntity
  8
0
100
AcDbLine
 10
72.84899999999999
 20
1163.835
 30
0.0
 11
72.84899999999999
 21
1165.835
 31
0.0
  0
LINE
  5
E1
330
1E
100
AcDbEntity
  8
0
100
AcDbLine
 10
72.84899999999999
 20
1163.835
 30
0.0
 11
73.366
 21
1163.835
 31
0.0
  0
LINE
  5
E2
330
1E
100
AcDbEntity
  8
0
100
AcDbLine
 10
70.917
 20
1163.835
 30
0.0
 11
70.917
 21
1165.835
 31
0.0
  0
LINE
  5
E3
330
1E
100
AcDbEntity
  8
0
100
AcDbLine
 10
70.917
 20
1163.835
 30
0.0
 11
71.43399999999999
 21
1163.835
 31
0.0
  0
LINE
  5
E4
330
1E
100
AcDbEntity
  8
0
100
AcDbLine
 10
70.917
 20
1163.835
 30
0.0
 11
72.84899999999999
 21
1163.835
 31
0.0
  0
LINE
  5
E5
330
1E
100
AcDbEntity
  8
0
100
AcDbLine
 10
73.029
 20
1163.835
 30
0.0
 11
74.444
 21
1163.835
 31
0.0
  0
LINE
  5
E6
330
1E
100
AcDbEntity
  8
0
100
AcDbLine
 10
74.444
 20
1163.835
 30
0.0
 11
74.444
 21
1165.835
 31
0.0
  0
LINE
  5
E7
330
1E
100
AcDbEntity
  8
0
100
AcDbLine
 10
71.615
 20
1163.835
 30
0.0
 11
73.029
 21
1163.835
 31
0.0
  0
LINE
  5
E8
330
1E
100
AcDbEntity
  8
0
100
AcDbLine
 10
70.134
 20
1163.835
 30
0.0
 11
71.866
 21
1163.835
 31
0.0
  0
LINE
  5
E9
330
1E
100
AcDbEntity
  8
0
100
AcDbLine
 10
70.866
 20
1163.835
 30
0.0
 11
70.866
 21
1165.835
 31
0.0
  0
LINE
  5
EA
330
1E
100
AcDbEntity
  8
0
100
AcDbLine
 10
70.866
 20
1163.835
 30
0.0
 11
71.866
 21
1163.835
 31
0.0
  0
LINE
  5
EB
330
1E
100
AcDbEntity
  8
0
100
AcDbLine
 10
69.581
 20
1163.835
 30
0.0
 11
70.581
 21
1163.835
 31
0.0
  0
LINE
  5
EC
330
1E
100
AcDbEntity
  8
0
100
AcDbLine
 10
68.96600000000001
 20
1165.835
 30
0.0
 11
68.96600000000001
 21
1163.835
 31
0.0
  0
LINE
  5
ED
330
1E
100
AcDbEntity
  8
0
100
AcDbLine
 10
68.96600000000001
 20
1165.835
 30
0.0
 11
69.48399999999999
 21
1165.835
 31
0.0
  0
LINE
  5
EE
330
1E
100
AcDbEntity
  8
0
100
AcDbLine
 10
72.84899999999999
 20
1165.835
 30
0.0
 11
72.84899999999999
 21
1163.835
 31
0.0
  0
LINE
  5
EF
330
1E
100
AcDbEntity
  8
0
100
AcDbLine
 10
72.84899999999999
 20
1165.835
 30
0.0
 11
73.366
 21
1165.835
 31
0.0
  0
LINE
  5
F0
330
1E
100
AcDbEntity
  8
0
100
AcDbLine
 10
70.917
 20
1165.835
 30
0.0
 11
70.917
 21
1163.835
 31
0.0
  0
LINE
  5
F1
330
1E
100
AcDbEntity
  8
0
100
AcDbLine
 10
70.917
 20
1165.835
 30
0.0
 11
72.84899999999999
 21
1165.835
 31
0.0
  0
LINE
  5
F2
330
1E
100
AcDbEntity
  8
0
100
AcDbLine
 10
73.366
 20
1165.835
 30
0.0
 11
74.444
 21
1165.835
 31
0.0
  0
LINE
  5
F3
330
1E
100
AcDbEntity
  8
0
100
AcDbLine
 10
73.366
 20
1165.835
 30
0.0
 11
73.366
 21
1163.835
 31
0.0
  0
LINE
  5
F4
330
1E
100
AcDbEntity
  8
0
100
AcDbLine
 10
70.866
 20
1165.835
 30
0.0
 11
70.866
 21
1163.835
 31
0.0
  0
LINE
  5
F5
330
1E
100
AcDbEntity
  8
0
100
AcDbLine
 10
70.866
 20
1165.835
 30
0.0
 11
70.917
 21
1165.835
 31
0.0
  0
LINE
  5
F6
330
1E
100
AcDbEntity
  8
0
100
AcDbLine
 10
69.48399999999999
 20
1165.835
 30
0.0
 11
70.866
 21
1165.835
 31
0.0
  0
LINE
  5
F7
330
1E
100
AcDbEntity
  8
0
100
AcDbLine
 10
69.48399999999999
 20
1165.835
 30
0.0
 11
69.48399999999999
 21
1163.835
 31
0.0
  0
LINE
  5
F8
330
1E
100
AcDbEntity
  8
0
100
AcDbLine
 10
68.84899999999999
 20
1163.835
 30
0.0
 11
70.581
 21
1163.835
 31
0.0
  0
LINE
  5
F9
330
1E
100
AcDbEntity
  8
0
100
AcDbLine
 10
67.84899999999999
 20
1163.835
 30
0.0
 11
69.581
 21
1163.835
 31
0.0
  0
LINE
  5
FA
330
1E
100
AcDbEntity
  8
0
100
AcDbLine
 10
67.84899999999999
 20
1163.835
 30
0.0
 11
68.84899999999999
 21
1163.835
 31
0.0
  0
LINE
  5
FB
330
1E
100
AcDbEntity
  8
0
100
AcDbLine
 10
67.09999999999999
 20
1165.835
 30
0.0
 11
90.0
 21
1165.835
 31
0.0
  0
LINE
  5
FC
330
1E
100
AcDbEntity
  8
0
100
AcDbLine
 10
75.31699999999999
 20
1163.835
 30
0.0
 11
77.24899999999999
 21
1163.835
 31
0.0
  0
LINE
  5
FD
330
1E
100
AcDbEntity
  8
0
100
AcDbLine
 10
77.24899999999999
 20
1163.835
 30
0.0
 11
77.24899999999999
 21
1165.835
 31
0.0
  0
LINE
  5
FE
330
1E
100
AcDbEntity
  8
0
100
AcDbLine
 10
76.73100000000001
 20
1163.835
 30
0.0
 11
76.73100000000001
 21
1165.835
 31
0.0
  0
LINE
  5
FF
330
1E
100
AcDbEntity
  8
0
100
AcDbLine
 10
76.73100000000001
 20
1163.835
 30
0.0
 11
77.24899999999999
 21
1163.835
 31
0.0
  0
LINE
  5
100
330
1E
100
AcDbEntity
  8
0
100
AcDbLine
 10
74.79899999999999
 20
1163.835
 30
0.0
 11
74.79899999999999
 21
1165.835
 31
0.0
  0
LINE
  5
101
330
1E
100
AcDbEntity
  8
0
100
AcDbLine
 10
74.79899999999999
 20
1163.835
 30
0.0
 11
75.31699999999999
 21
1163.835
 31
0.0
  0
LINE
  5
102
330
1E
100
AcDbEntity
  8
0
100
AcDbLine
 10
74.79899999999999
 20
1163.835
 30
0.0
 11
76.73100000000001
 21
1163.835
 31
0.0
  0
LINE
  5
103
330
1E
100
AcDbEntity
  8
0
100
AcDbLine
 10
77.634
 20
1163.835
 30
0.0
 11
79.366
 21
1163.835
 31
0.0
  0
LINE
  5
104
330
1E
100
AcDbEntity
  8
0
100
AcDbLine
 10
79.199
 20
1163.835
 30
0.0
 11
81.13100000000001
 21
1163.835
 31
0.0
  0
LINE
  5
105
330
1E
100
AcDbEntity
  8
0
100
AcDbLine
 10
83.08100000000001
 20
1163.835
 30
0.0
 11
85.01299999999998
 21
1163.835
 31
0.0
  0
LINE
  5
106
330
1E
100
AcDbEntity
  8
0
100
AcDbLine
 10
85.01299999999998
 20
1163.835
 30
0.0
 11
85.01299999999998
 21
1165.835
 31
0.0
  0
LINE
  5
107
330
1E
100
AcDbEntity
  8
0
100
AcDbLine
 10
84.495
 20
1163.835
 30
0.0
 11
84.495
 21
1165.835
 31
0.0
  0
LINE
  5
108
330
1E
100
AcDbEntity
  8
0
100
AcDbLine
 10
84.495
 20
1163.835
 30
0.0
 11
85.01299999999998
 21
1163.835
 31
0.0
  0
LINE
  5
109
330
1E
100
AcDbEntity
  8
0
100
AcDbLine
 10
82.56400000000009
 20
1163.835
 30
0.0
 11
82.56400000000009
 21
1165.835
 31
0.0
  0
LINE
  5
10A
330
1E
100
AcDbEntity
  8
0
100
AcDbLine
 10
82.56400000000009
 20
1163.835
 30
0.0
 11
83.08100000000001
 21
1163.835
 31
0.0
  0
LINE
  5
10B
330
1E
100
AcDbEntity
  8
0
100
AcDbLine
 10
82.56400000000009
 20
1163.835
 30
0.0
 11
84.495
 21
1163.835
 31
0.0
  0
LINE
  5
10C
330
1E
100
AcDbEntity
  8
0
100
AcDbLine
 10
81.13100000000001
 20
1163.835
 30
0.0
 11
81.13100000000001
 21
1165.835
 31
0.0
  0
LINE
  5
10D
330
1E
100
AcDbEntity
  8
0
100
AcDbLine
 10
80.61300000000001
 20
1163.835
 30
0.0
 11
80.61300000000001
 21
1165.835
 31
0.0
  0
LINE
  5
10E
330
1E
100
AcDbEntity
  8
0
100
AcDbLine
 10
80.61300000000001
 20
1163.835
 30
0.0
 11
81.13100000000001
 21
1163.835
 31
0.0
  0
LINE
  5
10F
330
1E
100
AcDbEntity
  8
0
100
AcDbLine
 10
78.681
 20
1163.835
 30
0.0
 11
78.681
 21
1165.835
 31
0.0
  0
LINE
  5
110
330
1E
100
AcDbEntity
  8
0
100
AcDbLine
 10
78.681
 20
1163.835
 30
0.0
 11
79.199
 21
1163.835
 31
0.0
  0
LINE
  5
111
330
1E
100
AcDbEntity
  8
0
100
AcDbLine
 10
78.681
 20
1163.835
 30
0.0
 11
80.61300000000001
 21
1163.835
 31
0.0
  0
LINE
  5
112
330
1E
100
AcDbEntity
  8
0
100
AcDbLine
 10
78.366
 20
1163.835
 30
0.0
 11
78.366
 21
1165.835
 31
0.0
  0
LINE
  5
113
330
1E
100
AcDbEntity
  8
0
100
AcDbLine
 10
78.366
 20
1163.835
 30
0.0
 11
79.366
 21
1163.835
 31
0.0
  0
LINE
  5
114
330
1E
100
AcDbEntity
  8
0
100
AcDbLine
 10
76.73100000000001
 20
1165.835
 30
0.0
 11
76.73100000000001
 21
1163.835
 31
0.0
  0
LINE
  5
115
330
1E
100
AcDbEntity
  8
0
100
AcDbLine
 10
76.73100000000001
 20
1165.835
 30
0.0
 11
77.24899999999999
 21
1165.835
 31
0.0
  0
LINE
  5
116
330
1E
100
AcDbEntity
  8
0
100
AcDbLine
 10
74.79899999999999
 20
1165.835
 30
0.0
 11
74.79899999999999
 21
1163.835
 31
0.0
  0
LINE
  5
117
330
1E
100
AcDbEntity
  8
0
100
AcDbLine
 10
74.79899999999999
 20
1165.835
 30
0.0
 11
76.73100000000001
 21
1165.835
 31
0.0
  0
LINE
  5
118
330
1E
100
AcDbEntity
  8
0
100
AcDbLine
 10
84.495
 20
1165.835
 30
0.0
 11
84.495
 21
1163.835
 31
0.0
  0
LINE
  5
119
330
1E
100
AcDbEntity
  8
0
100
AcDbLine
 10
84.495
 20
1165.835
 30
0.0
 11
85.01299999999998
 21
1165.835
 31
0.0
  0
LINE
  5
11A
330
1E
100
AcDbEntity
  8
0
100
AcDbLine
 10
82.56400000000009
 20
1165.835
 30
0.0
 11
82.56400000000009
 21
1163.835
 31
0.0
  0
LINE
  5
11B
330
1E
100
AcDbEntity
  8
0
100
AcDbLine
 10
82.56400000000009
 20
1165.835
 30
0.0
 11
84.495
 21
1165.835
 31
0.0
  0
LINE
  5
11C
330
1E
100
AcDbEntity
  8
0
100
AcDbLine
 10
80.61300000000001
 20
1165.835
 30
0.0
 11
80.61300000000001
 21
1163.835
 31
0.0
  0
LINE
  5
11D
330
1E
100
AcDbEntity
  8
0
100
AcDbLine
 10
80.61300000000001
 20
1165.835
 30
0.0
 11
81.13100000000001
 21
1165.835
 31
0.0
  0
LINE
  5
11E
330
1E
100
AcDbEntity
  8
0
100
AcDbLine
 10
78.681
 20
1165.835
 30
0.0
 11
78.681
 21
1163.835
 31
0.0
  0
LINE
  5
11F
330
1E
100
AcDbEntity
  8
0
100
AcDbLine
 10
78.681
 20
1165.835
 30
0.0
 11
80.61300000000001
 21
1165.835
 31
0.0
  0
LINE
  5
120
330
1E
100
AcDbEntity
  8
0
100
AcDbLine
 10
78.366
 20
1165.835
 30
0.0
 11
78.366
 21
1163.835
 31
0.0
  0
LINE
  5
121
330
1E
100
AcDbEntity
  8
0
100
AcDbLine
 10
78.366
 20
1165.835
 30
0.0
 11
78.681
 21
1165.835
 31
0.0
  0
LINE
  5
122
330
1E
100
AcDbEntity
  8
0
100
AcDbLine
 10
77.24899999999999
 20
1165.835
 30
0.0
 11
78.366
 21
1165.835
 31
0.0
  0
LINE
  5
123
330
1E
100
AcDbEntity
  8
0
100
AcDbLine
 10
77.24899999999999
 20
1165.835
 30
0.0
 11
77.24899999999999
 21
1163.835
 31
0.0
  0
LINE
  5
124
330
1E
100
AcDbEntity
  8
0
100
AcDbLine
 10
76.634
 20
1163.835
 30
0.0
 11
77.634
 21
1163.835
 31
0.0
  0
LINE
  5
125
330
1E
100
AcDbEntity
  8
0
100
AcDbLine
 10
76.634
 20
1163.835
 30
0.0
 11
78.366
 21
1163.835
 31
0.0
  0
LINE
  5
126
330
1E
100
AcDbEntity
  8
0
100
AcDbLine
 10
89.0
 20
1165.835
 30
0.0
 11
89.0
 21
1163.835
 31
0.0
  0
LINE
  5
127
330
1E
100
AcDbEntity
  8
0
100
AcDbLine
 10
89.0
 20
1165.835
 30
0.0
 11
91.0
 21
1165.835
 31
0.0
  0
LINE
  5
128
330
1E
100
AcDbEntity
  8
0
100
AcDbLine
 10
89.0
 20
1163.835
 30
0.0
 11
89.0
 21
1165.835
 31
0.0
  0
LINE
  5
129
330
1E
100
AcDbEntity
  8
0
100
AcDbLine
 10
89.0
 20
1163.835
 30
0.0
 11
91.0
 21
1163.835
 31
0.0
  0
LINE
  5
12A
330
1E
100
AcDbEntity
  8
0
100
AcDbLine
 10
91.0
 20
1163.835
 30
0.0
 11
91.0
 21
1165.835
 31
0.0
  0
LINE
  5
12B
330
1E
100
AcDbEntity
  8
0
100
AcDbLine
 10
90.0
 20
1165.835
 30
0.0
 11
112.9
 21
1165.835
 31
0.0
  0
LINE
  5
12C
330
1E
100
AcDbEntity
  8
0
100
AcDbLine
 10
85.01299999999998
 20
1165.835
 30
0.0
 11
89.0
 21
1165.835
 31
0.0
  0
LINE
  5
12D
330
1E
100
AcDbEntity
  8
0
100
AcDbLine
 10
85.01299999999998
 20
1165.835
 30
0.0
 11
85.01299999999998
 21
1163.835
 31
0.0
  0
LINE
  5
12E
330
1E
100
AcDbEntity
  8
0
100
AcDbLine
 10
81.13100000000001
 20
1165.835
 30
0.0
 11
82.56400000000009
 21
1165.835
 31
0.0
  0
LINE
  5
12F
330
1E
100
AcDbEntity
  8
0
100
AcDbLine
 10
81.13100000000001
 20
1165.835
 30
0.0
 11
81.13100000000001
 21
1163.835
 31
0.0
  0
LINE
  5
130
330
1E
100
AcDbEntity
  8
0
100
AcDbLine
 10
74.444
 20
1165.835
 30
0.0
 11
74.79899999999999
 21
1165.835
 31
0.0
  0
LINE
  5
131
330
1E
100
AcDbEntity
  8
0
100
AcDbLine
 10
74.444
 20
1165.835
 30
0.0
 11
74.444
 21
1163.835
 31
0.0
  0
LINE
  5
132
330
1E
100
AcDbEntity
  8
0
100
AcDbLine
 10
64.366
 20
1165.835
 30
0.0
 11
65.0
 21
1165.835
 31
0.0
  0
LINE
  5
133
330
1E
100
AcDbEntity
  8
0
100
AcDbLine
 10
64.366
 20
1165.835
 30
0.0
 11
64.366
 21
1163.835
 31
0.0
  0
LINE
  5
134
330
1E
100
AcDbEntity
  8
0
100
AcDbLine
 10
57.591
 20
1165.835
 30
0.0
 11
61.0090000000001
 21
1165.835
 31
0.0
  0
LINE
  5
135
330
1E
100
AcDbEntity
  8
0
100
AcDbLine
 10
57.591
 20
1165.835
 30
0.0
 11
57.591
 21
1163.835
 31
0.0
  0
LINE
  5
136
330
1E
100
AcDbEntity
  8
0
100
AcDbLine
 10
45.8
 20
1165.835
 30
0.0
 11
46.63399999999999
 21
1165.835
 31
0.0
  0
LINE
  5
137
330
1E
100
AcDbEntity
  8
0
100
AcDbLine
 10
45.8
 20
1165.835
 30
0.0
 11
67.09999999999999
 21
1165.835
 31
0.0
  0
LINE
  5
138
330
1E
100
AcDbEntity
  8
0
100
AcDbLine
 10
39.06499999999999
 20
1165.835
 30
0.0
 11
39.795
 21
1165.835
 31
0.0
  0
LINE
  5
139
330
1E
100
AcDbEntity
  8
0
100
AcDbLine
 10
39.06499999999999
 20
1165.835
 30
0.0
 11
39.06499999999999
 21
1163.835
 31
0.0
  0
LINE
  5
13A
330
1E
100
AcDbEntity
  8
0
100
AcDbLine
 10
44.601
 20
1165.835
 30
0.0
 11
45.8
 21
1165.835
 31
0.0
  0
LINE
  5
13B
330
1E
100
AcDbEntity
  8
0
100
AcDbLine
 10
44.601
 20
1165.835
 30
0.0
 11
44.601
 21
1163.835
 31
0.0
  0
LINE
  5
13C
330
1E
100
AcDbEntity
  8
0
100
AcDbLine
 10
32.01699999999999
 20
1165.835
 30
0.0
 11
35.0
 21
1165.835
 31
0.0
  0
LINE
  5
13D
330
1E
100
AcDbEntity
  8
0
100
AcDbLine
 10
32.01699999999999
 20
1165.835
 30
0.0
 11
32.01699999999999
 21
1163.835
 31
0.0
  0
LINE
  5
13E
330
1E
100
AcDbEntity
  8
0
100
AcDbLine
 10
27.2
 20
1165.835
 30
0.0
 11
28.878
 21
1165.835
 31
0.0
  0
LINE
  5
13F
330
1E
100
AcDbEntity
  8
0
100
AcDbLine
 10
27.2
 20
1165.835
 30
0.0
 11
45.8
 21
1165.835
 31
0.0
  0
LINE
  5
140
330
1E
100
AcDbEntity
  8
0
100
AcDbLine
 10
22.0
 20
1165.835
 30
0.0
 11
22.12599999999999
 21
1165.835
 31
0.0
  0
LINE
  5
141
330
1E
100
AcDbEntity
  8
0
100
AcDbLine
 10
22.0
 20
1165.835
 30
0.0
 11
22.0
 21
1163.835
 31
0.0
  0
LINE
  5
142
330
1E
100
AcDbEntity
  8
0
100
AcDbLine
 10
24.576
 20
1165.835
 30
0.0
 11
27.2
 21
1165.835
 31
0.0
  0
LINE
  5
143
330
1E
100
AcDbEntity
  8
0
100
AcDbLine
 10
24.576
 20
1165.835
 30
0.0
 11
24.576
 21
1163.835
 31
0.0
  0
LINE
  5
144
330
1E
100
AcDbEntity
  8
0
100
AcDbLine
 10
18.62
 20
1165.835
 30
0.0
 11
20.0
 21
1165.835
 31
0.0
  0
LINE
  5
145
330
1E
100
AcDbEntity
  8
0
100
AcDbLine
 10
18.62
 20
1165.835
 30
0.0
 11
18.62
 21
1163.835
 31
0.0
  0
LINE
  5
146
330
1E
100
AcDbEntity
  8
0
100
AcDbLine
 10
12.9
 20
1165.835
 30
0.0
 11
15.88799999999999
 21
1165.835
 31
0.0
  0
LINE
  5
147
330
1E
100
AcDbEntity
  8
0
100
AcDbLine
 10
12.9
 20
1165.835
 30
0.0
 11
27.2
 21
1165.835
 31
0.0
  0
LINE
  5
148
330
1E
100
AcDbEntity
  8
0
100
AcDbLine
 10
6.99999999999999
 20
1165.835
 30
0.0
 11
7.63699999999999
 21
1165.835
 31
0.0
  0
LINE
  5
149
330
1E
100
AcDbEntity
  8
0
100
AcDbLine
 10
6.99999999999999
 20
1165.835
 30
0.0
 11
6.99999999999999
 21
1163.835
 31
0.0
  0
LINE
  5
14A
330
1E
100
AcDbEntity
  8
0
100
AcDbLine
 10
10.08699999999999
 20
1165.835
 30
0.0
 11
12.9
 21
1165.835
 31
0.0
  0
LINE
  5
14B
330
1E
100
AcDbEntity
  8
0
100
AcDbLine
 10
10.08699999999999
 20
1165.835
 30
0.0
 11
10.08699999999999
 21
1163.835
 31
0.0
  0
LINE
  5
14C
330
1E
100
AcDbEntity
  8
0
100
AcDbLine
 10
4.199999999999979
 20
1165.835
 30
0.0
 11
4.99999999999999
 21
1165.835
 31
0.0
  0
LINE
  5
14D
330
1E
100
AcDbEntity
  8
0
100
AcDbLine
 10
4.199999999999979
 20
1165.835
 30
0.0
 11
12.9
 21
1165.835
 31
0.0
  0
LINE
  5
14E
330
1E
100
AcDbEntity
  8
0
100
AcDbLine
 10
3.299999999999999
 20
1166.835
 30
0.0
 11
12.09999999999999
 21
1166.835
 31
0.0
  0
LINE
  5
14F
330
1E
100
AcDbEntity
  8
0
100
AcDbLine
 10
90.0
 20
1166.835
 30
0.0
 11
113.1
 21
1166.835
 31
0.0
  0
LINE
  5
150
330
1E
100
AcDbEntity
  8
0
100
AcDbLine
 10
66.90000000000001
 20
1166.835
 30
0.0
 11
90.0
 21
1166.835
 31
0.0
  0
LINE
  5
151
330
1E
100
AcDbEntity
  8
0
100
AcDbLine
 10
45.3
 20
1166.835
 30
0.0
 11
66.90000000000001
 21
1166.835
 31
0.0
  0
LINE
  5
152
330
1E
100
AcDbEntity
  8
0
100
AcDbLine
 10
26.4
 20
1166.835
 30
0.0
 11
45.3
 21
1166.835
 31
0.0
  0
LINE
  5
153
330
1E
100
AcDbEntity
  8
0
100
AcDbLine
 10
12.09999999999999
 20
1166.835
 30
0.0
 11
26.4
 21
1166.835
 31
0.0
  0
LINE
  5
154
330
1E
100
AcDbEntity
  8
0
100
AcDbLine
 10
3.299999999999999
 20
1175.834999999999
 30
0.0
 11
12.09999999999999
 21
1175.834999999999
 31
0.0
  0
LINE
  5
155
330
1E
100
AcDbEntity
  8
0
100
AcDbLine
 10
90.0
 20
1175.834999999999
 30
0.0
 11
113.1
 21
1175.834999999999
 31
0.0
  0
LINE
  5
156
330
1E
100
AcDbEntity
  8
0
100
AcDbLine
 10
66.90000000000001
 20
1175.834999999999
 30
0.0
 11
90.0
 21
1175.834999999999
 31
0.0
  0
LINE
  5
157
330
1E
100
AcDbEntity
  8
0
100
AcDbLine
 10
45.3
 20
1175.834999999999
 30
0.0
 11
66.90000000000001
 21
1175.834999999999
 31
0.0
  0
LINE
  5
158
330
1E
100
AcDbEntity
  8
0
100
AcDbLine
 10
26.4
 20
1175.834999999999
 30
0.0
 11
45.3
 21
1175.834999999999
 31
0.0
  0
LINE
  5
159
330
1E
100
AcDbEntity
  8
0
100
AcDbLine
 10
12.09999999999999
 20
1175.834999999999
 30
0.0
 11
26.4
 21
1175.834999999999
 31
0.0
  0
LINE
  5
15A
330
1E
100
AcDbEntity
  8
0
100
AcDbLine
 10
3.299999999999999
 20
1175.834999999999
 30
0.0
 11
12.09999999999999
 21
1175.834999999999
 31
0.0
  0
LINE
  5
15B
330
1E
100
AcDbEntity
  8
0
100
AcDbLine
 10
-0.0000000000000107
 20
1175.834999999999
 30
0.0
 11
3.299999999999999
 21
1175.834999999999
 31
0.0
  0
LINE
  5
15C
330
1E
100
AcDbEntity
  8
0
100
AcDbLine
 10
-0.0000000000000107
 20
1175.834999999999
 30
0.0
 11
0.9999999999999889
 21
1176.835
 31
0.0
  0
LINE
  5
15D
330
1E
100
AcDbEntity
  8
0
100
AcDbLine
 10
3.299999999999999
 20
1166.835
 30
0.0
 11
12.09999999999999
 21
1166.835
 31
0.0
  0
LINE
  5
15E
330
1E
100
AcDbEntity
  8
0
100
AcDbLine
 10
-0.0000000000000112
 20
1166.835
 30
0.0
 11
3.299999999999999
 21
1166.835
 31
0.0
  0
LINE
  5
15F
330
1E
100
AcDbEntity
  8
0
100
AcDbLine
 10
-0.0000000000000107
 20
1177.835
 30
0.0
 11
3.299999999999999
 21
1177.835
 31
0.0
  0
LINE
  5
160
330
1E
100
AcDbEntity
  8
0
100
AcDbLine
 10
-0.0000000000000106
 20
1177.835
 30
0.0
 11
-0.0000000000000082
 21
1216.835
 31
0.0
  0
LINE
  5
161
330
1E
100
AcDbEntity
  8
0
100
AcDbLine
 10
-0.0000000000000106
 20
1177.835
 30
0.0
 11
0.9999999999999889
 21
1176.835
 31
0.0
  0
LINE
  5
162
330
1E
100
AcDbEntity
  8
0
100
AcDbLine
 10
-0.0000000000000106
 20
1177.835
 30
0.0
 11
3.299999999999999
 21
1177.835
 31
0.0
  0
LINE
  5
163
330
1E
100
AcDbEntity
  8
0
100
AcDbLine
 10
-0.0000000000000082
 20
1216.835
 30
0.0
 11
3.299999999999999
 21
1216.835
 31
0.0
  0
LINE
  5
164
330
1E
100
AcDbEntity
  8
0
100
AcDbLine
 10
-0.0000000000000082
 20
1216.835
 30
0.0
 11
0.9999999999999921
 21
1217.835
 31
0.0
  0
LINE
  5
165
330
1E
100
AcDbEntity
  8
0
100
AcDbLine
 10
0.9999999999999889
 20
1176.835
 30
0.0
 11
4.199999999999979
 21
1176.835
 31
0.0
  0
LINE
  5
166
330
1E
100
AcDbEntity
  8
0
100
AcDbLine
 10
90.0
 20
1176.835
 30
0.0
 11
112.9
 21
1176.835
 31
0.0
  0
LINE
  5
167
330
1E
100
AcDbEntity
  8
0
100
AcDbLine
 10
67.09999999999999
 20
1176.835
 30
0.0
 11
90.0
 21
1176.835
 31
0.0
  0
LINE
  5
168
330
1E
100
AcDbEntity
  8
0
100
AcDbLine
 10
45.8
 20
1176.835
 30
0.0
 11
67.09999999999999
 21
1176.835
 31
0.0
  0
LINE
  5
169
330
1E
100
AcDbEntity
  8
0
100
AcDbLine
 10
27.2
 20
1176.835
 30
0.0
 11
45.8
 21
1176.835
 31
0.0
  0
LINE
  5
16A
330
1E
100
AcDbEntity
  8
0
100
AcDbLine
 10
12.9
 20
1176.835
 30
0.0
 11
27.2
 21
1176.835
 31
0.0
  0
LINE
  5
16B
330
1E
100
AcDbEntity
  8
0
100
AcDbLine
 10
3.299999999999999
 20
1177.835
 30
0.0
 11
12.09999999999999
 21
1177.835
 31
0.0
  0
LINE
  5
16C
330
1E
100
AcDbEntity
  8
0
100
AcDbLine
 10
90.0
 20
1177.835
 30
0.0
 11
113.1
 21
1177.835
 31
0.0
  0
LINE
  5
16D
330
1E
100
AcDbEntity
  8
0
100
AcDbLine
 10
66.90000000000001
 20
1177.835
 30
0.0
 11
90.0
 21
1177.835
 31
0.0
  0
LINE
  5
16E
330
1E
100
AcDbEntity
  8
0
100
AcDbLine
 10
45.3
 20
1177.835
 30
0.0
 11
66.90000000000001
 21
1177.835
 31
0.0
  0
LINE
  5
16F
330
1E
100
AcDbEntity
  8
0
100
AcDbLine
 10
26.4
 20
1177.835
 30
0.0
 11
45.3
 21
1177.835
 31
0.0
  0
LINE
  5
170
330
1E
100
AcDbEntity
  8
0
100
AcDbLine
 10
90.0
 20
1216.835
 30
0.0
 11
113.1
 21
1216.835
 31
0.0
  0
LINE
  5
171
330
1E
100
AcDbEntity
  8
0
100
AcDbLine
 10
66.90000000000001
 20
1216.835
 30
0.0
 11
90.0
 21
1216.835
 31
0.0
  0
LINE
  5
172
330
1E
100
AcDbEntity
  8
0
100
AcDbLine
 10
45.3
 20
1216.835
 30
0.0
 11
66.90000000000001
 21
1216.835
 31
0.0
  0
LINE
  5
173
330
1E
100
AcDbEntity
  8
0
100
AcDbLine
 10
26.4
 20
1216.835
 30
0.0
 11
45.3
 21
1216.835
 31
0.0
  0
LINE
  5
174
330
1E
100
AcDbEntity
  8
0
100
AcDbLine
 10
12.09999999999999
 20
1216.835
 30
0.0
 11
26.4
 21
1216.835
 31
0.0
  0
LINE
  5
175
330
1E
100
AcDbEntity
  8
0
100
AcDbLine
 10
3.299999999999999
 20
1216.835
 30
0.0
 11
12.09999999999999
 21
1216.835
 31
0.0
  0
LINE
  5
176
330
1E
100
AcDbEntity
  8
0
100
AcDbLine
 10
12.09999999999999
 20
1177.835
 30
0.0
 11
26.4
 21
1177.835
 31
0.0
  0
LINE
  5
177
330
1E
100
AcDbEntity
  8
0
100
AcDbLine
 10
3.299999999999999
 20
1177.835
 30
0.0
 11
12.09999999999999
 21
1177.835
 31
0.0
  0
LINE
  5
178
330
1E
100
AcDbEntity
  8
0
100
AcDbLine
 10
4.199999999999979
 20
1176.835
 30
0.0
 11
12.9
 21
1176.835
 31
0.0
  0
LINE
  5
179
330
1E
100
AcDbEntity
  8
0
100
AcDbLine
 10
0.9999999999999889
 20
1176.835
 30
0.0
 11
4.199999999999979
 21
1176.835
 31
0.0
  0
LINE
  5
17A
330
1E
100
AcDbEntity
  8
0
100
AcDbLine
 10
0.9999999999999921
 20
1217.835
 30
0.0
 11
4.199999999999979
 21
1217.835
 31
0.0
  0
LINE
  5
17B
330
1E
100
AcDbEntity
  8
0
100
AcDbLine
 10
4.199999999999979
 20
1217.835
 30
0.0
 11
12.9
 21
1217.835
 31
0.0
  0
LINE
  5
17C
330
1E
100
AcDbEntity
  8
0
100
AcDbLine
 10
90.0
 20
1217.835
 30
0.0
 11
112.9
 21
1217.835
 31
0.0
  0
LINE
  5
17D
330
1E
100
AcDbEntity
  8
0
100
AcDbLine
 10
67.09999999999999
 20
1217.835
 30
0.0
 11
90.0
 21
1217.835
 31
0.0
  0
LINE
  5
17E
330
1E
100
AcDbEntity
  8
0
100
AcDbLine
 10
45.8
 20
1217.835
 30
0.0
 11
67.09999999999999
 21
1217.835
 31
0.0
  0
LINE
  5
17F
330
1E
100
AcDbEntity
  8
0
100
AcDbLine
 10
27.2
 20
1217.835
 30
0.0
 11
45.8
 21
1217.835
 31
0.0
  0
LINE
  5
180
330
1E
100
AcDbEntity
  8
0
100
AcDbLine
 10
12.9
 20
1217.835
 30
0.0
 11
27.2
 21
1217.835
 31
0.0
  0
LINE
  5
181
330
1E
100
AcDbEntity
  8
0
100
AcDbLine
 10
4.199999999999979
 20
1217.835
 30
0.0
 11
12.9
 21
1217.835
 31
0.0
  0
LINE
  5
182
330
1E
100
AcDbEntity
  8
0
100
AcDbLine
 10
0.9999999999999921
 20
1217.835
 30
0.0
 11
4.199999999999979
 21
1217.835
 31
0.0
  0
LINE
  5
183
330
1E
100
AcDbEntity
  8
0
100
AcDbLine
 10
-0.0000000000000082
 20
1216.835
 30
0.0
 11
0.9999999999999921
 21
1217.835
 31
0.0
  0
LINE
  5
184
330
1E
100
AcDbEntity
  8
0
100
AcDbLine
 10
-0.0000000000000082
 20
1216.835
 30
0.0
 11
3.299999999999999
 21
1216.835
 31
0.0
  0
LINE
  5
185
330
1E
100
AcDbEntity
  8
0
100
AcDbLine
 10
-0.0000000000000105
 20
1177.835
 30
0.0
 11
0.9999999999999889
 21
1176.835
 31
0.0
  0
LINE
  5
186
330
1E
100
AcDbEntity
  8
0
100
AcDbLine
 10
-0.0000000000000107
 20
1175.834999999999
 30
0.0
 11
0.9999999999999889
 21
1176.835
 31
0.0
  0
LINE
  5
187
330
1E
100
AcDbEntity
  8
0
100
AcDbLine
 10
-0.0000000000000107
 20
1175.834999999999
 30
0.0
 11
3.299999999999999
 21
1175.834999999999
 31
0.0
  0
LINE
  5
188
330
1E
100
AcDbEntity
  8
0
100
AcDbLine
 10
-0.0000000000000113
 20
1166.835
 30
0.0
 11
0.9999999999999889
 21
1165.835
 31
0.0
  0
LINE
  5
189
330
1E
100
AcDbEntity
  8
0
100
AcDbLine
 10
-0.0000000000000113
 20
1166.835
 30
0.0
 11
-0.0000000000000107
 21
1175.834999999999
 31
0.0
  0
LINE
  5
18A
330
1E
100
AcDbEntity
  8
0
100
AcDbLine
 10
-0.0000000000000113
 20
1166.835
 30
0.0
 11
3.299999999999999
 21
1166.835
 31
0.0
  0
LINE
  5
18B
330
1E
100
AcDbEntity
  8
0
100
AcDbLine
 10
0.9999999999999889
 20
1165.835
 30
0.0
 11
4.199999999999979
 21
1165.835
 31
0.0
  0
LINE
  5
18C
330
1E
100
AcDbEntity
  8
0
100
AcDbLine
 10
94.98700000000001
 20
1163.835
 30
0.0
 11
94.98700000000001
 21
1165.835
 31
0.0
  0
LINE
  5
18D
330
1E
100
AcDbEntity
  8
0
100
AcDbLine
 10
94.98700000000001
 20
1163.835
 30
0.0
 11
95.50499999999999
 21
1163.835
 31
0.0
  0
LINE
  5
18E
330
1E
100
AcDbEntity
  8
0
100
AcDbLine
 10
94.98700000000001
 20
1163.835
 30
0.0
 11
96.919
 21
1163.835
 31
0.0
  0
LINE
  5
18F
330
1E
100
AcDbEntity
  8
0
100
AcDbLine
 10
95.50499999999999
 20
1163.835
 30
0.0
 11
95.50499999999999
 21
1165.835
 31
0.0
  0
LINE
  5
190
330
1E
100
AcDbEntity
  8
0
100
AcDbLine
 10
95.50499999999999
 20
1163.835
 30
0.0
 11
97.436
 21
1163.835
 31
0.0
  0
LINE
  5
191
330
1E
100
AcDbEntity
  8
0
100
AcDbLine
 10
94.98700000000001
 20
1165.835
 30
0.0
 11
95.50499999999999
 21
1165.835
 31
0.0
  0
LINE
  5
192
330
1E
100
AcDbEntity
  8
0
100
AcDbLine
 10
94.98700000000001
 20
1165.835
 30
0.0
 11
94.98700000000001
 21
1163.835
 31
0.0
  0
LINE
  5
193
330
1E
100
AcDbEntity
  8
0
100
AcDbLine
 10
95.50499999999999
 20
1165.835
 30
0.0
 11
97.436
 21
1165.835
 31
0.0
  0
LINE
  5
194
330
1E
100
AcDbEntity
  8
0
100
AcDbLine
 10
95.50499999999999
 20
1165.835
 30
0.0
 11
95.50499999999999
 21
1163.835
 31
0.0
  0
LINE
  5
195
330
1E
100
AcDbEntity
  8
0
100
AcDbLine
 10
96.919
 20
1163.835
 30
0.0
 11
97.436
 21
1163.835
 31
0.0
  0
LINE
  5
196
330
1E
100
AcDbEntity
  8
0
100
AcDbLine
 10
91.0
 20
1165.835
 30
0.0
 11
94.98700000000001
 21
1165.835
 31
0.0
  0
LINE
  5
197
330
1E
100
AcDbEntity
  8
0
100
AcDbLine
 10
91.0
 20
1165.835
 30
0.0
 11
91.0
 21
1163.835
 31
0.0
  0
LINE
  5
198
330
1E
100
AcDbEntity
  8
0
100
AcDbLine
 10
87.70000000000001
 20
1276.035
 30
0.0
 11
97.1
 21
1303.935
 31
0.0
  0
LINE
  5
199
330
1E
100
AcDbEntity
  8
0
100
AcDbLine
 10
81.90000000000001
 20
1247.135
 30
0.0
 11
87.70000000000001
 21
1276.035
 31
0.0
  0
LINE
  5
19A
330
1E
100
AcDbEntity
  8
0
100
AcDbLine
 10
80.0
 20
1217.835
 30
0.0
 11
81.90000000000001
 21
1247.135
 31
0.0
  0
LINE
  5
19B
330
1E
100
AcDbEntity
  8
0
100
AcDbLine
 10
98.869
 20
1165.835
 30
0.0
 11
99.387
 21
1165.835
 31
0.0
  0
LINE
  5
19C
330
1E
100
AcDbEntity
  8
0
100
AcDbLine
 10
98.869
 20
1165.835
 30
0.0
 11
98.869
 21
1163.835
 31
0.0
  0
LINE
  5
19D
330
1E
100
AcDbEntity
  8
0
100
AcDbLine
 10
98.869
 20
1163.835
 30
0.0
 11
98.869
 21
1165.835
 31
0.0
  0
LINE
  5
19E
330
1E
100
AcDbEntity
  8
0
100
AcDbLine
 10
98.869
 20
1163.835
 30
0.0
 11
99.387
 21
1163.835
 31
0.0
  0
LINE
  5
19F
330
1E
100
AcDbEntity
  8
0
100
AcDbLine
 10
98.869
 20
1163.835
 30
0.0
 11
100.801
 21
1163.835
 31
0.0
  0
LINE
  5
1A0
330
1E
100
AcDbEntity
  8
0
100
AcDbLine
 10
99.387
 20
1163.835
 30
0.0
 11
99.387
 21
1165.835
 31
0.0
  0
LINE
  5
1A1
330
1E
100
AcDbEntity
  8
0
100
AcDbLine
 10
99.387
 20
1163.835
 30
0.0
 11
101.319
 21
1163.835
 31
0.0
  0
LINE
  5
1A2
330
1E
100
AcDbEntity
  8
0
100
AcDbLine
 10
99.387
 20
1165.835
 30
0.0
 11
101.319
 21
1165.835
 31
0.0
  0
LINE
  5
1A3
330
1E
100
AcDbEntity
  8
0
100
AcDbLine
 10
99.387
 20
1165.835
 30
0.0
 11
99.387
 21
1163.835
 31
0.0
  0
LINE
  5
1A4
330
1E
100
AcDbEntity
  8
0
100
AcDbLine
 10
97.436
 20
1163.835
 30
0.0
 11
97.436
 21
1165.835
 31
0.0
  0
LINE
  5
1A5
330
1E
100
AcDbEntity
  8
0
100
AcDbLine
 10
97.436
 20
1165.835
 30
0.0
 11
98.869
 21
1165.835
 31
0.0
  0
LINE
  5
1A6
330
1E
100
AcDbEntity
  8
0
100
AcDbLine
 10
97.436
 20
1165.835
 30
0.0
 11
97.436
 21
1163.835
 31
0.0
  0
LINE
  5
1A7
330
1E
100
AcDbEntity
  8
0
100
AcDbLine
 10
100.634
 20
1163.835
 30
0.0
 11
101.634
 21
1163.835
 31
0.0
  0
LINE
  5
1A8
330
1E
100
AcDbEntity
  8
0
100
AcDbLine
 10
100.634
 20
1163.835
 30
0.0
 11
102.366
 21
1163.835
 31
0.0
  0
LINE
  5
1A9
330
1E
100
AcDbEntity
  8
0
100
AcDbLine
 10
100.801
 20
1163.835
 30
0.0
 11
101.319
 21
1163.835
 31
0.0
  0
LINE
  5
1AA
330
1E
100
AcDbEntity
  8
0
100
AcDbLine
 10
101.634
 20
1163.835
 30
0.0
 11
101.634
 21
1165.835
 31
0.0
  0
LINE
  5
1AB
330
1E
100
AcDbEntity
  8
0
100
AcDbLine
 10
101.634
 20
1163.835
 30
0.0
 11
103.366
 21
1163.835
 31
0.0
  0
LINE
  5
1AC
330
1E
100
AcDbEntity
  8
0
100
AcDbLine
 10
102.366
 20
1163.835
 30
0.0
 11
103.366
 21
1163.835
 31
0.0
  0
LINE
  5
1AD
330
1E
100
AcDbEntity
  8
0
100
AcDbLine
 10
102.751
 20
1163.835
 30
0.0
 11
102.751
 21
1165.835
 31
0.0
  0
LINE
  5
1AE
330
1E
100
AcDbEntity
  8
0
100
AcDbLine
 10
102.751
 20
1163.835
 30
0.0
 11
103.2689999999999
 21
1163.835
 31
0.0
  0
LINE
  5
1AF
330
1E
100
AcDbEntity
  8
0
100
AcDbLine
 10
102.751
 20
1163.835
 30
0.0
 11
104.6829999999999
 21
1163.835
 31
0.0
  0
LINE
  5
1B0
330
1E
100
AcDbEntity
  8
0
100
AcDbLine
 10
103.2689999999999
 20
1163.835
 30
0.0
 11
103.2689999999999
 21
1165.835
 31
0.0
  0
LINE
  5
1B1
330
1E
100
AcDbEntity
  8
0
100
AcDbLine
 10
103.2689999999999
 20
1163.835
 30
0.0
 11
105.201
 21
1163.835
 31
0.0
  0
LINE
  5
1B2
330
1E
100
AcDbEntity
  8
0
100
AcDbLine
 10
106.634
 20
1163.835
 30
0.0
 11
106.634
 21
1165.835
 31
0.0
  0
LINE
  5
1B3
330
1E
100
AcDbEntity
  8
0
100
AcDbLine
 10
106.634
 20
1163.835
 30
0.0
 11
107.151
 21
1163.835
 31
0.0
  0
LINE
  5
1B4
330
1E
100
AcDbEntity
  8
0
100
AcDbLine
 10
106.634
 20
1163.835
 30
0.0
 11
108.566
 21
1163.835
 31
0.0
  0
LINE
  5
1B5
330
1E
100
AcDbEntity
  8
0
100
AcDbLine
 10
104.6829999999999
 20
1163.835
 30
0.0
 11
105.201
 21
1163.835
 31
0.0
  0
LINE
  5
1B6
330
1E
100
AcDbEntity
  8
0
100
AcDbLine
 10
105.201
 20
1163.835
 30
0.0
 11
105.201
 21
1165.835
 31
0.0
  0
LINE
  5
1B7
330
1E
100
AcDbEntity
  8
0
100
AcDbLine
 10
101.319
 20
1163.835
 30
0.0
 11
101.319
 21
1165.835
 31
0.0
  0
LINE
  5
1B8
330
1E
100
AcDbEntity
  8
0
100
AcDbLine
 10
105.556
 20
1163.835
 30
0.0
 11
105.556
 21
1165.835
 31
0.0
  0
LINE
  5
1B9
330
1E
100
AcDbEntity
  8
0
100
AcDbLine
 10
105.556
 20
1163.835
 30
0.0
 11
106.971
 21
1163.835
 31
0.0
  0
LINE
  5
1BA
330
1E
100
AcDbEntity
  8
0
100
AcDbLine
 10
107.151
 20
1163.835
 30
0.0
 11
107.151
 21
1165.835
 31
0.0
  0
LINE
  5
1BB
330
1E
100
AcDbEntity
  8
0
100
AcDbLine
 10
107.151
 20
1163.835
 30
0.0
 11
109.0829999999999
 21
1163.835
 31
0.0
  0
LINE
  5
1BC
330
1E
100
AcDbEntity
  8
0
100
AcDbLine
 10
108.566
 20
1163.835
 30
0.0
 11
109.0829999999999
 21
1163.835
 31
0.0
  0
LINE
  5
1BD
330
1E
100
AcDbEntity
  8
0
100
AcDbLine
 10
109.0829999999999
 20
1163.835
 30
0.0
 11
109.0829999999999
 21
1165.835
 31
0.0
  0
LINE
  5
1BE
330
1E
100
AcDbEntity
  8
0
100
AcDbLine
 10
108.1339999999999
 20
1163.835
 30
0.0
 11
109.1339999999999
 21
1163.835
 31
0.0
  0
LINE
  5
1BF
330
1E
100
AcDbEntity
  8
0
100
AcDbLine
 10
108.1339999999999
 20
1163.835
 30
0.0
 11
109.8659999999999
 21
1163.835
 31
0.0
  0
LINE
  5
1C0
330
1E
100
AcDbEntity
  8
0
100
AcDbLine
 10
110.516
 20
1163.835
 30
0.0
 11
110.516
 21
1165.835
 31
0.0
  0
LINE
  5
1C1
330
1E
100
AcDbEntity
  8
0
100
AcDbLine
 10
110.516
 20
1163.835
 30
0.0
 11
111.0339999999999
 21
1163.835
 31
0.0
  0
LINE
  5
1C2
330
1E
100
AcDbEntity
  8
0
100
AcDbLine
 10
110.516
 20
1163.835
 30
0.0
 11
112.4479999999999
 21
1163.835
 31
0.0
  0
LINE
  5
1C3
330
1E
100
AcDbEntity
  8
0
100
AcDbLine
 10
111.0339999999999
 20
1163.835
 30
0.0
 11
111.0339999999999
 21
1165.835
 31
0.0
  0
LINE
  5
1C4
330
1E
100
AcDbEntity
  8
0
100
AcDbLine
 10
111.0339999999999
 20
1163.835
 30
0.0
 11
112.966
 21
1163.835
 31
0.0
  0
LINE
  5
1C5
330
1E
100
AcDbEntity
  8
0
100
AcDbLine
 10
109.1339999999999
 20
1163.835
 30
0.0
 11
109.1339999999999
 21
1165.835
 31
0.0
  0
LINE
  5
1C6
330
1E
100
AcDbEntity
  8
0
100
AcDbLine
 10
109.1339999999999
 20
1163.835
 30
0.0
 11
110.8659999999999
 21
1163.835
 31
0.0
  0
LINE
  5
1C7
330
1E
100
AcDbEntity
  8
0
100
AcDbLine
 10
109.8659999999999
 20
1163.835
 30
0.0
 11
110.8659999999999
 21
1163.835
 31
0.0
  0
LINE
  5
1C8
330
1E
100
AcDbEntity
  8
0
100
AcDbLine
 10
106.971
 20
1163.835
 30
0.0
 11
108.3849999999999
 21
1163.835
 31
0.0
  0
LINE
  5
1C9
330
1E
100
AcDbEntity
  8
0
100
AcDbLine
 10
109.419
 20
1163.835
 30
0.0
 11
111.151
 21
1163.835
 31
0.0
  0
LINE
  5
1CA
330
1E
100
AcDbEntity
  8
0
100
AcDbLine
 10
109.419
 20
1163.835
 30
0.0
 11
110.419
 21
1163.835
 31
0.0
  0
LINE
  5
1CB
330
1E
100
AcDbEntity
  8
0
100
AcDbLine
 10
111.151
 20
1163.835
 30
0.0
 11
112.151
 21
1163.835
 31
0.0
  0
LINE
  5
1CC
330
1E
100
AcDbEntity
  8
0
100
AcDbLine
 10
110.419
 20
1163.835
 30
0.0
 11
112.151
 21
1163.835
 31
0.0
  0
LINE
  5
1CD
330
1E
100
AcDbEntity
  8
0
100
AcDbLine
 10
112.4479999999999
 20
1163.835
 30
0.0
 11
112.966
 21
1163.835
 31
0.0
  0
LINE
  5
1CE
330
1E
100
AcDbEntity
  8
0
100
AcDbLine
 10
111.957
 20
1163.835
 30
0.0
 11
113.8889999999999
 21
1163.835
 31
0.0
  0
LINE
  5
1CF
330
1E
100
AcDbEntity
  8
0
100
AcDbLine
 10
111.957
 20
1163.835
 30
0.0
 11
112.4749999999999
 21
1163.835
 31
0.0
  0
LINE
  5
1D0
330
1E
100
AcDbEntity
  8
0
100
AcDbLine
 10
101.634
 20
1165.835
 30
0.0
 11
102.751
 21
1165.835
 31
0.0
  0
LINE
  5
1D1
330
1E
100
AcDbEntity
  8
0
100
AcDbLine
 10
101.634
 20
1165.835
 30
0.0
 11
101.634
 21
1163.835
 31
0.0
  0
LINE
  5
1D2
330
1E
100
AcDbEntity
  8
0
100
AcDbLine
 10
102.751
 20
1165.835
 30
0.0
 11
103.2689999999999
 21
1165.835
 31
0.0
  0
LINE
  5
1D3
330
1E
100
AcDbEntity
  8
0
100
AcDbLine
 10
102.751
 20
1165.835
 30
0.0
 11
102.751
 21
1163.835
 31
0.0
  0
LINE
  5
1D4
330
1E
100
AcDbEntity
  8
0
100
AcDbLine
 10
103.2689999999999
 20
1165.835
 30
0.0
 11
105.201
 21
1165.835
 31
0.0
  0
LINE
  5
1D5
330
1E
100
AcDbEntity
  8
0
100
AcDbLine
 10
103.2689999999999
 20
1165.835
 30
0.0
 11
103.2689999999999
 21
1163.835
 31
0.0
  0
LINE
  5
1D6
330
1E
100
AcDbEntity
  8
0
100
AcDbLine
 10
101.319
 20
1165.835
 30
0.0
 11
101.319
 21
1163.835
 31
0.0
  0
LINE
  5
1D7
330
1E
100
AcDbEntity
  8
0
100
AcDbLine
 10
101.319
 20
1165.835
 30
0.0
 11
101.634
 21
1165.835
 31
0.0
  0
LINE
  5
1D8
330
1E
100
AcDbEntity
  8
0
100
AcDbLine
 10
106.634
 20
1165.835
 30
0.0
 11
107.151
 21
1165.835
 31
0.0
  0
LINE
  5
1D9
330
1E
100
AcDbEntity
  8
0
100
AcDbLine
 10
106.634
 20
1165.835
 30
0.0
 11
106.634
 21
1163.835
 31
0.0
  0
LINE
  5
1DA
330
1E
100
AcDbEntity
  8
0
100
AcDbLine
 10
107.151
 20
1165.835
 30
0.0
 11
109.0829999999999
 21
1165.835
 31
0.0
  0
LINE
  5
1DB
330
1E
100
AcDbEntity
  8
0
100
AcDbLine
 10
107.151
 20
1165.835
 30
0.0
 11
107.151
 21
1163.835
 31
0.0
  0
LINE
  5
1DC
330
1E
100
AcDbEntity
  8
0
100
AcDbLine
 10
110.516
 20
1165.835
 30
0.0
 11
111.0339999999999
 21
1165.835
 31
0.0
  0
LINE
  5
1DD
330
1E
100
AcDbEntity
  8
0
100
AcDbLine
 10
110.516
 20
1165.835
 30
0.0
 11
110.516
 21
1163.835
 31
0.0
  0
LINE
  5
1DE
330
1E
100
AcDbEntity
  8
0
100
AcDbLine
 10
111.0339999999999
 20
1165.835
 30
0.0
 11
112.966
 21
1165.835
 31
0.0
  0
LINE
  5
1DF
330
1E
100
AcDbEntity
  8
0
100
AcDbLine
 10
111.0339999999999
 20
1165.835
 30
0.0
 11
111.0339999999999
 21
1163.835
 31
0.0
  0
LINE
  5
1E0
330
1E
100
AcDbEntity
  8
0
100
AcDbLine
 10
109.0829999999999
 20
1165.835
 30
0.0
 11
109.1339999999999
 21
1165.835
 31
0.0
  0
LINE
  5
1E1
330
1E
100
AcDbEntity
  8
0
100
AcDbLine
 10
109.0829999999999
 20
1165.835
 30
0.0
 11
109.0829999999999
 21
1163.835
 31
0.0
  0
LINE
  5
1E2
330
1E
100
AcDbEntity
  8
0
100
AcDbLine
 10
109.1339999999999
 20
1165.835
 30
0.0
 11
110.516
 21
1165.835
 31
0.0
  0
LINE
  5
1E3
330
1E
100
AcDbEntity
  8
0
100
AcDbLine
 10
109.1339999999999
 20
1165.835
 30
0.0
 11
109.1339999999999
 21
1163.835
 31
0.0
  0
LINE
  5
1E4
330
1E
100
AcDbEntity
  8
0
100
AcDbLine
 10
105.556
 20
1165.835
 30
0.0
 11
106.634
 21
1165.835
 31
0.0
  0
LINE
  5
1E5
330
1E
100
AcDbEntity
  8
0
100
AcDbLine
 10
105.556
 20
1165.835
 30
0.0
 11
105.556
 21
1163.835
 31
0.0
  0
LINE
  5
1E6
330
1E
100
AcDbEntity
  8
0
100
AcDbLine
 10
112.4749999999999
 20
1163.835
 30
0.0
 11
114.407
 21
1163.835
 31
0.0
  0
LINE
  5
1E7
330
1E
100
AcDbEntity
  8
0
100
AcDbLine
 10
112.966
 20
1163.835
 30
0.0
 11
112.966
 21
1165.835
 31
0.0
  0
LINE
  5
1E8
330
1E
100
AcDbEntity
  8
0
100
AcDbLine
 10
113.8889999999999
 20
1163.835
 30
0.0
 11
113.8889999999999
 21
1165.835
 31
0.0
  0
LINE
  5
1E9
330
1E
100
AcDbEntity
  8
0
100
AcDbLine
 10
113.8889999999999
 20
1163.835
 30
0.0
 11
114.407
 21
1163.835
 31
0.0
  0
LINE
  5
1EA
330
1E
100
AcDbEntity
  8
0
100
AcDbLine
 10
114.407
 20
1163.835
 30
0.0
 11
114.407
 21
1165.835
 31
0.0
  0
LINE
  5
1EB
330
1E
100
AcDbEntity
  8
0
100
AcDbLine
 10
115.0
 20
1163.835
 30
0.0
 11
115.0
 21
1165.835
 31
0.0
  0
LINE
  5
1EC
330
1E
100
AcDbEntity
  8
0
100
AcDbLine
 10
112.966
 20
1165.835
 30
0.0
 11
113.8889999999999
 21
1165.835
 31
0.0
  0
LINE
  5
1ED
330
1E
100
AcDbEntity
  8
0
100
AcDbLine
 10
112.966
 20
1165.835
 30
0.0
 11
112.966
 21
1163.835
 31
0.0
  0
LINE
  5
1EE
330
1E
100
AcDbEntity
  8
0
100
AcDbLine
 10
113.8889999999999
 20
1165.835
 30
0.0
 11
114.407
 21
1165.835
 31
0.0
  0
LINE
  5
1EF
330
1E
100
AcDbEntity
  8
0
100
AcDbLine
 10
113.8889999999999
 20
1165.835
 30
0.0
 11
113.8889999999999
 21
1163.835
 31
0.0
  0
LINE
  5
1F0
330
1E
100
AcDbEntity
  8
0
100
AcDbLine
 10
114.407
 20
1165.835
 30
0.0
 11
115.0
 21
1165.835
 31
0.0
  0
LINE
  5
1F1
330
1E
100
AcDbEntity
  8
0
100
AcDbLine
 10
114.407
 20
1165.835
 30
0.0
 11
114.407
 21
1163.835
 31
0.0
  0
LINE
  5
1F2
330
1E
100
AcDbEntity
  8
0
100
AcDbLine
 10
113.0
 20
1163.835
 30
0.0
 11
115.0
 21
1163.835
 31
0.0
  0
LINE
  5
1F3
330
1E
100
AcDbEntity
  8
0
100
AcDbLine
 10
112.9
 20
1165.835
 30
0.0
 11
134.1999999999999
 21
1165.835
 31
0.0
  0
LINE
  5
1F4
330
1E
100
AcDbEntity
  8
0
100
AcDbLine
 10
112.9
 20
1217.835
 30
0.0
 11
134.1999999999999
 21
1217.835
 31
0.0
  0
LINE
  5
1F5
330
1E
100
AcDbEntity
  8
0
100
AcDbLine
 10
113.1
 20
1216.835
 30
0.0
 11
134.6999999999999
 21
1216.835
 31
0.0
  0
LINE
  5
1F6
330
1E
100
AcDbEntity
  8
0
100
AcDbLine
 10
113.1
 20
1177.835
 30
0.0
 11
134.6999999999999
 21
1177.835
 31
0.0
  0
LINE
  5
1F7
330
1E
100
AcDbEntity
  8
0
100
AcDbLine
 10
112.9
 20
1176.835
 30
0.0
 11
134.1999999999999
 21
1176.835
 31
0.0
  0
LINE
  5
1F8
330
1E
100
AcDbEntity
  8
0
100
AcDbLine
 10
113.1
 20
1175.834999999999
 30
0.0
 11
134.6999999999999
 21
1175.834999999999
 31
0.0
  0
LINE
  5
1F9
330
1E
100
AcDbEntity
  8
0
100
AcDbLine
 10
113.1
 20
1166.835
 30
0.0
 11
134.6999999999999
 21
1166.835
 31
0.0
  0
LINE
  5
1FA
330
1E
100
AcDbEntity
  8
0
100
AcDbLine
 10
105.201
 20
1165.835
 30
0.0
 11
105.556
 21
1165.835
 31
0.0
  0
LINE
  5
1FB
330
1E
100
AcDbEntity
  8
0
100
AcDbLine
 10
105.201
 20
1165.835
 30
0.0
 11
105.201
 21
1163.835
 31
0.0
  0
LINE
  5
1FC
330
1E
100
AcDbEntity
  8
0
100
AcDbLine
 10
115.6339999999999
 20
1163.835
 30
0.0
 11
115.6339999999999
 21
1165.835
 31
0.0
  0
LINE
  5
1FD
330
1E
100
AcDbEntity
  8
0
100
AcDbLine
 10
115.6339999999999
 20
1163.835
 30
0.0
 11
116.6339999999999
 21
1163.835
 31
0.0
  0
LINE
  5
1FE
330
1E
100
AcDbEntity
  8
0
100
AcDbLine
 10
115.6339999999999
 20
1163.835
 30
0.0
 11
117.3659999999999
 21
1163.835
 31
0.0
  0
LINE
  5
1FF
330
1E
100
AcDbEntity
  8
0
100
AcDbLine
 10
116.6339999999999
 20
1163.835
 30
0.0
 11
116.6339999999999
 21
1165.835
 31
0.0
  0
LINE
  5
200
330
1E
100
AcDbEntity
  8
0
100
AcDbLine
 10
116.6339999999999
 20
1163.835
 30
0.0
 11
118.3659999999999
 21
1163.835
 31
0.0
  0
LINE
  5
201
330
1E
100
AcDbEntity
  8
0
100
AcDbLine
 10
117.3659999999999
 20
1163.835
 30
0.0
 11
118.3659999999999
 21
1163.835
 31
0.0
  0
LINE
  5
202
330
1E
100
AcDbEntity
  8
0
100
AcDbLine
 10
116.1629999999999
 20
1163.835
 30
0.0
 11
117.577
 21
1163.835
 31
0.0
  0
LINE
  5
203
330
1E
100
AcDbEntity
  8
0
100
AcDbLine
 10
118.3659999999999
 20
1163.835
 30
0.0
 11
118.3659999999999
 21
1165.835
 31
0.0
  0
LINE
  5
204
330
1E
100
AcDbEntity
  8
0
100
AcDbLine
 10
123.134
 20
1163.835
 30
0.0
 11
123.134
 21
1165.835
 31
0.0
  0
LINE
  5
205
330
1E
100
AcDbEntity
  8
0
100
AcDbLine
 10
123.134
 20
1163.835
 30
0.0
 11
124.134
 21
1163.835
 31
0.0
  0
LINE
  5
206
330
1E
100
AcDbEntity
  8
0
100
AcDbLine
 10
123.134
 20
1163.835
 30
0.0
 11
124.866
 21
1163.835
 31
0.0
  0
LINE
  5
207
330
1E
100
AcDbEntity
  8
0
100
AcDbLine
 10
124.134
 20
1163.835
 30
0.0
 11
124.134
 21
1165.835
 31
0.0
  0
LINE
  5
208
330
1E
100
AcDbEntity
  8
0
100
AcDbLine
 10
124.134
 20
1163.835
 30
0.0
 11
125.866
 21
1163.835
 31
0.0
  0
LINE
  5
209
330
1E
100
AcDbEntity
  8
0
100
AcDbLine
 10
122.4089999999999
 20
1163.835
 30
0.0
 11
122.4089999999999
 21
1165.835
 31
0.0
  0
LINE
  5
20A
330
1E
100
AcDbEntity
  8
0
100
AcDbLine
 10
122.4089999999999
 20
1163.835
 30
0.0
 11
124.141
 21
1163.835
 31
0.0
  0
LINE
  5
20B
330
1E
100
AcDbEntity
  8
0
100
AcDbLine
 10
122.4089999999999
 20
1163.835
 30
0.0
 11
123.4089999999999
 21
1163.835
 31
0.0
  0
LINE
  5
20C
330
1E
100
AcDbEntity
  8
0
100
AcDbLine
 10
124.866
 20
1163.835
 30
0.0
 11
125.866
 21
1163.835
 31
0.0
  0
LINE
  5
20D
330
1E
100
AcDbEntity
  8
0
100
AcDbLine
 10
125.866
 20
1163.835
 30
0.0
 11
125.866
 21
1165.835
 31
0.0
  0
LINE
  5
20E
330
1E
100
AcDbEntity
  8
0
100
AcDbLine
 10
124.141
 20
1163.835
 30
0.0
 11
125.141
 21
1163.835
 31
0.0
  0
LINE
  5
20F
330
1E
100
AcDbEntity
  8
0
100
AcDbLine
 10
123.4089999999999
 20
1163.835
 30
0.0
 11
125.141
 21
1163.835
 31
0.0
  0
LINE
  5
210
330
1E
100
AcDbEntity
  8
0
100
AcDbLine
 10
117.577
 20
1163.835
 30
0.0
 11
118.991
 21
1163.835
 31
0.0
  0
LINE
  5
211
330
1E
100
AcDbEntity
  8
0
100
AcDbLine
 10
115.6339999999999
 20
1165.835
 30
0.0
 11
116.6339999999999
 21
1165.835
 31
0.0
  0
LINE
  5
212
330
1E
100
AcDbEntity
  8
0
100
AcDbLine
 10
115.6339999999999
 20
1165.835
 30
0.0
 11
115.6339999999999
 21
1163.835
 31
0.0
  0
LINE
  5
213
330
1E
100
AcDbEntity
  8
0
100
AcDbLine
 10
116.6339999999999
 20
1165.835
 30
0.0
 11
118.3659999999999
 21
1165.835
 31
0.0
  0
LINE
  5
214
330
1E
100
AcDbEntity
  8
0
100
AcDbLine
 10
116.6339999999999
 20
1165.835
 30
0.0
 11
116.6339999999999
 21
1163.835
 31
0.0
  0
LINE
  5
215
330
1E
100
AcDbEntity
  8
0
100
AcDbLine
 10
123.134
 20
1165.835
 30
0.0
 11
124.134
 21
1165.835
 31
0.0
  0
LINE
  5
216
330
1E
100
AcDbEntity
  8
0
100
AcDbLine
 10
123.134
 20
1165.835
 30
0.0
 11
123.134
 21
1163.835
 31
0.0
  0
LINE
  5
217
330
1E
100
AcDbEntity
  8
0
100
AcDbLine
 10
124.134
 20
1165.835
 30
0.0
 11
125.866
 21
1165.835
 31
0.0
  0
LINE
  5
218
330
1E
100
AcDbEntity
  8
0
100
AcDbLine
 10
124.134
 20
1165.835
 30
0.0
 11
124.134
 21
1163.835
 31
0.0
  0
LINE
  5
219
330
1E
100
AcDbEntity
  8
0
100
AcDbLine
 10
122.4089999999999
 20
1165.835
 30
0.0
 11
123.134
 21
1165.835
 31
0.0
  0
LINE
  5
21A
330
1E
100
AcDbEntity
  8
0
100
AcDbLine
 10
122.4089999999999
 20
1165.835
 30
0.0
 11
122.4089999999999
 21
1163.835
 31
0.0
  0
LINE
  5
21B
330
1E
100
AcDbEntity
  8
0
100
AcDbLine
 10
118.3659999999999
 20
1165.835
 30
0.0
 11
118.991
 21
1165.835
 31
0.0
  0
LINE
  5
21C
330
1E
100
AcDbEntity
  8
0
100
AcDbLine
 10
118.3659999999999
 20
1165.835
 30
0.0
 11
118.3659999999999
 21
1163.835
 31
0.0
  0
LINE
  5
21D
330
1E
100
AcDbEntity
  8
0
100
AcDbLine
 10
118.991
 20
1163.835
 30
0.0
 11
118.991
 21
1165.835
 31
0.0
  0
LINE
  5
21E
330
1E
100
AcDbEntity
  8
0
100
AcDbLine
 10
126.4459999999999
 20
1163.835
 30
0.0
 11
126.4459999999999
 21
1165.835
 31
0.0
  0
LINE
  5
21F
330
1E
100
AcDbEntity
  8
0
100
AcDbLine
 10
126.4459999999999
 20
1163.835
 30
0.0
 11
128.3779999999999
 21
1163.835
 31
0.0
  0
LINE
  5
220
330
1E
100
AcDbEntity
  8
0
100
AcDbLine
 10
126.4459999999999
 20
1163.835
 30
0.0
 11
126.964
 21
1163.835
 31
0.0
  0
LINE
  5
221
330
1E
100
AcDbEntity
  8
0
100
AcDbLine
 10
126.4459999999999
 20
1165.835
 30
0.0
 11
126.77
 21
1165.835
 31
0.0
  0
LINE
  5
222
330
1E
100
AcDbEntity
  8
0
100
AcDbLine
 10
126.4459999999999
 20
1165.835
 30
0.0
 11
126.4459999999999
 21
1163.835
 31
0.0
  0
LINE
  5
223
330
1E
100
AcDbEntity
  8
0
100
AcDbLine
 10
125.866
 20
1165.835
 30
0.0
 11
126.4459999999999
 21
1165.835
 31
0.0
  0
LINE
  5
224
330
1E
100
AcDbEntity
  8
0
100
AcDbLine
 10
125.866
 20
1165.835
 30
0.0
 11
125.866
 21
1163.835
 31
0.0
  0
LINE
  5
225
330
1E
100
AcDbEntity
  8
0
100
AcDbLine
 10
118.991
 20
1165.835
 30
0.0
 11
122.4089999999999
 21
1165.835
 31
0.0
  0
LINE
  5
226
330
1E
100
AcDbEntity
  8
0
100
AcDbLine
 10
118.991
 20
1165.835
 30
0.0
 11
118.991
 21
1163.835
 31
0.0
  0
LINE
  5
227
330
1E
100
AcDbEntity
  8
0
100
AcDbLine
 10
115.0
 20
1165.835
 30
0.0
 11
115.6339999999999
 21
1165.835
 31
0.0
  0
LINE
  5
228
330
1E
100
AcDbEntity
  8
0
100
AcDbLine
 10
115.0
 20
1165.835
 30
0.0
 11
115.0
 21
1163.835
 31
0.0
  0
LINE
  5
229
330
1E
100
AcDbEntity
  8
0
100
AcDbLine
 10
107.0
 20
1270.835
 30
0.0
 11
115.627
 21
1296.301
 31
0.0
  0
LINE
  5
22A
330
1E
100
AcDbEntity
  8
0
100
AcDbLine
 10
101.8
 20
1244.535
 30
0.0
 11
107.0
 21
1270.835
 31
0.0
  0
LINE
  5
22B
330
1E
100
AcDbEntity
  8
0
100
AcDbLine
 10
100.0
 20
1217.835
 30
0.0
 11
101.8
 21
1244.535
 31
0.0
  0
LINE
  5
22C
330
1E
100
AcDbEntity
  8
0
100
AcDbLine
 10
115.627
 20
1296.301
 30
0.0
 11
127.5039999999999
 21
1320.344
 31
0.0
  0
LINE
  5
22D
330
1E
100
AcDbEntity
  8
0
100
AcDbLine
 10
97.1
 20
1303.935
 30
0.0
 11
110.1779999999999
 21
1330.312
 31
0.0
  0
LINE
  5
22E
330
1E
100
AcDbEntity
  8
0
100
AcDbLine
 10
110.1779999999999
 20
1330.312
 30
0.0
 11
126.509
 21
1354.849999999999
 31
0.0
  0
LINE
  5
22F
330
1E
100
AcDbEntity
  8
0
100
AcDbLine
 10
126.77
 20
1163.835
 30
0.0
 11
126.77
 21
1165.835
 31
0.0
  0
LINE
  5
230
330
1E
100
AcDbEntity
  8
0
100
AcDbLine
 10
126.77
 20
1163.835
 30
0.0
 11
128.184
 21
1163.835
 31
0.0
  0
LINE
  5
231
330
1E
100
AcDbEntity
  8
0
100
AcDbLine
 10
126.77
 20
1165.835
 30
0.0
 11
128.184
 21
1165.835
 31
0.0
  0
LINE
  5
232
330
1E
100
AcDbEntity
  8
0
100
AcDbLine
 10
126.77
 20
1165.835
 30
0.0
 11
126.77
 21
1163.835
 31
0.0
  0
LINE
  5
233
330
1E
100
AcDbEntity
  8
0
100
AcDbLine
 10
126.964
 20
1163.835
 30
0.0
 11
128.896
 21
1163.835
 31
0.0
  0
LINE
  5
234
330
1E
100
AcDbEntity
  8
0
100
AcDbLine
 10
128.184
 20
1163.835
 30
0.0
 11
129.5979999999999
 21
1163.835
 31
0.0
  0
LINE
  5
235
330
1E
100
AcDbEntity
  8
0
100
AcDbLine
 10
128.184
 20
1163.835
 30
0.0
 11
128.184
 21
1165.835
 31
0.0
  0
LINE
  5
236
330
1E
100
AcDbEntity
  8
0
100
AcDbLine
 10
129.5979999999999
 20
1163.835
 30
0.0
 11
129.5979999999999
 21
1165.835
 31
0.0
  0
LINE
  5
237
330
1E
100
AcDbEntity
  8
0
100
AcDbLine
 10
128.3779999999999
 20
1163.835
 30
0.0
 11
128.896
 21
1163.835
 31
0.0
  0
LINE
  5
238
330
1E
100
AcDbEntity
  8
0
100
AcDbLine
 10
130.6339999999999
 20
1163.835
 30
0.0
 11
130.6339999999999
 21
1165.835
 31
0.0
  0
LINE
  5
239
330
1E
100
AcDbEntity
  8
0
100
AcDbLine
 10
130.6339999999999
 20
1163.835
 30
0.0
 11
131.6339999999999
 21
1163.835
 31
0.0
  0
LINE
  5
23A
330
1E
100
AcDbEntity
  8
0
100
AcDbLine
 10
130.6339999999999
 20
1163.835
 30
0.0
 11
132.366
 21
1163.835
 31
0.0
  0
LINE
  5
23B
330
1E
100
AcDbEntity
  8
0
100
AcDbLine
 10
131.6339999999999
 20
1163.835
 30
0.0
 11
131.6339999999999
 21
1165.835
 31
0.0
  0
LINE
  5
23C
330
1E
100
AcDbEntity
  8
0
100
AcDbLine
 10
131.6339999999999
 20
1163.835
 30
0.0
 11
133.366
 21
1163.835
 31
0.0
  0
LINE
  5
23D
330
1E
100
AcDbEntity
  8
0
100
AcDbLine
 10
132.366
 20
1163.835
 30
0.0
 11
133.366
 21
1163.835
 31
0.0
  0
LINE
  5
23E
330
1E
100
AcDbEntity
  8
0
100
AcDbLine
 10
133.366
 20
1163.835
 30
0.0
 11
133.366
 21
1165.835
 31
0.0
  0
LINE
  5
23F
330
1E
100
AcDbEntity
  8
0
100
AcDbLine
 10
130.0
 20
1163.835
 30
0.0
 11
130.0
 21
1165.835
 31
0.0
  0
LINE
  5
240
330
1E
100
AcDbEntity
  8
0
100
AcDbLine
 10
128.184
 20
1165.835
 30
0.0
 11
129.5979999999999
 21
1165.835
 31
0.0
  0
LINE
  5
241
330
1E
100
AcDbEntity
  8
0
100
AcDbLine
 10
128.184
 20
1165.835
 30
0.0
 11
128.184
 21
1163.835
 31
0.0
  0
LINE
  5
242
330
1E
100
AcDbEntity
  8
0
100
AcDbLine
 10
130.6339999999999
 20
1165.835
 30
0.0
 11
131.6339999999999
 21
1165.835
 31
0.0
  0
LINE
  5
243
330
1E
100
AcDbEntity
  8
0
100
AcDbLine
 10
130.6339999999999
 20
1165.835
 30
0.0
 11
130.6339999999999
 21
1163.835
 31
0.0
  0
LINE
  5
244
330
1E
100
AcDbEntity
  8
0
100
AcDbLine
 10
131.6339999999999
 20
1165.835
 30
0.0
 11
133.366
 21
1165.835
 31
0.0
  0
LINE
  5
245
330
1E
100
AcDbEntity
  8
0
100
AcDbLine
 10
131.6339999999999
 20
1165.835
 30
0.0
 11
131.6339999999999
 21
1163.835
 31
0.0
  0
LINE
  5
246
330
1E
100
AcDbEntity
  8
0
100
AcDbLine
 10
129.5979999999999
 20
1165.835
 30
0.0
 11
130.0
 21
1165.835
 31
0.0
  0
LINE
  5
247
330
1E
100
AcDbEntity
  8
0
100
AcDbLine
 10
129.5979999999999
 20
1165.835
 30
0.0
 11
129.5979999999999
 21
1163.835
 31
0.0
  0
LINE
  5
248
330
1E
100
AcDbEntity
  8
0
100
AcDbLine
 10
128.0
 20
1163.835
 30
0.0
 11
130.0
 21
1163.835
 31
0.0
  0
LINE
  5
249
330
1E
100
AcDbEntity
  8
0
100
AcDbLine
 10
133.366
 20
1165.835
 30
0.0
 11
134.1999999999999
 21
1165.835
 31
0.0
  0
LINE
  5
24A
330
1E
100
AcDbEntity
  8
0
100
AcDbLine
 10
133.366
 20
1165.835
 30
0.0
 11
133.366
 21
1163.835
 31
0.0
  0
LINE
  5
24B
330
1E
100
AcDbEntity
  8
0
100
AcDbLine
 10
130.0
 20
1165.835
 30
0.0
 11
130.6339999999999
 21
1165.835
 31
0.0
  0
LINE
  5
24C
330
1E
100
AcDbEntity
  8
0
100
AcDbLine
 10
130.0
 20
1165.835
 30
0.0
 11
130.0
 21
1163.835
 31
0.0
  0
LINE
  5
24D
330
1E
100
AcDbEntity
  8
0
100
AcDbLine
 10
135.399
 20
1163.835
 30
0.0
 11
135.399
 21
1165.835
 31
0.0
  0
LINE
  5
24E
330
1E
100
AcDbEntity
  8
0
100
AcDbLine
 10
135.399
 20
1163.835
 30
0.0
 11
137.131
 21
1163.835
 31
0.0
  0
LINE
  5
24F
330
1E
100
AcDbEntity
  8
0
100
AcDbLine
 10
135.399
 20
1163.835
 30
0.0
 11
136.399
 21
1163.835
 31
0.0
  0
LINE
  5
250
330
1E
100
AcDbEntity
  8
0
100
AcDbLine
 10
137.131
 20
1163.835
 30
0.0
 11
137.131
 21
1165.835
 31
0.0
  0
LINE
  5
251
330
1E
100
AcDbEntity
  8
0
100
AcDbLine
 10
137.131
 20
1163.835
 30
0.0
 11
138.131
 21
1163.835
 31
0.0
  0
LINE
  5
252
330
1E
100
AcDbEntity
  8
0
100
AcDbLine
 10
136.399
 20
1163.835
 30
0.0
 11
138.131
 21
1163.835
 31
0.0
  0
LINE
  5
253
330
1E
100
AcDbEntity
  8
0
100
AcDbLine
 10
137.376
 20
1163.835
 30
0.0
 11
137.376
 21
1165.835
 31
0.0
  0
LINE
  5
254
330
1E
100
AcDbEntity
  8
0
100
AcDbLine
 10
137.376
 20
1163.835
 30
0.0
 11
138.7899999999999
 21
1163.835
 31
0.0
  0
LINE
  5
255
330
1E
100
AcDbEntity
  8
0
100
AcDbLine
 10
138.7899999999999
 20
1163.835
 30
0.0
 11
140.205
 21
1163.835
 31
0.0
  0
LINE
  5
256
330
1E
100
AcDbEntity
  8
0
100
AcDbLine
 10
138.7899999999999
 20
1163.835
 30
0.0
 11
138.7899999999999
 21
1165.835
 31
0.0
  0
LINE
  5
257
330
1E
100
AcDbEntity
  8
0
100
AcDbLine
 10
140.205
 20
1163.835
 30
0.0
 11
140.205
 21
1165.835
 31
0.0
  0
LINE
  5
258
330
1E
100
AcDbEntity
  8
0
100
AcDbLine
 10
140.935
 20
1163.835
 30
0.0
 11
140.935
 21
1165.835
 31
0.0
  0
LINE
  5
259
330
1E
100
AcDbEntity
  8
0
100
AcDbLine
 10
140.935
 20
1163.835
 30
0.0
 11
142.867
 21
1163.835
 31
0.0
  0
LINE
  5
25A
330
1E
100
AcDbEntity
  8
0
100
AcDbLine
 10
140.935
 20
1163.835
 30
0.0
 11
141.453
 21
1163.835
 31
0.0
  0
LINE
  5
25B
330
1E
100
AcDbEntity
  8
0
100
AcDbLine
 10
142.867
 20
1163.835
 30
0.0
 11
142.867
 21
1165.835
 31
0.0
  0
LINE
  5
25C
330
1E
100
AcDbEntity
  8
0
100
AcDbLine
 10
142.867
 20
1163.835
 30
0.0
 11
143.3849999999999
 21
1163.835
 31
0.0
  0
LINE
  5
25D
330
1E
100
AcDbEntity
  8
0
100
AcDbLine
 10
135.399
 20
1165.835
 30
0.0
 11
137.131
 21
1165.835
 31
0.0
  0
LINE
  5
25E
330
1E
100
AcDbEntity
  8
0
100
AcDbLine
 10
135.399
 20
1165.835
 30
0.0
 11
135.399
 21
1163.835
 31
0.0
  0
LINE
  5
25F
330
1E
100
AcDbEntity
  8
0
100
AcDbLine
 10
137.131
 20
1165.835
 30
0.0
 11
137.376
 21
1165.835
 31
0.0
  0
LINE
  5
260
330
1E
100
AcDbEntity
  8
0
100
AcDbLine
 10
137.131
 20
1165.835
 30
0.0
 11
137.131
 21
1163.835
 31
0.0
  0
LINE
  5
261
330
1E
100
AcDbEntity
  8
0
100
AcDbLine
 10
137.376
 20
1165.835
 30
0.0
 11
138.7899999999999
 21
1165.835
 31
0.0
  0
LINE
  5
262
330
1E
100
AcDbEntity
  8
0
100
AcDbLine
 10
137.376
 20
1165.835
 30
0.0
 11
137.376
 21
1163.835
 31
0.0
  0
LINE
  5
263
330
1E
100
AcDbEntity
  8
0
100
AcDbLine
 10
138.7899999999999
 20
1165.835
 30
0.0
 11
140.205
 21
1165.835
 31
0.0
  0
LINE
  5
264
330
1E
100
AcDbEntity
  8
0
100
AcDbLine
 10
138.7899999999999
 20
1165.835
 30
0.0
 11
138.7899999999999
 21
1163.835
 31
0.0
  0
LINE
  5
265
330
1E
100
AcDbEntity
  8
0
100
AcDbLine
 10
140.935
 20
1165.835
 30
0.0
 11
142.867
 21
1165.835
 31
0.0
  0
LINE
  5
266
330
1E
100
AcDbEntity
  8
0
100
AcDbLine
 10
140.935
 20
1165.835
 30
0.0
 11
140.935
 21
1163.835
 31
0.0
  0
LINE
  5
267
330
1E
100
AcDbEntity
  8
0
100
AcDbLine
 10
142.867
 20
1165.835
 30
0.0
 11
143.3849999999999
 21
1165.835
 31
0.0
  0
LINE
  5
268
330
1E
100
AcDbEntity
  8
0
100
AcDbLine
 10
142.867
 20
1165.835
 30
0.0
 11
142.867
 21
1163.835
 31
0.0
  0
LINE
  5
269
330
1E
100
AcDbEntity
  8
0
100
AcDbLine
 10
141.453
 20
1163.835
 30
0.0
 11
143.3849999999999
 21
1163.835
 31
0.0
  0
LINE
  5
26A
330
1E
100
AcDbEntity
  8
0
100
AcDbLine
 10
148.39
 20
1163.835
 30
0.0
 11
150.122
 21
1163.835
 31
0.0
  0
LINE
  5
26B
330
1E
100
AcDbEntity
  8
0
100
AcDbLine
 10
148.39
 20
1163.835
 30
0.0
 11
149.39
 21
1163.835
 31
0.0
  0
LINE
  5
26C
330
1E
100
AcDbEntity
  8
0
100
AcDbLine
 10
149.39
 20
1163.835
 30
0.0
 11
151.122
 21
1163.835
 31
0.0
  0
LINE
  5
26D
330
1E
100
AcDbEntity
  8
0
100
AcDbLine
 10
147.9829999999999
 20
1163.835
 30
0.0
 11
147.9829999999999
 21
1165.835
 31
0.0
  0
LINE
  5
26E
330
1E
100
AcDbEntity
  8
0
100
AcDbLine
 10
147.9829999999999
 20
1163.835
 30
0.0
 11
149.397
 21
1163.835
 31
0.0
  0
LINE
  5
26F
330
1E
100
AcDbEntity
  8
0
100
AcDbLine
 10
150.122
 20
1163.835
 30
0.0
 11
151.122
 21
1163.835
 31
0.0
  0
LINE
  5
270
330
1E
100
AcDbEntity
  8
0
100
AcDbLine
 10
151.122
 20
1163.835
 30
0.0
 11
151.122
 21
1165.835
 31
0.0
  0
LINE
  5
271
330
1E
100
AcDbEntity
  8
0
100
AcDbLine
 10
149.397
 20
1163.835
 30
0.0
 11
150.811
 21
1163.835
 31
0.0
  0
LINE
  5
272
330
1E
100
AcDbEntity
  8
0
100
AcDbLine
 10
149.397
 20
1163.835
 30
0.0
 11
149.397
 21
1165.835
 31
0.0
  0
LINE
  5
273
330
1E
100
AcDbEntity
  8
0
100
AcDbLine
 10
150.811
 20
1163.835
 30
0.0
 11
150.811
 21
1165.835
 31
0.0
  0
LINE
  5
274
330
1E
100
AcDbEntity
  8
0
100
AcDbLine
 10
143.3849999999999
 20
1163.835
 30
0.0
 11
143.3849999999999
 21
1165.835
 31
0.0
  0
LINE
  5
275
330
1E
100
AcDbEntity
  8
0
100
AcDbLine
 10
147.9829999999999
 20
1165.835
 30
0.0
 11
149.397
 21
1165.835
 31
0.0
  0
LINE
  5
276
330
1E
100
AcDbEntity
  8
0
100
AcDbLine
 10
147.9829999999999
 20
1165.835
 30
0.0
 11
147.9829999999999
 21
1163.835
 31
0.0
  0
LINE
  5
277
330
1E
100
AcDbEntity
  8
0
100
AcDbLine
 10
149.397
 20
1165.835
 30
0.0
 11
150.811
 21
1165.835
 31
0.0
  0
LINE
  5
278
330
1E
100
AcDbEntity
  8
0
100
AcDbLine
 10
149.397
 20
1165.835
 30
0.0
 11
149.397
 21
1163.835
 31
0.0
  0
LINE
  5
279
330
1E
100
AcDbEntity
  8
0
100
AcDbLine
 10
150.811
 20
1165.835
 30
0.0
 11
150.811
 21
1163.835
 31
0.0
  0
LINE
  5
27A
330
1E
100
AcDbEntity
  8
0
100
AcDbLine
 10
150.811
 20
1165.835
 30
0.0
 11
151.122
 21
1165.835
 31
0.0
  0
LINE
  5
27B
330
1E
100
AcDbEntity
  8
0
100
AcDbLine
 10
143.3849999999999
 20
1165.835
 30
0.0
 11
145.0
 21
1165.835
 31
0.0
  0
LINE
  5
27C
330
1E
100
AcDbEntity
  8
0
100
AcDbLine
 10
143.3849999999999
 20
1165.835
 30
0.0
 11
143.3849999999999
 21
1163.835
 31
0.0
  0
LINE
  5
27D
330
1E
100
AcDbEntity
  8
0
100
AcDbLine
 10
145.0
 20
1163.835
 30
0.0
 11
145.0
 21
1165.835
 31
0.0
  0
LINE
  5
27E
330
1E
100
AcDbEntity
  8
0
100
AcDbLine
 10
143.0
 20
1163.835
 30
0.0
 11
145.0
 21
1163.835
 31
0.0
  0
LINE
  5
27F
330
1E
100
AcDbEntity
  8
0
100
AcDbLine
 10
140.205
 20
1165.835
 30
0.0
 11
140.935
 21
1165.835
 31
0.0
  0
LINE
  5
280
330
1E
100
AcDbEntity
  8
0
100
AcDbLine
 10
140.205
 20
1165.835
 30
0.0
 11
140.205
 21
1163.835
 31
0.0
  0
LINE
  5
281
330
1E
100
AcDbEntity
  8
0
100
AcDbLine
 10
155.424
 20
1163.835
 30
0.0
 11
155.424
 21
1165.835
 31
0.0
  0
LINE
  5
282
330
1E
100
AcDbEntity
  8
0
100
AcDbLine
 10
155.424
 20
1163.835
 30
0.0
 11
157.356
 21
1163.835
 31
0.0
  0
LINE
  5
283
330
1E
100
AcDbEntity
  8
0
100
AcDbLine
 10
155.424
 20
1163.835
 30
0.0
 11
155.942
 21
1163.835
 31
0.0
  0
LINE
  5
284
330
1E
100
AcDbEntity
  8
0
100
AcDbLine
 10
157.356
 20
1163.835
 30
0.0
 11
157.356
 21
1165.835
 31
0.0
  0
LINE
  5
285
330
1E
100
AcDbEntity
  8
0
100
AcDbLine
 10
157.356
 20
1163.835
 30
0.0
 11
157.8739999999999
 21
1163.835
 31
0.0
  0
LINE
  5
286
330
1E
100
AcDbEntity
  8
0
100
AcDbLine
 10
157.8739999999999
 20
1163.835
 30
0.0
 11
157.8739999999999
 21
1165.835
 31
0.0
  0
LINE
  5
287
330
1E
100
AcDbEntity
  8
0
100
AcDbLine
 10
155.942
 20
1163.835
 30
0.0
 11
157.8739999999999
 21
1163.835
 31
0.0
  0
LINE
  5
288
330
1E
100
AcDbEntity
  8
0
100
AcDbLine
 10
160.0
 20
1163.835
 30
0.0
 11
160.0
 21
1165.835
 31
0.0
  0
LINE
  5
289
330
1E
100
AcDbEntity
  8
0
100
AcDbLine
 10
155.424
 20
1165.835
 30
0.0
 11
157.356
 21
1165.835
 31
0.0
  0
LINE
  5
28A
330
1E
100
AcDbEntity
  8
0
100
AcDbLine
 10
155.424
 20
1165.835
 30
0.0
 11
155.424
 21
1163.835
 31
0.0
  0
LINE
  5
28B
330
1E
100
AcDbEntity
  8
0
100
AcDbLine
 10
157.356
 20
1165.835
 30
0.0
 11
157.8739999999999
 21
1165.835
 31
0.0
  0
LINE
  5
28C
330
1E
100
AcDbEntity
  8
0
100
AcDbLine
 10
157.356
 20
1165.835
 30
0.0
 11
157.356
 21
1163.835
 31
0.0
  0
LINE
  5
28D
330
1E
100
AcDbEntity
  8
0
100
AcDbLine
 10
158.0
 20
1165.835
 30
0.0
 11
158.0
 21
1163.835
 31
0.0
  0
LINE
  5
28E
330
1E
100
AcDbEntity
  8
0
100
AcDbLine
 10
158.0
 20
1165.835
 30
0.0
 11
160.0
 21
1165.835
 31
0.0
  0
LINE
  5
28F
330
1E
100
AcDbEntity
  8
0
100
AcDbLine
 10
158.0
 20
1163.835
 30
0.0
 11
160.0
 21
1163.835
 31
0.0
  0
LINE
  5
290
330
1E
100
AcDbEntity
  8
0
100
AcDbLine
 10
158.0
 20
1163.835
 30
0.0
 11
158.0
 21
1165.835
 31
0.0
  0
LINE
  5
291
330
1E
100
AcDbEntity
  8
0
100
AcDbLine
 10
151.122
 20
1165.835
 30
0.0
 11
152.8
 21
1165.835
 31
0.0
  0
LINE
  5
292
330
1E
100
AcDbEntity
  8
0
100
AcDbLine
 10
151.122
 20
1165.835
 30
0.0
 11
151.122
 21
1163.835
 31
0.0
  0
LINE
  5
293
330
1E
100
AcDbEntity
  8
0
100
AcDbLine
 10
145.0
 20
1165.835
 30
0.0
 11
147.9829999999999
 21
1165.835
 31
0.0
  0
LINE
  5
294
330
1E
100
AcDbEntity
  8
0
100
AcDbLine
 10
145.0
 20
1165.835
 30
0.0
 11
145.0
 21
1163.835
 31
0.0
  0
LINE
  5
295
330
1E
100
AcDbEntity
  8
0
100
AcDbLine
 10
134.1999999999999
 20
1165.835
 30
0.0
 11
135.399
 21
1165.835
 31
0.0
  0
LINE
  5
296
330
1E
100
AcDbEntity
  8
0
100
AcDbLine
 10
134.1999999999999
 20
1165.835
 30
0.0
 11
152.8
 21
1165.835
 31
0.0
  0
LINE
  5
297
330
1E
100
AcDbEntity
  8
0
100
AcDbLine
 10
157.8739999999999
 20
1165.835
 30
0.0
 11
158.0
 21
1165.835
 31
0.0
  0
LINE
  5
298
330
1E
100
AcDbEntity
  8
0
100
AcDbLine
 10
157.8739999999999
 20
1165.835
 30
0.0
 11
157.8739999999999
 21
1163.835
 31
0.0
  0
LINE
  5
299
330
1E
100
AcDbEntity
  8
0
100
AcDbLine
 10
161.3799999999999
 20
1163.835
 30
0.0
 11
161.3799999999999
 21
1165.835
 31
0.0
  0
LINE
  5
29A
330
1E
100
AcDbEntity
  8
0
100
AcDbLine
 10
161.3799999999999
 20
1163.835
 30
0.0
 11
163.1119999999999
 21
1163.835
 31
0.0
  0
LINE
  5
29B
330
1E
100
AcDbEntity
  8
0
100
AcDbLine
 10
161.3799999999999
 20
1163.835
 30
0.0
 11
162.3799999999999
 21
1163.835
 31
0.0
  0
LINE
  5
29C
330
1E
100
AcDbEntity
  8
0
100
AcDbLine
 10
161.3799999999999
 20
1165.835
 30
0.0
 11
163.1119999999999
 21
1165.835
 31
0.0
  0
LINE
  5
29D
330
1E
100
AcDbEntity
  8
0
100
AcDbLine
 10
161.3799999999999
 20
1165.835
 30
0.0
 11
161.3799999999999
 21
1163.835
 31
0.0
  0
LINE
  5
29E
330
1E
100
AcDbEntity
  8
0
100
AcDbLine
 10
163.1119999999999
 20
1163.835
 30
0.0
 11
163.1119999999999
 21
1165.835
 31
0.0
  0
LINE
  5
29F
330
1E
100
AcDbEntity
  8
0
100
AcDbLine
 10
163.1119999999999
 20
1163.835
 30
0.0
 11
164.1119999999999
 21
1163.835
 31
0.0
  0
LINE
  5
2A0
330
1E
100
AcDbEntity
  8
0
100
AcDbLine
 10
163.1119999999999
 20
1165.835
 30
0.0
 11
164.1119999999999
 21
1165.835
 31
0.0
  0
LINE
  5
2A1
330
1E
100
AcDbEntity
  8
0
100
AcDbLine
 10
163.1119999999999
 20
1165.835
 30
0.0
 11
163.1119999999999
 21
1163.835
 31
0.0
  0
LINE
  5
2A2
330
1E
100
AcDbEntity
  8
0
100
AcDbLine
 10
164.1119999999999
 20
1163.835
 30
0.0
 11
164.1119999999999
 21
1165.835
 31
0.0
  0
LINE
  5
2A3
330
1E
100
AcDbEntity
  8
0
100
AcDbLine
 10
162.3799999999999
 20
1163.835
 30
0.0
 11
164.1119999999999
 21
1163.835
 31
0.0
  0
LINE
  5
2A4
330
1E
100
AcDbEntity
  8
0
100
AcDbLine
 10
164.1119999999999
 20
1165.835
 30
0.0
 11
167.1
 21
1165.835
 31
0.0
  0
LINE
  5
2A5
330
1E
100
AcDbEntity
  8
0
100
AcDbLine
 10
160.0
 20
1165.835
 30
0.0
 11
161.3799999999999
 21
1165.835
 31
0.0
  0
LINE
  5
2A6
330
1E
100
AcDbEntity
  8
0
100
AcDbLine
 10
160.0
 20
1165.835
 30
0.0
 11
160.0
 21
1163.835
 31
0.0
  0
LINE
  5
2A7
330
1E
100
AcDbEntity
  8
0
100
AcDbLine
 10
152.8
 20
1165.835
 30
0.0
 11
155.424
 21
1165.835
 31
0.0
  0
LINE
  5
2A8
330
1E
100
AcDbEntity
  8
0
100
AcDbLine
 10
152.8
 20
1165.835
 30
0.0
 11
167.1
 21
1165.835
 31
0.0
  0
LINE
  5
2A9
330
1E
100
AcDbEntity
  8
0
100
AcDbLine
 10
169.9129999999999
 20
1163.835
 30
0.0
 11
169.9129999999999
 21
1165.835
 31
0.0
  0
LINE
  5
2AA
330
1E
100
AcDbEntity
  8
0
100
AcDbLine
 10
169.9129999999999
 20
1163.835
 30
0.0
 11
171.8449999999999
 21
1163.835
 31
0.0
  0
LINE
  5
2AB
330
1E
100
AcDbEntity
  8
0
100
AcDbLine
 10
169.9129999999999
 20
1163.835
 30
0.0
 11
170.4309999999999
 21
1163.835
 31
0.0
  0
LINE
  5
2AC
330
1E
100
AcDbEntity
  8
0
100
AcDbLine
 10
171.8449999999999
 20
1163.835
 30
0.0
 11
171.8449999999999
 21
1165.835
 31
0.0
  0
LINE
  5
2AD
330
1E
100
AcDbEntity
  8
0
100
AcDbLine
 10
171.8449999999999
 20
1163.835
 30
0.0
 11
172.3629999999999
 21
1163.835
 31
0.0
  0
LINE
  5
2AE
330
1E
100
AcDbEntity
  8
0
100
AcDbLine
 10
172.3629999999999
 20
1163.835
 30
0.0
 11
172.3629999999999
 21
1165.835
 31
0.0
  0
LINE
  5
2AF
330
1E
100
AcDbEntity
  8
0
100
AcDbLine
 10
169.9129999999999
 20
1165.835
 30
0.0
 11
171.8449999999999
 21
1165.835
 31
0.0
  0
LINE
  5
2B0
330
1E
100
AcDbEntity
  8
0
100
AcDbLine
 10
169.9129999999999
 20
1165.835
 30
0.0
 11
169.9129999999999
 21
1163.835
 31
0.0
  0
LINE
  5
2B1
330
1E
100
AcDbEntity
  8
0
100
AcDbLine
 10
171.8449999999999
 20
1165.835
 30
0.0
 11
172.3629999999999
 21
1165.835
 31
0.0
  0
LINE
  5
2B2
330
1E
100
AcDbEntity
  8
0
100
AcDbLine
 10
171.8449999999999
 20
1165.835
 30
0.0
 11
171.8449999999999
 21
1163.835
 31
0.0
  0
LINE
  5
2B3
330
1E
100
AcDbEntity
  8
0
100
AcDbLine
 10
170.4309999999999
 20
1163.835
 30
0.0
 11
172.3629999999999
 21
1163.835
 31
0.0
  0
LINE
  5
2B4
330
1E
100
AcDbEntity
  8
0
100
AcDbLine
 10
173.0
 20
1165.835
 30
0.0
 11
173.0
 21
1163.835
 31
0.0
  0
LINE
  5
2B5
330
1E
100
AcDbEntity
  8
0
100
AcDbLine
 10
173.0
 20
1165.835
 30
0.0
 11
175.0
 21
1165.835
 31
0.0
  0
LINE
  5
2B6
330
1E
100
AcDbEntity
  8
0
100
AcDbLine
 10
405.9357999999999
 20
765.5349999999999
 30
0.0
 11
406.3856999999999
 21
764.9989999999998
 31
0.0
  0
LINE
  5
2B7
330
1E
100
AcDbEntity
  8
0
100
AcDbLine
 10
405.9357999999999
 20
765.5349999999999
 30
0.0
 11
406.059
 21
766.9439999999999
 31
0.0
  0
LINE
  5
2B8
330
1E
100
AcDbEntity
  8
0
100
AcDbLine
 10
406.3856999999999
 20
764.9989999999998
 30
0.0
 11
407.4785
 21
763.6969999999999
 31
0.0
  0
LINE
  5
2B9
330
1E
100
AcDbEntity
  8
0
100
AcDbLine
 10
407.666
 20
765.029
 30
0.0
 11
409.4657999999999
 21
762.8839999999999
 31
0.0
  0
LINE
  5
2BA
330
1E
100
AcDbEntity
  8
0
100
AcDbLine
 10
406.509
 20
766.408
 30
0.0
 11
407.666
 21
765.029
 31
0.0
  0
LINE
  5
2BB
330
1E
100
AcDbEntity
  8
0
100
AcDbLine
 10
407.4785
 20
763.6969999999999
 30
0.0
 11
409.2196227107299
 21
761.6214771119949
 31
0.0
  0
LINE
  5
2BC
330
1E
100
AcDbEntity
  8
0
100
AcDbLine
 10
407.4785
 20
763.6969999999999
 30
0.0
 11
409.3424999999999
 21
761.475
 31
0.0
  0
LINE
  5
2BD
330
1E
100
AcDbEntity
  8
0
100
AcDbLine
 10
406.059
 20
766.9439999999999
 30
0.0
 11
422.1459499999999
 21
780.4429999999999
 31
0.0
  0
LINE
  5
2BE
330
1E
100
AcDbEntity
  8
0
100
AcDbLine
 10
406.059
 20
766.9439999999999
 30
0.0
 11
406.509
 21
766.408
 31
0.0
  0
LINE
  5
2BF
330
1E
100
AcDbEntity
  8
0
100
AcDbLine
 10
175.0
 20
1163.835
 30
0.0
 11
175.0
 21
1165.835
 31
0.0
  0
LINE
  5
2C0
330
1E
100
AcDbEntity
  8
0
100
AcDbLine
 10
173.0
 20
1163.835
 30
0.0
 11
175.0
 21
1163.835
 31
0.0
  0
LINE
  5
2C1
330
1E
100
AcDbEntity
  8
0
100
AcDbLine
 10
173.0
 20
1163.835
 30
0.0
 11
173.0
 21
1165.835
 31
0.0
  0
LINE
  5
2C2
330
1E
100
AcDbEntity
  8
0
100
AcDbLine
 10
179.0
 20
1165.835
 30
0.0
 11
180.0
 21
1166.835
 31
0.0
  0
LINE
  5
2C3
330
1E
100
AcDbEntity
  8
0
100
AcDbLine
 10
172.3629999999999
 20
1165.835
 30
0.0
 11
173.0
 21
1165.835
 31
0.0
  0
LINE
  5
2C4
330
1E
100
AcDbEntity
  8
0
100
AcDbLine
 10
172.3629999999999
 20
1165.835
 30
0.0
 11
172.3629999999999
 21
1163.835
 31
0.0
  0
LINE
  5
2C5
330
1E
100
AcDbEntity
  8
0
100
AcDbLine
 10
175.0
 20
1165.835
 30
0.0
 11
175.8
 21
1165.835
 31
0.0
  0
LINE
  5
2C6
330
1E
100
AcDbEntity
  8
0
100
AcDbLine
 10
175.0
 20
1165.835
 30
0.0
 11
175.0
 21
1163.835
 31
0.0
  0
LINE
  5
2C7
330
1E
100
AcDbEntity
  8
0
100
AcDbLine
 10
167.1
 20
1165.835
 30
0.0
 11
169.9129999999999
 21
1165.835
 31
0.0
  0
LINE
  5
2C8
330
1E
100
AcDbEntity
  8
0
100
AcDbLine
 10
167.1
 20
1165.835
 30
0.0
 11
175.8
 21
1165.835
 31
0.0
  0
LINE
  5
2C9
330
1E
100
AcDbEntity
  8
0
100
AcDbLine
 10
134.6999999999999
 20
1166.835
 30
0.0
 11
153.6
 21
1166.835
 31
0.0
  0
LINE
  5
2CA
330
1E
100
AcDbEntity
  8
0
100
AcDbLine
 10
153.6
 20
1166.835
 30
0.0
 11
167.9
 21
1166.835
 31
0.0
  0
LINE
  5
2CB
330
1E
100
AcDbEntity
  8
0
100
AcDbLine
 10
134.6999999999999
 20
1175.834999999999
 30
0.0
 11
153.6
 21
1175.834999999999
 31
0.0
  0
LINE
  5
2CC
330
1E
100
AcDbEntity
  8
0
100
AcDbLine
 10
153.6
 20
1175.834999999999
 30
0.0
 11
167.9
 21
1175.834999999999
 31
0.0
  0
LINE
  5
2CD
330
1E
100
AcDbEntity
  8
0
100
AcDbLine
 10
134.1999999999999
 20
1176.835
 30
0.0
 11
152.8
 21
1176.835
 31
0.0
  0
LINE
  5
2CE
330
1E
100
AcDbEntity
  8
0
100
AcDbLine
 10
152.8
 20
1176.835
 30
0.0
 11
167.1
 21
1176.835
 31
0.0
  0
LINE
  5
2CF
330
1E
100
AcDbEntity
  8
0
100
AcDbLine
 10
167.1
 20
1176.835
 30
0.0
 11
175.8
 21
1176.835
 31
0.0
  0
LINE
  5
2D0
330
1E
100
AcDbEntity
  8
0
100
AcDbLine
 10
175.8
 20
1176.835
 30
0.0
 11
179.0
 21
1176.835
 31
0.0
  0
LINE
  5
2D1
330
1E
100
AcDbEntity
  8
0
100
AcDbLine
 10
167.9
 20
1175.834999999999
 30
0.0
 11
176.6999999999999
 21
1175.834999999999
 31
0.0
  0
LINE
  5
2D2
330
1E
100
AcDbEntity
  8
0
100
AcDbLine
 10
176.6999999999999
 20
1175.834999999999
 30
0.0
 11
180.0
 21
1175.834999999999
 31
0.0
  0
LINE
  5
2D3
330
1E
100
AcDbEntity
  8
0
100
AcDbLine
 10
167.9
 20
1166.835
 30
0.0
 11
176.6999999999999
 21
1166.835
 31
0.0
  0
LINE
  5
2D4
330
1E
100
AcDbEntity
  8
0
100
AcDbLine
 10
180.0
 20
1166.835
 30
0.0
 11
180.0
 21
1175.834999999999
 31
0.0
  0
LINE
  5
2D5
330
1E
100
AcDbEntity
  8
0
100
AcDbLine
 10
176.6999999999999
 20
1166.835
 30
0.0
 11
180.0
 21
1166.835
 31
0.0
  0
LINE
  5
2D6
330
1E
100
AcDbEntity
  8
0
100
AcDbLine
 10
134.6999999999999
 20
1177.835
 30
0.0
 11
153.6
 21
1177.835
 31
0.0
  0
LINE
  5
2D7
330
1E
100
AcDbEntity
  8
0
100
AcDbLine
 10
153.6
 20
1177.835
 30
0.0
 11
167.9
 21
1177.835
 31
0.0
  0
LINE
  5
2D8
330
1E
100
AcDbEntity
  8
0
100
AcDbLine
 10
134.6999999999999
 20
1216.835
 30
0.0
 11
153.6
 21
1216.835
 31
0.0
  0
LINE
  5
2D9
330
1E
100
AcDbEntity
  8
0
100
AcDbLine
 10
153.6
 20
1216.835
 30
0.0
 11
167.9
 21
1216.835
 31
0.0
  0
LINE
  5
2DA
330
1E
100
AcDbEntity
  8
0
100
AcDbLine
 10
152.8
 20
1217.835
 30
0.0
 11
167.1
 21
1217.835
 31
0.0
  0
LINE
  5
2DB
330
1E
100
AcDbEntity
  8
0
100
AcDbLine
 10
167.1
 20
1217.835
 30
0.0
 11
175.8
 21
1217.835
 31
0.0
  0
LINE
  5
2DC
330
1E
100
AcDbEntity
  8
0
100
AcDbLine
 10
175.8
 20
1217.835
 30
0.0
 11
179.0
 21
1217.835
 31
0.0
  0
LINE
  5
2DD
330
1E
100
AcDbEntity
  8
0
100
AcDbLine
 10
167.9
 20
1216.835
 30
0.0
 11
176.6999999999999
 21
1216.835
 31
0.0
  0
LINE
  5
2DE
330
1E
100
AcDbEntity
  8
0
100
AcDbLine
 10
176.6999999999999
 20
1216.835
 30
0.0
 11
180.0
 21
1216.835
 31
0.0
  0
LINE
  5
2DF
330
1E
100
AcDbEntity
  8
0
100
AcDbLine
 10
167.9
 20
1177.835
 30
0.0
 11
176.6999999999999
 21
1177.835
 31
0.0
  0
LINE
  5
2E0
330
1E
100
AcDbEntity
  8
0
100
AcDbLine
 10
180.0
 20
1177.835
 30
0.0
 11
180.0
 21
1216.835
 31
0.0
  0
LINE
  5
2E1
330
1E
100
AcDbEntity
  8
0
100
AcDbLine
 10
176.6999999999999
 20
1177.835
 30
0.0
 11
180.0
 21
1177.835
 31
0.0
  0
LINE
  5
2E2
330
1E
100
AcDbEntity
  8
0
100
AcDbLine
 10
134.1999999999999
 20
1217.835
 30
0.0
 11
152.8
 21
1217.835
 31
0.0
  0
LINE
  5
2E3
330
1E
100
AcDbEntity
  8
0
100
AcDbLine
 10
179.0
 20
1217.835
 30
0.0
 11
180.0
 21
1216.835
 31
0.0
  0
LINE
  5
2E4
330
1E
100
AcDbEntity
  8
0
100
AcDbLine
 10
180.0
 20
1216.835
 30
0.0
 11
180.0
 21
1177.835
 31
0.0
  0
LINE
  5
2E5
330
1E
100
AcDbEntity
  8
0
100
AcDbLine
 10
179.0
 20
1176.835
 30
0.0
 11
180.0
 21
1175.834999999999
 31
0.0
  0
LINE
  5
2E6
330
1E
100
AcDbEntity
  8
0
100
AcDbLine
 10
179.0
 20
1176.835
 30
0.0
 11
180.0
 21
1177.835
 31
0.0
  0
LINE
  5
2E7
330
1E
100
AcDbEntity
  8
0
100
AcDbLine
 10
180.0
 20
1175.834999999999
 30
0.0
 11
180.0
 21
1166.835
 31
0.0
  0
LINE
  5
2E8
330
1E
100
AcDbEntity
  8
0
100
AcDbLine
 10
175.8
 20
1165.835
 30
0.0
 11
179.0
 21
1165.835
 31
0.0
  0
LINE
  5
2E9
330
1E
100
AcDbEntity
  8
0
100
AcDbLine
 10
127.5039999999999
 20
1320.344
 30
0.0
 11
142.4209999999999
 21
1342.619
 31
0.0
  0
LINE
  5
2EA
330
1E
100
AcDbEntity
  8
0
100
AcDbLine
 10
202.4909999999999
 20
1395.335
 30
0.0
 11
226.534
 21
1407.205
 31
0.0
  0
LINE
  5
2EB
330
1E
100
AcDbEntity
  8
0
100
AcDbLine
 10
180.2159999999999
 20
1380.415
 30
0.0
 11
202.4909999999999
 21
1395.335
 31
0.0
  0
LINE
  5
2EC
330
1E
100
AcDbEntity
  8
0
100
AcDbLine
 10
160.061
 20
1362.81
 30
0.0
 11
180.2159999999999
 21
1380.415
 31
0.0
  0
LINE
  5
2ED
330
1E
100
AcDbEntity
  8
0
100
AcDbLine
 10
145.8809999999999
 20
1376.915
 30
0.0
 11
167.985
 21
1396.325
 31
0.0
  0
LINE
  5
2EE
330
1E
100
AcDbEntity
  8
0
100
AcDbLine
 10
142.4209999999999
 20
1342.619
 30
0.0
 11
160.061
 21
1362.81
 31
0.0
  0
LINE
  5
2EF
330
1E
100
AcDbEntity
  8
0
100
AcDbLine
 10
126.509
 20
1354.849999999999
 30
0.0
 11
145.8809999999999
 21
1376.915
 31
0.0
  0
LINE
  5
2F0
330
1E
100
AcDbEntity
  8
0
100
AcDbLine
 10
167.985
 20
1396.325
 30
0.0
 11
192.5229999999999
 21
1412.654999999999
 31
0.0
  0
LINE
  5
2F1
330
1E
100
AcDbEntity
  8
0
100
AcDbLine
 10
226.534
 20
1407.205
 30
0.0
 11
252.0
 21
1415.835
 31
0.0
  0
LINE
  5
2F2
330
1E
100
AcDbEntity
  8
0
100
AcDbLine
 10
192.5229999999999
 20
1412.654999999999
 30
0.0
 11
218.9
 21
1425.734999999999
 31
0.0
  0
LINE
  5
2F3
330
1E
100
AcDbEntity
  8
0
100
AcDbLine
 10
252.0
 20
1415.835
 30
0.0
 11
278.3
 21
1421.035
 31
0.0
  0
LINE
  5
2F4
330
1E
100
AcDbEntity
  8
0
100
AcDbLine
 10
278.3
 20
1421.035
 30
0.0
 11
305.0
 21
1422.835
 31
0.0
  0
LINE
  5
2F5
330
1E
100
AcDbEntity
  8
0
100
AcDbLine
 10
218.9
 20
1425.734999999999
 30
0.0
 11
246.7999999999999
 21
1435.135
 31
0.0
  0
LINE
  5
2F6
330
1E
100
AcDbEntity
  8
0
100
AcDbLine
 10
246.7999999999999
 20
1435.135
 30
0.0
 11
275.7
 21
1440.935
 31
0.0
  0
LINE
  5
2F7
330
1E
100
AcDbEntity
  8
0
100
AcDbLine
 10
275.7
 20
1440.935
 30
0.0
 11
305.0
 21
1442.835
 31
0.0
  0
LINE
  5
2F8
330
1E
100
AcDbEntity
  8
0
100
AcDbLine
 10
305.0
 20
1422.835
 30
0.0
 11
331.7
 21
1421.035
 31
0.0
  0
LINE
  5
2F9
330
1E
100
AcDbEntity
  8
0
100
AcDbLine
 10
358.0
 20
1415.835
 30
0.0
 11
383.4655
 21
1407.205
 31
0.0
  0
LINE
  5
2FA
330
1E
100
AcDbEntity
  8
0
100
AcDbLine
 10
363.2
 20
1435.135
 30
0.0
 11
391.1
 21
1425.734999999999
 31
0.0
  0
LINE
  5
2FB
330
1E
100
AcDbEntity
  8
0
100
AcDbLine
 10
331.7
 20
1421.035
 30
0.0
 11
358.0
 21
1415.835
 31
0.0
  0
LINE
  5
2FC
330
1E
100
AcDbEntity
  8
0
100
AcDbLine
 10
334.2999999999999
 20
1440.935
 30
0.0
 11
363.2
 21
1435.135
 31
0.0
  0
LINE
  5
2FD
330
1E
100
AcDbEntity
  8
0
100
AcDbLine
 10
305.0
 20
1442.835
 30
0.0
 11
334.2999999999999
 21
1440.935
 31
0.0
  0
LINE
  5
2FE
330
1E
100
AcDbEntity
  8
0
100
AcDbLine
 10
383.4655
 20
1407.205
 30
0.0
 11
407.5085999999999
 21
1395.335
 31
0.0
  0
LINE
  5
2FF
330
1E
100
AcDbEntity
  8
0
100
AcDbLine
 10
391.1
 20
1425.734999999999
 30
0.0
 11
417.4766899999999
 21
1412.654999999999
 31
0.0
  0
LINE
  5
300
330
1E
100
AcDbEntity
  8
0
100
AcDbLine
 10
407.5085999999999
 20
1395.335
 30
0.0
 11
429.78432
 21
1380.415
 31
0.0
  0
LINE
  5
301
330
1E
100
AcDbEntity
  8
0
100
AcDbLine
 10
427.0
 20
273.3349999999999
 30
0.0
 11
427.5
 21
272.8349999999999
 31
0.0
  0
LINE
  5
302
330
1E
100
AcDbEntity
  8
0
100
AcDbLine
 10
427.0
 20
273.3349999999999
 30
0.0
 11
427.5
 21
273.3349999999999
 31
0.0
  0
LINE
  5
303
330
1E
100
AcDbEntity
  8
0
100
AcDbLine
 10
427.0
 20
273.3349999999999
 30
0.0
 11
427.0
 21
367.33501
 31
0.0
  0
LINE
  5
304
330
1E
100
AcDbEntity
  8
0
100
AcDbLine
 10
427.5
 20
367.83501
 30
0.0
 11
427.5
 21
367.33501
 31
0.0
  0
LINE
  5
305
330
1E
100
AcDbEntity
  8
0
100
AcDbLine
 10
427.5
 20
367.83501
 30
0.0
 11
431.5
 21
367.83501
 31
0.0
  0
LINE
  5
306
330
1E
100
AcDbEntity
  8
0
100
AcDbLine
 10
427.5
 20
367.33501
 30
0.0
 11
427.5
 21
273.3349999999999
 31
0.0
  0
LINE
  5
307
330
1E
100
AcDbEntity
  8
0
100
AcDbLine
 10
427.5
 20
367.33501
 30
0.0
 11
431.5
 21
367.33501
 31
0.0
  0
LINE
  5
308
330
1E
100
AcDbEntity
  8
0
100
AcDbLine
 10
427.5
 20
367.33501
 30
0.0
 11
427.5
 21
367.83501
 31
0.0
  0
LINE
  5
309
330
1E
100
AcDbEntity
  8
0
100
AcDbLine
 10
427.5
 20
273.3349999999999
 30
0.0
 11
427.5
 21
272.8349999999999
 31
0.0
  0
LINE
  5
30A
330
1E
100
AcDbEntity
  8
0
100
AcDbLine
 10
427.5
 20
273.3349999999999
 30
0.0
 11
431.5
 21
273.3349999999999
 31
0.0
  0
LINE
  5
30B
330
1E
100
AcDbEntity
  8
0
100
AcDbLine
 10
427.5
 20
273.3349999999999
 30
0.0
 11
427.5
 21
367.33501
 31
0.0
  0
LINE
  5
30C
330
1E
100
AcDbEntity
  8
0
100
AcDbLine
 10
427.5
 20
272.8349999999999
 30
0.0
 11
431.5
 21
272.8349999999999
 31
0.0
  0
LINE
  5
30D
330
1E
100
AcDbEntity
  8
0
100
AcDbLine
 10
427.5
 20
272.8349999999999
 30
0.0
 11
427.5
 21
273.3349999999999
 31
0.0
  0
LINE
  5
30E
330
1E
100
AcDbEntity
  8
0
100
AcDbLine
 10
427.0
 20
367.33501
 30
0.0
 11
427.0
 21
273.3349999999999
 31
0.0
  0
LINE
  5
30F
330
1E
100
AcDbEntity
  8
0
100
AcDbLine
 10
427.0
 20
367.33501
 30
0.0
 11
427.5
 21
367.33501
 31
0.0
  0
LINE
  5
310
330
1E
100
AcDbEntity
  8
0
100
AcDbLine
 10
427.0
 20
367.33501
 30
0.0
 11
427.5
 21
367.83501
 31
0.0
  0
LINE
  5
311
330
1E
100
AcDbEntity
  8
0
100
AcDbLine
 10
426.6814049999999
 20
737.7
 30
0.0
 11
427.3379475453459
 21
738.251088035791
 31
0.0
  0
LINE
  5
312
330
1E
100
AcDbEntity
  8
0
100
AcDbLine
 10
426.6814049999999
 20
737.7
 30
0.0
 11
427.7947779999999
 21
736.373
 31
0.0
  0
LINE
  5
313
330
1E
100
AcDbEntity
  8
0
100
AcDbLine
 10
425.58622
 20
739.005
 30
0.0
 11
426.1317594457749
 21
739.4629122711079
 31
0.0
  0
LINE
  5
314
330
1E
100
AcDbEntity
  8
0
100
AcDbLine
 10
425.94032
 20
739.3610000000001
 30
0.0
 11
426.619863364065
 21
739.9313929511849
 31
0.0
  0
LINE
  5
315
330
1E
100
AcDbEntity
  8
0
100
AcDbLine
 10
425.94032
 20
739.3610000000001
 30
0.0
 11
426.4655400407979
 21
739.8018575301209
 31
0.0
  0
LINE
  5
316
330
1E
100
AcDbEntity
  8
0
100
AcDbLine
 10
426.038618
 20
738.466
 30
0.0
 11
427.15199
 21
737.1389999999998
 31
0.0
  0
LINE
  5
317
330
1E
100
AcDbEntity
  8
0
100
AcDbLine
 10
426.038618
 20
738.466
 30
0.0
 11
426.6814049999999
 21
737.7
 31
0.0
  0
LINE
  5
318
330
1E
100
AcDbEntity
  8
0
100
AcDbLine
 10
426.038618
 20
738.466
 30
0.0
 11
426.7298315161509
 21
739.0461889850779
 31
0.0
  0
LINE
  5
319
330
1E
100
AcDbEntity
  8
0
100
AcDbLine
 10
427.15199
 20
737.1389999999998
 30
0.0
 11
427.7947779999999
 21
736.373
 31
0.0
  0
LINE
  5
31A
330
1E
100
AcDbEntity
  8
0
100
AcDbLine
 10
427.7947779999999
 20
736.373
 30
0.0
 11
428.176589300069
 21
736.6934829291509
 31
0.0
  0
LINE
  5
31B
330
1E
100
AcDbEntity
  8
0
100
AcDbLine
 10
427.7947779999999
 20
736.373
 30
0.0
 11
428.3913664113079
 21
736.8737615057989
 31
0.0
  0
LINE
  5
31C
330
1E
100
AcDbEntity
  8
0
100
AcDbLine
 10
431.5
 20
273.3349999999999
 30
0.0
 11
431.5
 21
272.8349999999999
 31
0.0
  0
LINE
  5
31D
330
1E
100
AcDbEntity
  8
0
100
AcDbLine
 10
431.5
 20
273.3349999999999
 30
0.0
 11
432.0
 21
273.3349999999999
 31
0.0
  0
LINE
  5
31E
330
1E
100
AcDbEntity
  8
0
100
AcDbLine
 10
431.5
 20
273.3349999999999
 30
0.0
 11
431.5
 21
367.33501
 31
0.0
  0
LINE
  5
31F
330
1E
100
AcDbEntity
  8
0
100
AcDbLine
 10
432.0
 20
273.3349999999999
 30
0.0
 11
432.0
 21
367.33501
 31
0.0
  0
LINE
  5
320
330
1E
100
AcDbEntity
  8
0
100
AcDbLine
 10
431.5
 20
272.8349999999999
 30
0.0
 11
432.0
 21
273.3349999999999
 31
0.0
  0
LINE
  5
321
330
1E
100
AcDbEntity
  8
0
100
AcDbLine
 10
431.5
 20
272.8349999999999
 30
0.0
 11
431.5
 21
273.3349999999999
 31
0.0
  0
LINE
  5
324
330
1E
100
AcDbEntity
  8
0
100
AcDbLine
 10
432.5
 20
325.9349999999999
 30
0.0
 11
432.5
 21
324.035
 31
0.0
  0
LINE
  5
325
330
1E
100
AcDbEntity
  8
0
100
AcDbLine
 10
432.5
 20
325.9349999999999
 30
0.0
 11
432.5
 21
327.8349999999999
 31
0.0
  0
LINE
  5
326
330
1E
100
AcDbEntity
  8
0
100
AcDbLine
 10
432.5
 20
333.035
 30
0.0
 11
432.5
 21
352.6349999999999
 31
0.0
  0
LINE
  5
327
330
1E
100
AcDbEntity
  8
0
100
AcDbLine
 10
432.5
 20
327.8349999999999
 30
0.0
 11
432.5
 21
333.035
 31
0.0
  0
LINE
  5
328
330
1E
100
AcDbEntity
  8
0
100
AcDbLine
 10
432.5
 20
352.6349999999999
 30
0.0
 11
432.5
 21
333.035
 31
0.0
  0
LINE
  5
329
330
1E
100
AcDbEntity
  8
0
100
AcDbLine
 10
432.5
 20
352.6349999999999
 30
0.0
 11
432.5
 21
356.6349999999999
 31
0.0
  0
LINE
  5
32B
330
1E
100
AcDbEntity
  8
0
100
AcDbLine
 10
432.5
 20
356.6349999999999
 30
0.0
 11
432.5
 21
359.735
 31
0.0
  0
LINE
  5
32C
330
1E
100
AcDbEntity
  8
0
100
AcDbLine
 10
432.5
 20
356.6349999999999
 30
0.0
 11
432.5
 21
352.6349999999999
 31
0.0
  0
LINE
  5
32D
330
1E
100
AcDbEntity
  8
0
100
AcDbLine
 10
432.5
 20
359.735
 30
0.0
 11
432.5
 21
356.6349999999999
 31
0.0
  0
LINE
  5
32E
330
1E
100
AcDbEntity
  8
0
100
AcDbLine
 10
432.5
 20
359.735
 30
0.0
 11
432.5
 21
361.635
 31
0.0
  0
LINE
  5
32F
330
1E
100
AcDbEntity
  8
0
100
AcDbLine
 10
432.5
 20
327.8349999999999
 30
0.0
 11
432.5
 21
325.9349999999999
 31
0.0
  0
LINE
  5
330
330
1E
100
AcDbEntity
  8
0
100
AcDbLine
 10
432.5
 20
333.035
 30
0.0
 11
432.5
 21
327.8349999999999
 31
0.0
  0
LINE
  5
331
330
1E
100
AcDbEntity
  8
0
100
AcDbLine
 10
432.5
 20
324.035
 30
0.0
 11
432.5
 21
323.735
 31
0.0
  0
LINE
  5
332
330
1E
100
AcDbEntity
  8
0
100
AcDbLine
 10
432.5
 20
324.035
 30
0.0
 11
432.5
 21
325.9349999999999
 31
0.0
  0
LINE
  5
333
330
1E
100
AcDbEntity
  8
0
100
AcDbLine
 10
432.5
 20
323.735
 30
0.0
 11
432.5
 21
324.035
 31
0.0
  0
LINE
  5
334
330
1E
100
AcDbEntity
  8
0
100
AcDbLine
 10
432.5
 20
323.735
 30
0.0
 11
433.0
 21
318.8349999999999
 31
0.0
  0
LINE
  5
335
330
1E
100
AcDbEntity
  8
0
100
AcDbLine
 10
431.5
 20
367.83501
 30
0.0
 11
431.5
 21
367.33501
 31
0.0
  0
LINE
  5
336
330
1E
100
AcDbEntity
  8
0
100
AcDbLine
 10
431.5
 20
367.83501
 30
0.0
 11
432.0
 21
367.33501
 31
0.0
  0
LINE
  5
337
330
1E
100
AcDbEntity
  8
0
100
AcDbLine
 10
432.0
 20
367.33501
 30
0.0
 11
432.0
 21
273.3349999999999
 31
0.0
  0
LINE
  5
338
330
1E
100
AcDbEntity
  8
0
100
AcDbLine
 10
431.5
 20
367.33501
 30
0.0
 11
431.5
 21
273.3349999999999
 31
0.0
  0
LINE
  5
339
330
1E
100
AcDbEntity
  8
0
100
AcDbLine
 10
431.5
 20
367.33501
 30
0.0
 11
432.0
 21
367.33501
 31
0.0
  0
LINE
  5
33A
330
1E
100
AcDbEntity
  8
0
100
AcDbLine
 10
431.5
 20
367.33501
 30
0.0
 11
431.5
 21
367.83501
 31
0.0
  0
LINE
  5
33B
330
1E
100
AcDbEntity
  8
0
100
AcDbLine
 10
432.5
 20
361.635
 30
0.0
 11
432.5
 21
361.935
 31
0.0
  0
LINE
  5
33C
330
1E
100
AcDbEntity
  8
0
100
AcDbLine
 10
432.5
 20
361.635
 30
0.0
 11
432.5
 21
359.735
 31
0.0
  0
LINE
  5
33D
330
1E
100
AcDbEntity
  8
0
100
AcDbLine
 10
432.5
 20
361.935
 30
0.0
 11
432.5
 21
361.635
 31
0.0
  0
LINE
  5
33E
330
1E
100
AcDbEntity
  8
0
100
AcDbLine
 10
432.5
 20
361.935
 30
0.0
 11
433.0
 21
366.83501
 31
0.0
  0
LINE
  5
33F
330
1E
100
AcDbEntity
  8
0
100
AcDbLine
 10
430.5659799999999
 20
732.293
 30
0.0
 11
431.247792628635
 21
732.8648523244689
 31
0.0
  0
LINE
  5
340
330
1E
100
AcDbEntity
  8
0
100
AcDbLine
 10
430.5659799999999
 20
732.293
 30
0.0
 11
431.67935
 21
730.966
 31
0.0
  0
LINE
  5
341
330
1E
100
AcDbEntity
  8
0
100
AcDbLine
 10
430.5171
 20
733.9069999999999
 30
0.0
 11
430.9002211447859
 21
734.2283327357068
 31
0.0
  0
LINE
  5
342
330
1E
100
AcDbEntity
  8
0
100
AcDbLine
 10
430.5171
 20
733.9069999999999
 30
0.0
 11
431.80267
 21
732.375
 31
0.0
  0
LINE
  5
343
330
1E
100
AcDbEntity
  8
0
100
AcDbLine
 10
431.67935
 20
730.966
 30
0.0
 11
432.32214
 21
730.2
 31
0.0
  0
LINE
  5
344
330
1E
100
AcDbEntity
  8
0
100
AcDbLine
 10
431.67935
 20
730.966
 30
0.0
 11
432.0624232289299
 21
731.28729254755
 31
0.0
  0
LINE
  5
345
330
1E
100
AcDbEntity
  8
0
100
AcDbLine
 10
431.34939
 20
732.1369999999999
 30
0.0
 11
431.7325233335769
 21
732.458593031075
 31
0.0
  0
LINE
  5
346
330
1E
100
AcDbEntity
  8
0
100
AcDbLine
 10
431.34939
 20
732.1369999999999
 30
0.0
 11
432.63497
 21
730.6049999999999
 31
0.0
  0
LINE
  5
347
330
1E
100
AcDbEntity
  8
0
100
AcDbLine
 10
432.32214
 20
730.2
 30
0.0
 11
432.92319299051
 21
730.7041173121718
 31
0.0
  0
LINE
  5
348
330
1E
100
AcDbEntity
  8
0
100
AcDbLine
 10
432.63497
 20
730.6049999999999
 30
0.0
 11
433.234981558022
 21
731.1082438381939
 31
0.0
  0
LINE
  5
349
330
1E
100
AcDbEntity
  8
0
100
AcDbLine
 10
432.63497
 20
730.6049999999999
 30
0.0
 11
433.2165731935669
 21
731.0928043089729
 31
0.0
  0
LINE
  5
34A
330
1E
100
AcDbEntity
  8
0
100
AcDbLine
 10
431.80267
 20
732.375
 30
0.0
 11
432.411505413207
 21
732.8856446135479
 31
0.0
  0
LINE
  5
34B
330
1E
100
AcDbEntity
  8
0
100
AcDbLine
 10
432.7399999999999
 20
733.591
 30
0.0
 11
438.3964999999999
 21
726.85
 31
0.0
  0
LINE
  5
34C
330
1E
100
AcDbEntity
  8
0
100
AcDbLine
 10
432.04267
 20
732.8660000000001
 30
0.0
 11
432.8087694162859
 21
733.509045675739
 31
0.0
  0
LINE
  5
34D
330
1E
100
AcDbEntity
  8
0
100
AcDbLine
 10
430.7571
 20
734.3989999999998
 30
0.0
 11
431.522976063785
 21
735.0413583092149
 31
0.0
  0
LINE
  5
34E
330
1E
100
AcDbEntity
  8
0
100
AcDbLine
 10
430.7571
 20
734.3989999999998
 30
0.0
 11
432.04267
 21
732.8660000000001
 31
0.0
  0
LINE
  5
34F
330
1E
100
AcDbEntity
  8
0
100
AcDbLine
 10
432.33564
 20
730.1839999999999
 30
0.0
 11
432.888593694886
 21
730.647775299055
 31
0.0
  0
LINE
  5
350
330
1E
100
AcDbEntity
  8
0
100
AcDbLine
 10
432.33564
 20
730.1839999999999
 30
0.0
 11
433.44901
 21
728.8569999999999
 31
0.0
  0
LINE
  5
351
330
1E
100
AcDbEntity
  8
0
100
AcDbLine
 10
432.33564
 20
730.1839999999999
 30
0.0
 11
432.97843
 21
729.4179999999999
 31
0.0
  0
LINE
  5
352
330
1E
100
AcDbEntity
  8
0
100
AcDbLine
 10
432.33564
 20
730.1839999999999
 30
0.0
 11
433.0497809798999
 21
730.7829668747729
 31
0.0
  0
LINE
  5
353
330
1E
100
AcDbEntity
  8
0
100
AcDbLine
 10
428.166969802636
 20
736.6854085617509
 30
0.0
 11
431.186890149456
 21
732.813771979486
 31
0.0
  0
LINE
  5
354
330
1E
100
AcDbEntity
  8
0
100
AcDbLine
 10
421.49776
 20
744.656
 30
0.0
 11
422.0924681452559
 21
745.1547957408859
 31
0.0
  0
LINE
  5
355
330
1E
100
AcDbEntity
  8
0
100
AcDbLine
 10
420.38439
 20
745.9819999999999
 30
0.0
 11
421.04598113112
 21
746.5373275250771
 31
0.0
  0
LINE
  5
356
330
1E
100
AcDbEntity
  8
0
100
AcDbLine
 10
420.38439
 20
745.9819999999999
 30
0.0
 11
421.49776
 21
744.656
 31
0.0
  0
LINE
  5
357
330
1E
100
AcDbEntity
  8
0
100
AcDbLine
 10
418.7196899999999
 20
747.9659999999999
 30
0.0
 11
419.270106294018
 21
748.4280063795909
 31
0.0
  0
LINE
  5
358
330
1E
100
AcDbEntity
  8
0
100
AcDbLine
 10
419.7416
 20
746.7480000000001
 30
0.0
 11
420.103424214996
 21
747.051706662458
 31
0.0
  0
LINE
  5
359
330
1E
100
AcDbEntity
  8
0
100
AcDbLine
 10
419.7416
 20
746.7480000000001
 30
0.0
 11
420.38439
 21
745.9819999999999
 31
0.0
  0
LINE
  5
35A
330
1E
100
AcDbEntity
  8
0
100
AcDbLine
 10
419.7416
 20
746.7480000000001
 30
0.0
 11
420.441702901416
 21
747.3356497668029
 31
0.0
  0
LINE
  5
35B
330
1E
100
AcDbEntity
  8
0
100
AcDbLine
 10
423.8300599999999
 20
741.0980000000001
 30
0.0
 11
424.4563340447469
 21
741.6236795759679
 31
0.0
  0
LINE
  5
35C
330
1E
100
AcDbEntity
  8
0
100
AcDbLine
 10
423.8300599999999
 20
741.0980000000001
 30
0.0
 11
424.94344
 21
739.771
 31
0.0
  0
LINE
  5
35D
330
1E
100
AcDbEntity
  8
0
100
AcDbLine
 10
423.77684
 20
741.1619999999999
 30
0.0
 11
424.3573662156629
 21
741.648901022216
 31
0.0
  0
LINE
  5
35E
330
1E
100
AcDbEntity
  8
0
100
AcDbLine
 10
423.77684
 20
741.1619999999999
 30
0.0
 11
423.8303397832529
 21
741.098234843425
 31
0.0
  0
LINE
  5
35F
330
1E
100
AcDbEntity
  8
0
100
AcDbLine
 10
423.60795
 20
742.919
 30
0.0
 11
424.37387870796
 21
743.561402463125
 31
0.0
  0
LINE
  5
360
330
1E
100
AcDbEntity
  8
0
100
AcDbLine
 10
423.60795
 20
742.919
 30
0.0
 11
424.89353
 21
741.3869999999999
 31
0.0
  0
LINE
  5
361
330
1E
100
AcDbEntity
  8
0
100
AcDbLine
 10
423.60795
 20
742.919
 30
0.0
 11
424.348241456735
 21
743.539899896158
 31
0.0
  0
LINE
  5
362
330
1E
100
AcDbEntity
  8
0
100
AcDbLine
 10
427.726261
 20
739.566
 30
0.0
 11
432.7399999999999
 21
733.591
 31
0.0
  0
LINE
  5
363
330
1E
100
AcDbEntity
  8
0
100
AcDbLine
 10
428.1709099999999
 20
740.592
 30
0.0
 11
433.2489299999999
 21
734.5399999999999
 31
0.0
  0
LINE
  5
364
330
1E
100
AcDbEntity
  8
0
100
AcDbLine
 10
424.94344
 20
739.771
 30
0.0
 11
425.58622
 21
739.005
 31
0.0
  0
LINE
  5
365
330
1E
100
AcDbEntity
  8
0
100
AcDbLine
 10
424.94344
 20
739.771
 30
0.0
 11
425.326475477826
 21
740.0925119425391
 31
0.0
  0
LINE
  5
366
330
1E
100
AcDbEntity
  8
0
100
AcDbLine
 10
424.65475
 20
740.893
 30
0.0
 11
425.294341306051
 21
741.42985987164
 31
0.0
  0
LINE
  5
367
330
1E
100
AcDbEntity
  8
0
100
AcDbLine
 10
424.65475
 20
740.893
 30
0.0
 11
425.94032
 21
739.3610000000001
 31
0.0
  0
LINE
  5
368
330
1E
100
AcDbEntity
  8
0
100
AcDbLine
 10
424.89353
 20
741.3869999999999
 30
0.0
 11
425.6593754342319
 21
742.029334715756
 31
0.0
  0
LINE
  5
369
330
1E
100
AcDbEntity
  8
0
100
AcDbLine
 10
422.9696299999999
 20
745.235
 30
0.0
 11
427.726261
 21
739.566
 31
0.0
  0
LINE
  5
36A
330
1E
100
AcDbEntity
  8
0
100
AcDbLine
 10
423.35
 20
746.337
 30
0.0
 11
428.1709099999999
 21
740.592
 31
0.0
  0
LINE
  5
36B
330
1E
100
AcDbEntity
  8
0
100
AcDbLine
 10
422.646731657045
 20
745.619669614254
 30
0.0
 11
424.12665
 21
743.8560000000001
 31
0.0
  0
LINE
  5
36C
330
1E
100
AcDbEntity
  8
0
100
AcDbLine
 10
424.12665
 20
743.8560000000001
 30
0.0
 11
424.3738575948829
 21
743.5613847550899
 31
0.0
  0
LINE
  5
36D
330
1E
100
AcDbEntity
  8
0
100
AcDbLine
 10
424.12665
 20
743.8560000000001
 30
0.0
 11
425.5235175591869
 21
742.191251478614
 31
0.0
  0
LINE
  5
36E
330
1E
100
AcDbEntity
  8
0
100
AcDbLine
 10
424.12665
 20
743.8560000000001
 30
0.0
 11
425.5235175591869
 21
742.191251478614
 31
0.0
  0
LINE
  5
36F
330
1E
100
AcDbEntity
  8
0
100
AcDbLine
 10
421.771036804712
 20
744.8852036982519
 30
0.0
 11
424.3709593223999
 21
741.552018059387
 31
0.0
  0
LINE
  5
370
330
1E
100
AcDbEntity
  8
0
100
AcDbLine
 10
426.052426508616
 20
739.3963221726108
 30
0.0
 11
426.4855024341589
 21
738.841104682191
 31
0.0
  0
LINE
  5
371
330
1E
100
AcDbEntity
  8
0
100
AcDbLine
 10
433.0
 20
325.9349999999999
 30
0.0
 11
433.0
 21
330.8349999999999
 31
0.0
  0
LINE
  5
372
330
1E
100
AcDbEntity
  8
0
100
AcDbLine
 10
433.0
 20
325.9349999999999
 30
0.0
 11
433.0
 21
322.035
 31
0.0
  0
LINE
  5
373
330
1E
100
AcDbEntity
  8
0
100
AcDbLine
 10
433.0
 20
330.8349999999999
 30
0.0
 11
433.0
 21
325.9349999999999
 31
0.0
  0
LINE
  5
374
330
1E
100
AcDbEntity
  8
0
100
AcDbLine
 10
433.0
 20
330.8349999999999
 30
0.0
 11
433.0
 21
336.635
 31
0.0
  0
LINE
  5
375
330
1E
100
AcDbEntity
  8
0
100
AcDbLine
 10
433.0
 20
349.035
 30
0.0
 11
433.0
 21
342.835
 31
0.0
  0
LINE
  5
376
330
1E
100
AcDbEntity
  8
0
100
AcDbLine
 10
433.0
 20
349.035
 30
0.0
 11
433.0
 21
354.8349999999999
 31
0.0
  0
LINE
  5
377
330
1E
100
AcDbEntity
  8
0
100
AcDbLine
 10
433.0
 20
359.735
 30
0.0
 11
433.0
 21
354.8349999999999
 31
0.0
  0
LINE
  5
378
330
1E
100
AcDbEntity
  8
0
100
AcDbLine
 10
433.0
 20
359.735
 30
0.0
 11
433.0
 21
363.63501
 31
0.0
  0
LINE
  5
379
330
1E
100
AcDbEntity
  8
0
100
AcDbLine
 10
433.0
 20
354.8349999999999
 30
0.0
 11
433.0
 21
359.735
 31
0.0
  0
LINE
  5
37A
330
1E
100
AcDbEntity
  8
0
100
AcDbLine
 10
433.0
 20
354.8349999999999
 30
0.0
 11
433.0
 21
349.035
 31
0.0
  0
LINE
  5
37B
330
1E
100
AcDbEntity
  8
0
100
AcDbLine
 10
433.0
 20
336.635
 30
0.0
 11
433.0
 21
342.835
 31
0.0
  0
LINE
  5
37C
330
1E
100
AcDbEntity
  8
0
100
AcDbLine
 10
433.0
 20
336.635
 30
0.0
 11
433.0
 21
330.8349999999999
 31
0.0
  0
LINE
  5
37D
330
1E
100
AcDbEntity
  8
0
100
AcDbLine
 10
433.0
 20
342.835
 30
0.0
 11
433.0
 21
336.635
 31
0.0
  0
LINE
  5
37E
330
1E
100
AcDbEntity
  8
0
100
AcDbLine
 10
433.0
 20
342.835
 30
0.0
 11
433.0
 21
349.035
 31
0.0
  0
LINE
  5
37F
330
1E
100
AcDbEntity
  8
0
100
AcDbLine
 10
433.0
 20
363.63501
 30
0.0
 11
433.0
 21
365.93501
 31
0.0
  0
LINE
  5
380
330
1E
100
AcDbEntity
  8
0
100
AcDbLine
 10
433.0
 20
363.63501
 30
0.0
 11
433.0
 21
359.735
 31
0.0
  0
LINE
  5
381
330
1E
100
AcDbEntity
  8
0
100
AcDbLine
 10
433.0
 20
365.93501
 30
0.0
 11
433.0
 21
366.83501
 31
0.0
  0
LINE
  5
382
330
1E
100
AcDbEntity
  8
0
100
AcDbLine
 10
433.0
 20
365.93501
 30
0.0
 11
433.0
 21
363.63501
 31
0.0
  0
LINE
  5
383
330
1E
100
AcDbEntity
  8
0
100
AcDbLine
 10
433.0
 20
319.735
 30
0.0
 11
433.0
 21
322.035
 31
0.0
  0
LINE
  5
384
330
1E
100
AcDbEntity
  8
0
100
AcDbLine
 10
433.0
 20
319.735
 30
0.0
 11
433.0
 21
318.8349999999999
 31
0.0
  0
LINE
  5
385
330
1E
100
AcDbEntity
  8
0
100
AcDbLine
 10
433.0
 20
322.035
 30
0.0
 11
433.0
 21
319.735
 31
0.0
  0
LINE
  5
386
330
1E
100
AcDbEntity
  8
0
100
AcDbLine
 10
433.0
 20
322.035
 30
0.0
 11
433.0
 21
325.9349999999999
 31
0.0
  0
LINE
  5
387
330
1E
100
AcDbEntity
  8
0
100
AcDbLine
 10
433.0
 20
318.8349999999999
 30
0.0
 11
434.0
 21
317.835
 31
0.0
  0
LINE
  5
388
330
1E
100
AcDbEntity
  8
0
100
AcDbLine
 10
433.0
 20
318.8349999999999
 30
0.0
 11
433.0
 21
319.735
 31
0.0
  0
LINE
  5
389
330
1E
100
AcDbEntity
  8
0
100
AcDbLine
 10
434.0
 20
325.235
 30
0.0
 11
434.0
 21
330.4349999999999
 31
0.0
  0
LINE
  5
38A
330
1E
100
AcDbEntity
  8
0
100
AcDbLine
 10
434.0
 20
325.235
 30
0.0
 11
434.0
 21
321.1349999999999
 31
0.0
  0
LINE
  5
38B
330
1E
100
AcDbEntity
  8
0
100
AcDbLine
 10
434.0
 20
330.4349999999999
 30
0.0
 11
434.0
 21
336.4349999999999
 31
0.0
  0
LINE
  5
38C
330
1E
100
AcDbEntity
  8
0
100
AcDbLine
 10
434.0
 20
330.4349999999999
 30
0.0
 11
434.0
 21
325.235
 31
0.0
  0
LINE
  5
38D
330
1E
100
AcDbEntity
  8
0
100
AcDbLine
 10
434.0
 20
349.235
 30
0.0
 11
434.0
 21
355.235
 31
0.0
  0
LINE
  5
38E
330
1E
100
AcDbEntity
  8
0
100
AcDbLine
 10
434.0
 20
349.235
 30
0.0
 11
434.0
 21
342.835
 31
0.0
  0
LINE
  5
38F
330
1E
100
AcDbEntity
  8
0
100
AcDbLine
 10
434.0
 20
355.235
 30
0.0
 11
434.0
 21
360.435
 31
0.0
  0
LINE
  5
390
330
1E
100
AcDbEntity
  8
0
100
AcDbLine
 10
434.0
 20
355.235
 30
0.0
 11
434.0
 21
349.235
 31
0.0
  0
LINE
  5
391
330
1E
100
AcDbEntity
  8
0
100
AcDbLine
 10
434.0
 20
364.5350099999999
 30
0.0
 11
434.0
 21
366.93501
 31
0.0
  0
LINE
  5
392
330
1E
100
AcDbEntity
  8
0
100
AcDbLine
 10
434.0
 20
364.5350099999999
 30
0.0
 11
434.0
 21
360.435
 31
0.0
  0
LINE
  5
393
330
1E
100
AcDbEntity
  8
0
100
AcDbLine
 10
434.0
 20
360.435
 30
0.0
 11
434.0
 21
364.5350099999999
 31
0.0
  0
LINE
  5
394
330
1E
100
AcDbEntity
  8
0
100
AcDbLine
 10
434.0
 20
360.435
 30
0.0
 11
434.0
 21
355.235
 31
0.0
  0
LINE
  5
395
330
1E
100
AcDbEntity
  8
0
100
AcDbLine
 10
434.0
 20
342.835
 30
0.0
 11
434.0
 21
336.4349999999999
 31
0.0
  0
LINE
  5
396
330
1E
100
AcDbEntity
  8
0
100
AcDbLine
 10
434.0
 20
342.835
 30
0.0
 11
434.0
 21
349.235
 31
0.0
  0
LINE
  5
397
330
1E
100
AcDbEntity
  8
0
100
AcDbLine
 10
434.0
 20
336.4349999999999
 30
0.0
 11
434.0
 21
342.835
 31
0.0
  0
LINE
  5
398
330
1E
100
AcDbEntity
  8
0
100
AcDbLine
 10
434.0
 20
336.4349999999999
 30
0.0
 11
434.0
 21
330.4349999999999
 31
0.0
  0
LINE
  5
399
330
1E
100
AcDbEntity
  8
0
100
AcDbLine
 10
434.0
 20
366.93501
 30
0.0
 11
434.0
 21
364.5350099999999
 31
0.0
  0
LINE
  5
39A
330
1E
100
AcDbEntity
  8
0
100
AcDbLine
 10
434.0
 20
366.93501
 30
0.0
 11
434.0
 21
367.83501
 31
0.0
  0
LINE
  5
39B
330
1E
100
AcDbEntity
  8
0
100
AcDbLine
 10
434.0
 20
318.735
 30
0.0
 11
434.0
 21
317.835
 31
0.0
  0
LINE
  5
39C
330
1E
100
AcDbEntity
  8
0
100
AcDbLine
 10
434.0
 20
318.735
 30
0.0
 11
434.0
 21
321.1349999999999
 31
0.0
  0
LINE
  5
39D
330
1E
100
AcDbEntity
  8
0
100
AcDbLine
 10
434.0
 20
321.1349999999999
 30
0.0
 11
434.0
 21
318.735
 31
0.0
  0
LINE
  5
39E
330
1E
100
AcDbEntity
  8
0
100
AcDbLine
 10
434.0
 20
321.1349999999999
 30
0.0
 11
434.0
 21
325.235
 31
0.0
  0
LINE
  5
39F
330
1E
100
AcDbEntity
  8
0
100
AcDbLine
 10
434.0
 20
317.835
 30
0.0
 11
471.0
 21
317.835
 31
0.0
  0
LINE
  5
3A0
330
1E
100
AcDbEntity
  8
0
100
AcDbLine
 10
434.0
 20
317.835
 30
0.0
 11
434.0
 21
318.735
 31
0.0
  0
LINE
  5
3A1
330
1E
100
AcDbEntity
  8
0
100
AcDbLine
 10
433.0
 20
366.83501
 30
0.0
 11
434.0
 21
367.83501
 31
0.0
  0
LINE
  5
3A2
330
1E
100
AcDbEntity
  8
0
100
AcDbLine
 10
433.0
 20
366.83501
 30
0.0
 11
433.0
 21
365.93501
 31
0.0
  0
LINE
  5
3A3
330
1E
100
AcDbEntity
  8
0
100
AcDbLine
 10
434.0
 20
367.83501
 30
0.0
 11
457.0
 21
367.83501
 31
0.0
  0
LINE
  5
3A4
330
1E
100
AcDbEntity
  8
0
100
AcDbLine
 10
434.0
 20
367.83501
 30
0.0
 11
434.0
 21
366.93501
 31
0.0
  0
LINE
  5
3A5
330
1E
100
AcDbEntity
  8
0
100
AcDbLine
 10
434.0918
 20
728.091
 30
0.0
 11
434.7449817334459
 21
728.638838917739
 31
0.0
  0
LINE
  5
3A6
330
1E
100
AcDbEntity
  8
0
100
AcDbLine
 10
433.2489299999999
 20
734.5399999999999
 30
0.0
 11
438.7126
 21
728.0289999999999
 31
0.0
  0
LINE
  5
3A7
330
1E
100
AcDbEntity
  8
0
100
AcDbLine
 10
432.97843
 20
729.4179999999999
 30
0.0
 11
433.68776241585
 21
730.0129377019259
 31
0.0
  0
LINE
  5
3A8
330
1E
100
AcDbEntity
  8
0
100
AcDbLine
 10
432.97843
 20
729.4179999999999
 30
0.0
 11
434.0918
 21
728.091
 31
0.0
  0
LINE
  5
3A9
330
1E
100
AcDbEntity
  8
0
100
AcDbLine
 10
433.44901
 20
728.8569999999999
 30
0.0
 11
434.0918
 21
728.091
 31
0.0
  0
LINE
  5
3AA
330
1E
100
AcDbEntity
  8
0
100
AcDbLine
 10
419.31104
 20
748.0389999999999
 30
0.0
 11
420.0899571638549
 21
747.040402739211
 31
0.0
  0
LINE
  5
3AB
330
1E
100
AcDbEntity
  8
0
100
AcDbLine
 10
440.3888
 20
719.808
 30
0.0
 11
441.1551069400459
 21
720.451215667971
 31
0.0
  0
LINE
  5
3AC
330
1E
100
AcDbEntity
  8
0
100
AcDbLine
 10
439.2754
 20
721.135
 30
0.0
 11
439.658755321175
 21
721.456777261948
 31
0.0
  0
LINE
  5
3AD
330
1E
100
AcDbEntity
  8
0
100
AcDbLine
 10
439.2754
 20
721.135
 30
0.0
 11
440.3888
 21
719.808
 31
0.0
  0
LINE
  5
3AE
330
1E
100
AcDbEntity
  8
0
100
AcDbLine
 10
438.6327
 20
721.901
 30
0.0
 11
439.2754
 21
721.135
 31
0.0
  0
LINE
  5
3AF
330
1E
100
AcDbEntity
  8
0
100
AcDbLine
 10
438.6327
 20
721.901
 30
0.0
 11
439.015986308926
 21
722.222740335039
 31
0.0
  0
LINE
  5
3B0
330
1E
100
AcDbEntity
  8
0
100
AcDbLine
 10
439.285
 20
722.6799999999999
 30
0.0
 11
439.6680275667979
 21
723.00125215282
 31
0.0
  0
LINE
  5
3B1
330
1E
100
AcDbEntity
  8
0
100
AcDbLine
 10
439.285
 20
722.6799999999999
 30
0.0
 11
440.5706
 21
721.148
 31
0.0
  0
LINE
  5
3B2
330
1E
100
AcDbEntity
  8
0
100
AcDbLine
 10
439.6870999999999
 20
721.423
 30
0.0
 11
440.0701972917599
 21
721.7443106324079
 31
0.0
  0
LINE
  5
3B3
330
1E
100
AcDbEntity
  8
0
100
AcDbLine
 10
439.0246
 20
723.768
 30
0.0
 11
439.4077789695729
 21
724.089379137068
 31
0.0
  0
LINE
  5
3B4
330
1E
100
AcDbEntity
  8
0
100
AcDbLine
 10
439.0246
 20
723.768
 30
0.0
 11
440.3102
 21
722.2360000000001
 31
0.0
  0
LINE
  5
3B5
330
1E
100
AcDbEntity
  8
0
100
AcDbLine
 10
439.2646
 20
724.26
 30
0.0
 11
440.0306847373229
 21
724.9025291348219
 31
0.0
  0
LINE
  5
3B6
330
1E
100
AcDbEntity
  8
0
100
AcDbLine
 10
439.2646
 20
724.26
 30
0.0
 11
440.5502
 21
722.728
 31
0.0
  0
LINE
  5
3B7
330
1E
100
AcDbEntity
  8
0
100
AcDbLine
 10
438.4014999999999
 20
722.955
 30
0.0
 11
438.784608513538
 21
723.276320044316
 31
0.0
  0
LINE
  5
3B8
330
1E
100
AcDbEntity
  8
0
100
AcDbLine
 10
438.4014999999999
 20
722.955
 30
0.0
 11
439.015986308926
 21
722.222740335039
 31
0.0
  0
LINE
  5
3B9
330
1E
100
AcDbEntity
  8
0
100
AcDbLine
 10
438.4014999999999
 20
722.955
 30
0.0
 11
439.0752356692659
 21
723.520074299985
 31
0.0
  0
LINE
  5
3BA
330
1E
100
AcDbEntity
  8
0
100
AcDbLine
 10
438.4014999999999
 20
722.955
 30
0.0
 11
439.6870999999999
 21
721.423
 31
0.0
  0
LINE
  5
3BB
330
1E
100
AcDbEntity
  8
0
100
AcDbLine
 10
440.5706
 20
721.148
 30
0.0
 11
441.2869971448439
 21
721.7488552516969
 31
0.0
  0
LINE
  5
3BC
330
1E
100
AcDbEntity
  8
0
100
AcDbLine
 10
440.3102
 20
722.2360000000001
 30
0.0
 11
440.7983266517759
 21
722.6454273808959
 31
0.0
  0
LINE
  5
3BD
330
1E
100
AcDbEntity
  8
0
100
AcDbLine
 10
440.5502
 20
722.728
 30
0.0
 11
441.316234690231
 21
723.3705290972239
 31
0.0
  0
LINE
  5
3BE
330
1E
100
AcDbEntity
  8
0
100
AcDbLine
 10
440.2326454771269
 20
721.550727387245
 30
0.0
 11
440.9783
 21
720.6619999999999
 31
0.0
  0
LINE
  5
3BF
330
1E
100
AcDbEntity
  8
0
100
AcDbLine
 10
440.9783
 20
720.6619999999999
 30
0.0
 11
442.1996
 21
719.206
 31
0.0
  0
LINE
  5
3C0
330
1E
100
AcDbEntity
  8
0
100
AcDbLine
 10
452.3
 20
342.835
 30
0.0
 11
452.3
 21
340.3016
 31
0.0
  0
LINE
  5
3C1
330
1E
100
AcDbEntity
  8
0
100
AcDbLine
 10
452.3
 20
342.835
 30
0.0
 11
452.3
 21
345.3683999999999
 31
0.0
  0
LINE
  5
3C2
330
1E
100
AcDbEntity
  8
0
100
AcDbLine
 10
452.3
 20
340.3016
 30
0.0
 11
452.3
 21
342.835
 31
0.0
  0
LINE
  5
3C3
330
1E
100
AcDbEntity
  8
0
100
AcDbLine
 10
452.3
 20
340.3016
 30
0.0
 11
452.3
 21
337.935
 31
0.0
  0
LINE
  5
3C4
330
1E
100
AcDbEntity
  8
0
100
AcDbLine
 10
452.3
 20
337.935
 30
0.0
 11
452.3
 21
340.3016
 31
0.0
  0
LINE
  5
3C5
330
1E
100
AcDbEntity
  8
0
100
AcDbLine
 10
452.3
 20
337.935
 30
0.0
 11
452.3
 21
335.9016
 31
0.0
  0
LINE
  5
3C6
330
1E
100
AcDbEntity
  8
0
100
AcDbLine
 10
452.3
 20
335.9016
 30
0.0
 11
452.3
 21
337.935
 31
0.0
  0
LINE
  5
3C7
330
1E
100
AcDbEntity
  8
0
100
AcDbLine
 10
452.3
 20
335.9016
 30
0.0
 11
452.3
 21
334.335
 31
0.0
  0
LINE
  5
3C8
330
1E
100
AcDbEntity
  8
0
100
AcDbLine
 10
452.3
 20
334.335
 30
0.0
 11
452.3
 21
335.9016
 31
0.0
  0
LINE
  5
3C9
330
1E
100
AcDbEntity
  8
0
100
AcDbLine
 10
452.3
 20
334.335
 30
0.0
 11
452.3
 21
333.3684
 31
0.0
  0
LINE
  5
3CA
330
1E
100
AcDbEntity
  8
0
100
AcDbLine
 10
452.3
 20
345.3683999999999
 30
0.0
 11
452.3
 21
347.735
 31
0.0
  0
LINE
  5
3CB
330
1E
100
AcDbEntity
  8
0
100
AcDbLine
 10
452.3
 20
345.3683999999999
 30
0.0
 11
452.3
 21
342.835
 31
0.0
  0
LINE
  5
3CC
330
1E
100
AcDbEntity
  8
0
100
AcDbLine
 10
452.3
 20
347.735
 30
0.0
 11
452.3
 21
349.7684
 31
0.0
  0
LINE
  5
3CD
330
1E
100
AcDbEntity
  8
0
100
AcDbLine
 10
452.3
 20
347.735
 30
0.0
 11
452.3
 21
345.3683999999999
 31
0.0
  0
LINE
  5
3CE
330
1E
100
AcDbEntity
  8
0
100
AcDbLine
 10
452.3
 20
349.7684
 30
0.0
 11
452.3
 21
351.3349999999999
 31
0.0
  0
LINE
  5
3CF
330
1E
100
AcDbEntity
  8
0
100
AcDbLine
 10
452.3
 20
349.7684
 30
0.0
 11
452.3
 21
347.735
 31
0.0
  0
LINE
  5
3D0
330
1E
100
AcDbEntity
  8
0
100
AcDbLine
 10
452.3
 20
351.3349999999999
 30
0.0
 11
452.3
 21
352.3016999999999
 31
0.0
  0
LINE
  5
3D1
330
1E
100
AcDbEntity
  8
0
100
AcDbLine
 10
452.3
 20
351.3349999999999
 30
0.0
 11
452.3
 21
349.7684
 31
0.0
  0
LINE
  5
3D2
330
1E
100
AcDbEntity
  8
0
100
AcDbLine
 10
452.3
 20
352.3016999999999
 30
0.0
 11
452.3
 21
352.6682999999999
 31
0.0
  0
LINE
  5
3D3
330
1E
100
AcDbEntity
  8
0
100
AcDbLine
 10
452.3
 20
352.3016999999999
 30
0.0
 11
452.3
 21
351.3349999999999
 31
0.0
  0
LINE
  5
3D4
330
1E
100
AcDbEntity
  8
0
100
AcDbLine
 10
452.3
 20
352.6682999999999
 30
0.0
 11
453.0499999999999
 21
352.8349999999999
 31
0.0
  0
LINE
  5
3D5
330
1E
100
AcDbEntity
  8
0
100
AcDbLine
 10
452.3
 20
352.6682999999999
 30
0.0
 11
452.3
 21
352.3016999999999
 31
0.0
  0
LINE
  5
3D6
330
1E
100
AcDbEntity
  8
0
100
AcDbLine
 10
452.0
 20
342.835
 30
0.0
 11
452.3
 21
333.0016
 31
0.0
  0
LINE
  5
3D7
330
1E
100
AcDbEntity
  8
0
100
AcDbLine
 10
452.0
 20
342.835
 30
0.0
 11
452.3
 21
352.6682999999999
 31
0.0
  0
LINE
  5
3D8
330
1E
100
AcDbEntity
  8
0
100
AcDbLine
 10
453.0499999999999
 20
352.8349999999999
 30
0.0
 11
467.0
 21
352.8349999999999
 31
0.0
  0
LINE
  5
3D9
330
1E
100
AcDbEntity
  8
0
100
AcDbLine
 10
452.3
 20
333.3684
 30
0.0
 11
452.3
 21
333.0016
 31
0.0
  0
LINE
  5
3DA
330
1E
100
AcDbEntity
  8
0
100
AcDbLine
 10
452.3
 20
333.3684
 30
0.0
 11
452.3
 21
334.335
 31
0.0
  0
LINE
  5
3DB
330
1E
100
AcDbEntity
  8
0
100
AcDbLine
 10
452.3
 20
333.0016
 30
0.0
 11
453.0499999999999
 21
332.8349999999999
 31
0.0
  0
LINE
  5
3DC
330
1E
100
AcDbEntity
  8
0
100
AcDbLine
 10
452.3
 20
333.0016
 30
0.0
 11
452.3
 21
333.3684
 31
0.0
  0
LINE
  5
3DD
330
1E
100
AcDbEntity
  8
0
100
AcDbLine
 10
453.0499999999999
 20
332.8349999999999
 30
0.0
 11
467.0
 21
332.8349999999999
 31
0.0
  0
LINE
  5
3DE
330
1E
100
AcDbEntity
  8
0
100
AcDbLine
 10
457.5
 20
366.93501
 30
0.0
 11
458.8999999999999
 21
364.5350099999999
 31
0.0
  0
LINE
  5
3DF
330
1E
100
AcDbEntity
  8
0
100
AcDbLine
 10
458.0
 20
366.83501
 30
0.0
 11
458.4999999999999
 21
365.93501
 31
0.0
  0
LINE
  5
3E0
330
1E
100
AcDbEntity
  8
0
100
AcDbLine
 10
457.0
 20
367.83501
 30
0.0
 11
458.0
 21
366.83501
 31
0.0
  0
LINE
  5
3E1
330
1E
100
AcDbEntity
  8
0
100
AcDbLine
 10
457.0
 20
367.83501
 30
0.0
 11
457.5
 21
366.93501
 31
0.0
  0
LINE
  5
3E2
330
1E
100
AcDbEntity
  8
0
100
AcDbLine
 10
458.8999999999999
 20
364.5350099999999
 30
0.0
 11
461.2
 21
360.435
 31
0.0
  0
LINE
  5
3E3
330
1E
100
AcDbEntity
  8
0
100
AcDbLine
 10
458.4999999999999
 20
365.93501
 30
0.0
 11
459.792993630573
 21
363.8108061783439
 31
0.0
  0
LINE
  5
3E4
330
1E
100
AcDbEntity
  8
0
100
AcDbLine
 10
458.4999999999999
 20
365.93501
 30
0.0
 11
459.9
 21
363.63501
 31
0.0
  0
LINE
  5
3E5
330
1E
100
AcDbEntity
  8
0
100
AcDbLine
 10
453.6628
 20
703.9889999999999
 30
0.0
 11
454.429014205529
 21
704.6321378293259
 31
0.0
  0
LINE
  5
3E6
330
1E
100
AcDbEntity
  8
0
100
AcDbLine
 10
453.6628
 20
703.9889999999999
 30
0.0
 11
454.7761
 21
702.6619999999999
 31
0.0
  0
LINE
  5
3E7
330
1E
100
AcDbEntity
  8
0
100
AcDbLine
 10
455.4189
 20
701.896
 30
0.0
 11
455.8021443977599
 21
702.217684156073
 31
0.0
  0
LINE
  5
3E8
330
1E
100
AcDbEntity
  8
0
100
AcDbLine
 10
456.2986999999999
 20
702.404
 30
0.0
 11
456.681476213724
 21
702.7250413384479
 31
0.0
  0
LINE
  5
3E9
330
1E
100
AcDbEntity
  8
0
100
AcDbLine
 10
456.4160999999999
 20
701.4860000000001
 30
0.0
 11
457.089798456145
 21
702.051043088667
 31
0.0
  0
LINE
  5
3EA
330
1E
100
AcDbEntity
  8
0
100
AcDbLine
 10
455.1306
 20
703.018
 30
0.0
 11
456.4160999999999
 21
701.4860000000001
 31
0.0
  0
LINE
  5
3EB
330
1E
100
AcDbEntity
  8
0
100
AcDbLine
 10
455.1306
 20
703.018
 30
0.0
 11
455.513759290426
 21
703.339383608484
 31
0.0
  0
LINE
  5
3EC
330
1E
100
AcDbEntity
  8
0
100
AcDbLine
 10
457.3250999999999
 20
701.9580000000001
 30
0.0
 11
457.7081235063739
 21
702.2794987462939
 31
0.0
  0
LINE
  5
3ED
330
1E
100
AcDbEntity
  8
0
100
AcDbLine
 10
457.3250999999999
 20
701.9580000000001
 30
0.0
 11
457.7081235063739
 21
702.2794987462939
 31
0.0
  0
LINE
  5
3EE
330
1E
100
AcDbEntity
  8
0
100
AcDbLine
 10
456.0395999999999
 20
703.49
 30
0.0
 11
457.3250999999999
 21
701.9580000000001
 31
0.0
  0
LINE
  5
3EF
330
1E
100
AcDbEntity
  8
0
100
AcDbLine
 10
456.0395999999999
 20
703.49
 30
0.0
 11
456.5279757729129
 21
703.8999551200831
 31
0.0
  0
LINE
  5
3F0
330
1E
100
AcDbEntity
  8
0
100
AcDbLine
 10
457.8511999999999
 20
702.1089999999999
 30
0.0
 11
458.617079212117
 21
702.7518566456389
 31
0.0
  0
LINE
  5
3F1
330
1E
100
AcDbEntity
  8
0
100
AcDbLine
 10
457.8511999999999
 20
702.1089999999999
 30
0.0
 11
458.5270332053929
 21
702.676274657095
 31
0.0
  0
LINE
  5
3F2
330
1E
100
AcDbEntity
  8
0
100
AcDbLine
 10
455.0131
 20
703.936
 30
0.0
 11
456.2986999999999
 21
702.404
 31
0.0
  0
LINE
  5
3F3
330
1E
100
AcDbEntity
  8
0
100
AcDbLine
 10
455.0131
 20
703.936
 30
0.0
 11
455.729707997322
 21
704.537032097486
 31
0.0
  0
LINE
  5
3F4
330
1E
100
AcDbEntity
  8
0
100
AcDbLine
 10
456.5656
 20
703.641
 30
0.0
 11
457.8511999999999
 21
702.1089999999999
 31
0.0
  0
LINE
  5
3F5
330
1E
100
AcDbEntity
  8
0
100
AcDbLine
 10
456.5656
 20
703.641
 30
0.0
 11
457.331641358411
 21
704.2839927465021
 31
0.0
  0
LINE
  5
3F6
330
1E
100
AcDbEntity
  8
0
100
AcDbLine
 10
454.7761
 20
702.6619999999999
 30
0.0
 11
455.4189
 21
701.896
 31
0.0
  0
LINE
  5
3F7
330
1E
100
AcDbEntity
  8
0
100
AcDbLine
 10
454.7761
 20
702.6619999999999
 30
0.0
 11
455.159373735053
 21
702.9837087809401
 31
0.0
  0
LINE
  5
3F8
330
1E
100
AcDbEntity
  8
0
100
AcDbLine
 10
458.6548999999999
 20
699.595
 30
0.0
 11
458.9121
 21
699.289
 31
0.0
  0
LINE
  5
3F9
330
1E
100
AcDbEntity
  8
0
100
AcDbLine
 10
459.9
 20
363.63501
 30
0.0
 11
462.1999999999999
 21
359.735
 31
0.0
  0
LINE
  5
3FA
330
1E
100
AcDbEntity
  8
0
100
AcDbLine
 10
461.2
 20
360.435
 30
0.0
 11
464.0
 21
355.235
 31
0.0
  0
LINE
  5
3FB
330
1E
100
AcDbEntity
  8
0
100
AcDbLine
 10
459.792993630573
 20
363.8108061783439
 30
0.0
 11
461.5
 21
364.83501
 31
0.0
  0
LINE
  5
3FC
330
1E
100
AcDbEntity
  8
0
100
AcDbLine
 10
467.0
 20
337.8349999999999
 30
0.0
 11
474.0
 21
337.8349999999999
 31
0.0
  0
LINE
  5
3FD
330
1E
100
AcDbEntity
  8
0
100
AcDbLine
 10
467.0
 20
347.8349999999999
 30
0.0
 11
474.0
 21
347.8349999999999
 31
0.0
  0
LINE
  5
3FE
330
1E
100
AcDbEntity
  8
0
100
AcDbLine
 10
467.0
 20
345.4017
 30
0.0
 11
467.0
 21
347.8016999999999
 31
0.0
  0
LINE
  5
3FF
330
1E
100
AcDbEntity
  8
0
100
AcDbLine
 10
467.0
 20
345.4017
 30
0.0
 11
467.0
 21
342.835
 31
0.0
  0
LINE
  5
400
330
1E
100
AcDbEntity
  8
0
100
AcDbLine
 10
467.0
 20
347.8016999999999
 30
0.0
 11
467.0
 21
349.9017
 31
0.0
  0
LINE
  5
401
330
1E
100
AcDbEntity
  8
0
100
AcDbLine
 10
467.0
 20
347.8016999999999
 30
0.0
 11
467.0
 21
345.4017
 31
0.0
  0
LINE
  5
402
330
1E
100
AcDbEntity
  8
0
100
AcDbLine
 10
467.0
 20
342.835
 30
0.0
 11
467.0
 21
340.2683999999999
 31
0.0
  0
LINE
  5
403
330
1E
100
AcDbEntity
  8
0
100
AcDbLine
 10
467.0
 20
342.835
 30
0.0
 11
467.0
 21
345.4017
 31
0.0
  0
LINE
  5
404
330
1E
100
AcDbEntity
  8
0
100
AcDbLine
 10
467.0
 20
340.2683999999999
 30
0.0
 11
467.0
 21
342.835
 31
0.0
  0
LINE
  5
405
330
1E
100
AcDbEntity
  8
0
100
AcDbLine
 10
467.0
 20
340.2683999999999
 30
0.0
 11
467.0
 21
337.8684
 31
0.0
  0
LINE
  5
406
330
1E
100
AcDbEntity
  8
0
100
AcDbLine
 10
467.0
 20
337.8684
 30
0.0
 11
467.0
 21
340.2683999999999
 31
0.0
  0
LINE
  5
407
330
1E
100
AcDbEntity
  8
0
100
AcDbLine
 10
467.0
 20
337.8684
 30
0.0
 11
467.0
 21
335.7683999999999
 31
0.0
  0
LINE
  5
408
330
1E
100
AcDbEntity
  8
0
100
AcDbLine
 10
467.0
 20
335.7683999999999
 30
0.0
 11
467.0
 21
337.8684
 31
0.0
  0
LINE
  5
409
330
1E
100
AcDbEntity
  8
0
100
AcDbLine
 10
467.0
 20
335.7683999999999
 30
0.0
 11
467.0
 21
334.1684
 31
0.0
  0
LINE
  5
40A
330
1E
100
AcDbEntity
  8
0
100
AcDbLine
 10
467.0
 20
334.1684
 30
0.0
 11
467.0
 21
335.7683999999999
 31
0.0
  0
LINE
  5
40B
330
1E
100
AcDbEntity
  8
0
100
AcDbLine
 10
467.0
 20
334.1684
 30
0.0
 11
467.0
 21
333.2015999999999
 31
0.0
  0
LINE
  5
40C
330
1E
100
AcDbEntity
  8
0
100
AcDbLine
 10
467.0
 20
333.2015999999999
 30
0.0
 11
467.0
 21
334.1684
 31
0.0
  0
LINE
  5
40D
330
1E
100
AcDbEntity
  8
0
100
AcDbLine
 10
467.0
 20
333.2015999999999
 30
0.0
 11
467.0
 21
332.8349999999999
 31
0.0
  0
LINE
  5
40E
330
1E
100
AcDbEntity
  8
0
100
AcDbLine
 10
467.0
 20
332.8349999999999
 30
0.0
 11
467.0
 21
333.2015999999999
 31
0.0
  0
LINE
  5
40F
330
1E
100
AcDbEntity
  8
0
100
AcDbLine
 10
468.4
 20
349.035
 30
0.0
 11
469.0967741935479
 21
347.8349999999999
 31
0.0
  0
LINE
  5
410
330
1E
100
AcDbEntity
  8
0
100
AcDbLine
 10
462.1999999999999
 20
359.735
 30
0.0
 11
465.0
 21
354.8349999999999
 31
0.0
  0
LINE
  5
411
330
1E
100
AcDbEntity
  8
0
100
AcDbLine
 10
467.0
 20
349.9017
 30
0.0
 11
467.0
 21
351.5017
 31
0.0
  0
LINE
  5
412
330
1E
100
AcDbEntity
  8
0
100
AcDbLine
 10
467.0
 20
349.9017
 30
0.0
 11
467.0
 21
347.8016999999999
 31
0.0
  0
LINE
  5
413
330
1E
100
AcDbEntity
  8
0
100
AcDbLine
 10
467.0
 20
352.8349999999999
 30
0.0
 11
467.0
 21
352.4683
 31
0.0
  0
LINE
  5
414
330
1E
100
AcDbEntity
  8
0
100
AcDbLine
 10
467.0
 20
351.5017
 30
0.0
 11
467.0
 21
352.4683
 31
0.0
  0
LINE
  5
415
330
1E
100
AcDbEntity
  8
0
100
AcDbLine
 10
467.0
 20
351.5017
 30
0.0
 11
467.0
 21
349.9017
 31
0.0
  0
LINE
  5
416
330
1E
100
AcDbEntity
  8
0
100
AcDbLine
 10
467.0
 20
352.4683
 30
0.0
 11
467.0
 21
352.8349999999999
 31
0.0
  0
LINE
  5
417
330
1E
100
AcDbEntity
  8
0
100
AcDbLine
 10
467.0
 20
352.4683
 30
0.0
 11
467.0
 21
351.5017
 31
0.0
  0
LINE
  5
418
330
1E
100
AcDbEntity
  8
0
100
AcDbLine
 10
467.0
 20
351.4232352941179
 30
0.0
 11
468.4
 21
349.035
 31
0.0
  0
LINE
  5
419
330
1E
100
AcDbEntity
  8
0
100
AcDbLine
 10
465.0
 20
354.8349999999999
 30
0.0
 11
466.172413793103
 21
352.8349999999999
 31
0.0
  0
LINE
  5
41A
330
1E
100
AcDbEntity
  8
0
100
AcDbLine
 10
467.0
 20
349.940882352941
 30
0.0
 11
467.3999999999999
 21
349.235
 31
0.0
  0
LINE
  5
41B
330
1E
100
AcDbEntity
  8
0
100
AcDbLine
 10
464.0
 20
355.235
 30
0.0
 11
465.3599999999999
 21
352.8349999999999
 31
0.0
  0
LINE
  5
41C
330
1E
100
AcDbEntity
  8
0
100
AcDbLine
 10
467.3999999999999
 20
349.235
 30
0.0
 11
468.1874999999999
 21
347.8349999999999
 31
0.0
  0
LINE
  5
41D
330
1E
100
AcDbEntity
  8
0
100
AcDbLine
 10
461.5
 20
364.83501
 30
0.0
 11
465.0
 21
365.83501
 31
0.0
  0
LINE
  5
41E
330
1E
100
AcDbEntity
  8
0
100
AcDbLine
 10
469.0
 20
366.33501
 30
0.0
 11
474.0
 21
366.33501
 31
0.0
  0
LINE
  5
41F
330
1E
100
AcDbEntity
  8
0
100
AcDbLine
 10
465.0
 20
365.83501
 30
0.0
 11
469.0
 21
366.33501
 31
0.0
  0
LINE
  5
420
330
1E
100
AcDbEntity
  8
0
100
AcDbLine
 10
470.6404
 20
685.312
 30
0.0
 11
471.023503421427
 21
685.63331577347
 31
0.0
  0
LINE
  5
421
330
1E
100
AcDbEntity
  8
0
100
AcDbLine
 10
470.6404
 20
685.312
 30
0.0
 11
471.7537
 21
683.985
 31
0.0
  0
LINE
  5
422
330
1E
100
AcDbEntity
  8
0
100
AcDbLine
 10
471.0
 20
321.1349999999999
 30
0.0
 11
471.0
 21
318.735
 31
0.0
  0
LINE
  5
423
330
1E
100
AcDbEntity
  8
0
100
AcDbLine
 10
471.0
 20
321.1349999999999
 30
0.0
 11
471.0
 21
325.235
 31
0.0
  0
LINE
  5
424
330
1E
100
AcDbEntity
  8
0
100
AcDbLine
 10
471.0
 20
325.235
 30
0.0
 11
471.0
 21
321.1349999999999
 31
0.0
  0
LINE
  5
425
330
1E
100
AcDbEntity
  8
0
100
AcDbLine
 10
471.0
 20
325.235
 30
0.0
 11
471.0
 21
330.4349999999999
 31
0.0
  0
LINE
  5
426
330
1E
100
AcDbEntity
  8
0
100
AcDbLine
 10
471.0
 20
330.4349999999999
 30
0.0
 11
471.0
 21
325.235
 31
0.0
  0
LINE
  5
427
330
1E
100
AcDbEntity
  8
0
100
AcDbLine
 10
471.0
 20
330.4349999999999
 30
0.0
 11
471.0
 21
336.4349999999999
 31
0.0
  0
LINE
  5
428
330
1E
100
AcDbEntity
  8
0
100
AcDbLine
 10
471.0
 20
337.8349999999999
 30
0.0
 11
471.0
 21
336.4349999999999
 31
0.0
  0
LINE
  5
429
330
1E
100
AcDbEntity
  8
0
100
AcDbLine
 10
471.0
 20
336.4349999999999
 30
0.0
 11
471.0
 21
337.8349999999999
 31
0.0
  0
LINE
  5
42A
330
1E
100
AcDbEntity
  8
0
100
AcDbLine
 10
471.0
 20
336.4349999999999
 30
0.0
 11
471.0
 21
330.4349999999999
 31
0.0
  0
LINE
  5
42B
330
1E
100
AcDbEntity
  8
0
100
AcDbLine
 10
471.0
 20
318.735
 30
0.0
 11
471.0
 21
321.1349999999999
 31
0.0
  0
LINE
  5
42C
330
1E
100
AcDbEntity
  8
0
100
AcDbLine
 10
471.0
 20
318.735
 30
0.0
 11
471.0
 21
317.835
 31
0.0
  0
LINE
  5
42D
330
1E
100
AcDbEntity
  8
0
100
AcDbLine
 10
471.0
 20
317.835
 30
0.0
 11
472.0
 21
318.8349999999999
 31
0.0
  0
LINE
  5
42E
330
1E
100
AcDbEntity
  8
0
100
AcDbLine
 10
471.0
 20
317.835
 30
0.0
 11
471.0
 21
318.735
 31
0.0
  0
LINE
  5
42F
330
1E
100
AcDbEntity
  8
0
100
AcDbLine
 10
470.6936999999999
 20
685.248
 30
0.0
 11
471.8069999999999
 21
683.921
 31
0.0
  0
LINE
  5
430
330
1E
100
AcDbEntity
  8
0
100
AcDbLine
 10
470.4094999999999
 20
686.3649999999999
 30
0.0
 11
471.6951
 21
684.833
 31
0.0
  0
LINE
  5
431
330
1E
100
AcDbEntity
  8
0
100
AcDbLine
 10
470.4094999999999
 20
686.3649999999999
 30
0.0
 11
471.089095723429
 21
686.9349892334749
 31
0.0
  0
LINE
  5
432
330
1E
100
AcDbEntity
  8
0
100
AcDbLine
 10
470.4094999999999
 20
686.3649999999999
 30
0.0
 11
470.9347613872489
 21
686.80554623237
 31
0.0
  0
LINE
  5
433
330
1E
100
AcDbEntity
  8
0
100
AcDbLine
 10
469.9975999999999
 20
686.078
 30
0.0
 11
471.1109
 21
684.751
 31
0.0
  0
LINE
  5
434
330
1E
100
AcDbEntity
  8
0
100
AcDbLine
 10
469.9975999999999
 20
686.078
 30
0.0
 11
470.5433302500319
 21
686.53571383806
 31
0.0
  0
LINE
  5
435
330
1E
100
AcDbEntity
  8
0
100
AcDbLine
 10
469.9975999999999
 20
686.078
 30
0.0
 11
470.6404
 21
685.312
 31
0.0
  0
LINE
  5
436
330
1E
100
AcDbEntity
  8
0
100
AcDbLine
 10
470.0509
 20
686.0139999999999
 30
0.0
 11
471.1642
 21
684.687
 31
0.0
  0
LINE
  5
437
330
1E
100
AcDbEntity
  8
0
100
AcDbLine
 10
470.0509
 20
686.0139999999999
 30
0.0
 11
470.6936999999999
 21
685.248
 31
0.0
  0
LINE
  5
438
330
1E
100
AcDbEntity
  8
0
100
AcDbLine
 10
469.5451
 20
686.6169999999999
 30
0.0
 11
470.002406341929
 21
687.000874644726
 31
0.0
  0
LINE
  5
439
330
1E
100
AcDbEntity
  8
0
100
AcDbLine
 10
469.5451
 20
686.6169999999999
 30
0.0
 11
470.2363680239679
 21
687.1972680671159
 31
0.0
  0
LINE
  5
43A
330
1E
100
AcDbEntity
  8
0
100
AcDbLine
 10
461.8392
 20
695.023
 30
0.0
 11
462.4819999999999
 21
694.2569999999999
 31
0.0
  0
LINE
  5
43B
330
1E
100
AcDbEntity
  8
0
100
AcDbLine
 10
461.8392
 20
695.023
 30
0.0
 11
462.548578735753
 21
695.6179687849631
 31
0.0
  0
LINE
  5
43C
330
1E
100
AcDbEntity
  8
0
100
AcDbLine
 10
460.7257999999999
 20
696.35
 30
0.0
 11
461.8392
 21
695.023
 31
0.0
  0
LINE
  5
43D
330
1E
100
AcDbEntity
  8
0
100
AcDbLine
 10
460.7257999999999
 20
696.35
 30
0.0
 11
461.203222375795
 21
696.75042278761
 31
0.0
  0
LINE
  5
43E
330
1E
100
AcDbEntity
  8
0
100
AcDbLine
 10
460.7257999999999
 20
696.35
 30
0.0
 11
461.378897187718
 21
696.897764431968
 31
0.0
  0
LINE
  5
43F
330
1E
100
AcDbEntity
  8
0
100
AcDbLine
 10
462.9487
 20
694.478
 30
0.0
 11
464.2343
 21
692.946
 31
0.0
  0
LINE
  5
440
330
1E
100
AcDbEntity
  8
0
100
AcDbLine
 10
462.9487
 20
694.478
 30
0.0
 11
463.548747957608
 21
694.9816627331659
 31
0.0
  0
LINE
  5
441
330
1E
100
AcDbEntity
  8
0
100
AcDbLine
 10
462.9487
 20
694.478
 30
0.0
 11
463.530355467347
 21
694.966224613934
 31
0.0
  0
LINE
  5
442
330
1E
100
AcDbEntity
  8
0
100
AcDbLine
 10
462.4954999999999
 20
694.2410000000001
 30
0.0
 11
463.6089
 21
692.914
 31
0.0
  0
LINE
  5
443
330
1E
100
AcDbEntity
  8
0
100
AcDbLine
 10
462.4954999999999
 20
694.2410000000001
 30
0.0
 11
463.096399908938
 21
694.7449856295179
 31
0.0
  0
LINE
  5
444
330
1E
100
AcDbEntity
  8
0
100
AcDbLine
 10
462.4954999999999
 20
694.2410000000001
 30
0.0
 11
463.1383
 21
693.475
 31
0.0
  0
LINE
  5
445
330
1E
100
AcDbEntity
  8
0
100
AcDbLine
 10
462.4819999999999
 20
694.2569999999999
 30
0.0
 11
463.0432768135019
 21
694.727753022224
 31
0.0
  0
LINE
  5
446
330
1E
100
AcDbEntity
  8
0
100
AcDbLine
 10
462.4819999999999
 20
694.2569999999999
 30
0.0
 11
463.196184709301
 21
694.855999641963
 31
0.0
  0
LINE
  5
447
330
1E
100
AcDbEntity
  8
0
100
AcDbLine
 10
460.2513
 20
700.804
 30
0.0
 11
465.9078
 21
694.0629999999999
 31
0.0
  0
LINE
  5
448
330
1E
100
AcDbEntity
  8
0
100
AcDbLine
 10
461.4673
 20
700.911
 30
0.0
 11
466.931
 21
694.3999999999999
 31
0.0
  0
LINE
  5
449
330
1E
100
AcDbEntity
  8
0
100
AcDbLine
 10
459.0405999999999
 20
699.1360000000001
 30
0.0
 11
461.196806292947
 21
696.745041502798
 31
0.0
  0
LINE
  5
44A
330
1E
100
AcDbEntity
  8
0
100
AcDbLine
 10
468.9023
 20
687.383
 30
0.0
 11
469.5451
 21
686.6169999999999
 31
0.0
  0
LINE
  5
44B
330
1E
100
AcDbEntity
  8
0
100
AcDbLine
 10
468.9023
 20
687.383
 30
0.0
 11
469.558966078979
 21
687.9341863308971
 31
0.0
  0
LINE
  5
44C
330
1E
100
AcDbEntity
  8
0
100
AcDbLine
 10
465.8326
 20
691.819
 30
0.0
 11
466.2156235063739
 21
692.1404987462939
 31
0.0
  0
LINE
  5
44D
330
1E
100
AcDbEntity
  8
0
100
AcDbLine
 10
466.3586999999999
 20
691.97
 30
0.0
 11
467.124625655934
 21
692.6128956292219
 31
0.0
  0
LINE
  5
44E
330
1E
100
AcDbEntity
  8
0
100
AcDbLine
 10
464.2515999999999
 20
692.148
 30
0.0
 11
464.933448446274
 21
692.7198786328979
 31
0.0
  0
LINE
  5
44F
330
1E
100
AcDbEntity
  8
0
100
AcDbLine
 10
467.7889
 20
688.71
 30
0.0
 11
468.1706714434989
 21
689.030447801279
 31
0.0
  0
LINE
  5
450
330
1E
100
AcDbEntity
  8
0
100
AcDbLine
 10
467.7889
 20
688.71
 30
0.0
 11
468.9023
 21
687.383
 31
0.0
  0
LINE
  5
451
330
1E
100
AcDbEntity
  8
0
100
AcDbLine
 10
467.7889
 20
688.71
 30
0.0
 11
468.385491774206
 21
689.2107617137449
 31
0.0
  0
LINE
  5
452
330
1E
100
AcDbEntity
  8
0
100
AcDbLine
 10
470.9216
 20
688.0880000000001
 30
0.0
 11
475.6782
 21
682.4189999999999
 31
0.0
  0
LINE
  5
453
330
1E
100
AcDbEntity
  8
0
100
AcDbLine
 10
469.9574
 20
689.2369999999999
 30
0.0
 11
473.1169538465809
 21
685.4715384610289
 31
0.0
  0
LINE
  5
454
330
1E
100
AcDbEntity
  8
0
100
AcDbLine
 10
469.6967813144319
 20
689.5476297511399
 30
0.0
 11
469.9574
 21
689.2369999999999
 31
0.0
  0
LINE
  5
455
330
1E
100
AcDbEntity
  8
0
100
AcDbLine
 10
463.1383
 20
693.475
 30
0.0
 11
463.521017099164
 21
693.795991757996
 31
0.0
  0
LINE
  5
456
330
1E
100
AcDbEntity
  8
0
100
AcDbLine
 10
463.1383
 20
693.475
 30
0.0
 11
464.2515999999999
 21
692.148
 31
0.0
  0
LINE
  5
457
330
1E
100
AcDbEntity
  8
0
100
AcDbLine
 10
464.2343
 20
692.946
 30
0.0
 11
464.617175522488
 21
693.267374532941
 31
0.0
  0
LINE
  5
458
330
1E
100
AcDbEntity
  8
0
100
AcDbLine
 10
464.5469999999999
 20
693.351
 30
0.0
 11
465.8326
 21
691.819
 31
0.0
  0
LINE
  5
459
330
1E
100
AcDbEntity
  8
0
100
AcDbLine
 10
464.5469999999999
 20
693.351
 30
0.0
 11
465.1558738980269
 21
693.862070969821
 31
0.0
  0
LINE
  5
45A
330
1E
100
AcDbEntity
  8
0
100
AcDbLine
 10
465.9078
 20
694.0629999999999
 30
0.0
 11
470.9216
 21
688.0880000000001
 31
0.0
  0
LINE
  5
45B
330
1E
100
AcDbEntity
  8
0
100
AcDbLine
 10
466.931
 20
694.3999999999999
 30
0.0
 11
472.0089999999999
 21
688.348
 31
0.0
  0
LINE
  5
45C
330
1E
100
AcDbEntity
  8
0
100
AcDbLine
 10
465.0731
 20
693.5019999999999
 30
0.0
 11
466.3586999999999
 21
691.97
 31
0.0
  0
LINE
  5
45D
330
1E
100
AcDbEntity
  8
0
100
AcDbLine
 10
465.0731
 20
693.5019999999999
 30
0.0
 11
465.839057445455
 21
694.1449223124169
 31
0.0
  0
LINE
  5
45E
330
1E
100
AcDbEntity
  8
0
100
AcDbLine
 10
463.6089
 20
692.914
 30
0.0
 11
464.2515999999999
 21
692.148
 31
0.0
  0
LINE
  5
45F
330
1E
100
AcDbEntity
  8
0
100
AcDbLine
 10
464.8727077863959
 20
692.668934342092
 30
0.0
 11
468.1611574200509
 21
689.022462007823
 31
0.0
  0
LINE
  5
460
330
1E
100
AcDbEntity
  8
0
100
AcDbLine
 10
469.992077598579
 20
686.992204433272
 30
0.0
 11
470.463858491725
 21
686.4690594359809
 31
0.0
  0
LINE
  5
461
330
1E
100
AcDbEntity
  8
0
100
AcDbLine
 10
458.9121
 20
699.289
 30
0.0
 11
459.0405999999999
 21
699.1360000000001
 31
0.0
  0
LINE
  5
462
330
1E
100
AcDbEntity
  8
0
100
AcDbLine
 10
454.9161999999999
 20
707.1629999999999
 30
0.0
 11
456.687988000821
 21
705.051174561448
 31
0.0
  0
LINE
  5
463
330
1E
100
AcDbEntity
  8
0
100
AcDbLine
 10
454.9161999999999
 20
707.1629999999999
 30
0.0
 11
460.2513
 21
700.804
 31
0.0
  0
LINE
  5
464
330
1E
100
AcDbEntity
  8
0
100
AcDbLine
 10
453.3840999999999
 20
705.8769999999999
 30
0.0
 11
454.429014205529
 21
704.6321378293259
 31
0.0
  0
LINE
  5
465
330
1E
100
AcDbEntity
  8
0
100
AcDbLine
 10
453.3840999999999
 20
705.8769999999999
 30
0.0
 11
454.6053999999999
 21
704.422
 31
0.0
  0
LINE
  5
466
330
1E
100
AcDbEntity
  8
0
100
AcDbLine
 10
472.0
 20
319.3349999999999
 30
0.0
 11
474.0
 21
319.3349999999999
 31
0.0
  0
LINE
  5
467
330
1E
100
AcDbEntity
  8
0
100
AcDbLine
 10
472.0
 20
336.635
 30
0.0
 11
472.0
 21
330.8349999999999
 31
0.0
  0
LINE
  5
468
330
1E
100
AcDbEntity
  8
0
100
AcDbLine
 10
472.0
 20
330.8349999999999
 30
0.0
 11
472.0
 21
325.9349999999999
 31
0.0
  0
LINE
  5
469
330
1E
100
AcDbEntity
  8
0
100
AcDbLine
 10
472.0
 20
325.9349999999999
 30
0.0
 11
472.0
 21
322.035
 31
0.0
  0
LINE
  5
46A
330
1E
100
AcDbEntity
  8
0
100
AcDbLine
 10
472.0
 20
337.8349999999999
 30
0.0
 11
472.0
 21
336.635
 31
0.0
  0
LINE
  5
46B
330
1E
100
AcDbEntity
  8
0
100
AcDbLine
 10
472.0
 20
319.735
 30
0.0
 11
472.0
 21
318.8349999999999
 31
0.0
  0
LINE
  5
46C
330
1E
100
AcDbEntity
  8
0
100
AcDbLine
 10
474.0
 20
313.8349999999999
 30
0.0
 11
474.0
 21
319.3349999999999
 31
0.0
  0
LINE
  5
46D
330
1E
100
AcDbEntity
  8
0
100
AcDbLine
 10
474.0
 20
313.8349999999999
 30
0.0
 11
474.0
 21
371.835014
 31
0.0
  0
LINE
  5
46E
330
1E
100
AcDbEntity
  8
0
100
AcDbLine
 10
474.0
 20
313.8349999999999
 30
0.0
 11
475.0
 21
313.8349999999999
 31
0.0
  0
LINE
  5
46F
330
1E
100
AcDbEntity
  8
0
100
AcDbLine
 10
474.0
 20
313.8349999999999
 30
0.0
 11
475.0
 21
312.8349999999999
 31
0.0
  0
LINE
  5
470
330
1E
100
AcDbEntity
  8
0
100
AcDbLine
 10
474.0
 20
319.3349999999999
 30
0.0
 11
474.0
 21
320.135
 31
0.0
  0
LINE
  5
471
330
1E
100
AcDbEntity
  8
0
100
AcDbLine
 10
474.0
 20
319.3349999999999
 30
0.0
 11
474.0
 21
313.8349999999999
 31
0.0
  0
LINE
  5
472
330
1E
100
AcDbEntity
  8
0
100
AcDbLine
 10
474.0
 20
322.435
 30
0.0
 11
474.0
 21
326.235
 31
0.0
  0
LINE
  5
473
330
1E
100
AcDbEntity
  8
0
100
AcDbLine
 10
474.0
 20
326.235
 30
0.0
 11
474.0
 21
331.035
 31
0.0
  0
LINE
  5
474
330
1E
100
AcDbEntity
  8
0
100
AcDbLine
 10
474.0
 20
320.135
 30
0.0
 11
474.0
 21
322.435
 31
0.0
  0
LINE
  5
475
330
1E
100
AcDbEntity
  8
0
100
AcDbLine
 10
474.0
 20
344.1182999999999
 30
0.0
 11
474.0
 21
345.3183
 31
0.0
  0
LINE
  5
476
330
1E
100
AcDbEntity
  8
0
100
AcDbLine
 10
474.0
 20
344.1182999999999
 30
0.0
 11
474.0
 21
342.835
 31
0.0
  0
LINE
  5
477
330
1E
100
AcDbEntity
  8
0
100
AcDbLine
 10
474.0
 20
345.3183
 30
0.0
 11
474.0
 21
346.3682999999999
 31
0.0
  0
LINE
  5
478
330
1E
100
AcDbEntity
  8
0
100
AcDbLine
 10
474.0
 20
345.3183
 30
0.0
 11
474.0
 21
344.1182999999999
 31
0.0
  0
LINE
  5
479
330
1E
100
AcDbEntity
  8
0
100
AcDbLine
 10
474.0
 20
346.3682999999999
 30
0.0
 11
474.0
 21
347.1683
 31
0.0
  0
LINE
  5
47A
330
1E
100
AcDbEntity
  8
0
100
AcDbLine
 10
474.0
 20
346.3682999999999
 30
0.0
 11
474.0
 21
345.3183
 31
0.0
  0
LINE
  5
47B
330
1E
100
AcDbEntity
  8
0
100
AcDbLine
 10
474.0
 20
347.1683
 30
0.0
 11
474.0
 21
347.6517
 31
0.0
  0
LINE
  5
47C
330
1E
100
AcDbEntity
  8
0
100
AcDbLine
 10
474.0
 20
347.1683
 30
0.0
 11
474.0
 21
346.3682999999999
 31
0.0
  0
LINE
  5
47D
330
1E
100
AcDbEntity
  8
0
100
AcDbLine
 10
474.0
 20
347.6517
 30
0.0
 11
474.0
 21
347.8349999999999
 31
0.0
  0
LINE
  5
47E
330
1E
100
AcDbEntity
  8
0
100
AcDbLine
 10
474.0
 20
347.6517
 30
0.0
 11
474.0
 21
347.1683
 31
0.0
  0
LINE
  5
47F
330
1E
100
AcDbEntity
  8
0
100
AcDbLine
 10
474.0
 20
342.835
 30
0.0
 11
474.0
 21
341.5516999999999
 31
0.0
  0
LINE
  5
480
330
1E
100
AcDbEntity
  8
0
100
AcDbLine
 10
474.0
 20
342.835
 30
0.0
 11
474.0
 21
344.1182999999999
 31
0.0
  0
LINE
  5
481
330
1E
100
AcDbEntity
  8
0
100
AcDbLine
 10
474.0
 20
341.5516999999999
 30
0.0
 11
474.0
 21
342.835
 31
0.0
  0
LINE
  5
482
330
1E
100
AcDbEntity
  8
0
100
AcDbLine
 10
474.0
 20
341.5516999999999
 30
0.0
 11
474.0
 21
340.3516999999999
 31
0.0
  0
LINE
  5
483
330
1E
100
AcDbEntity
  8
0
100
AcDbLine
 10
474.0
 20
340.3516999999999
 30
0.0
 11
474.0
 21
341.5516999999999
 31
0.0
  0
LINE
  5
484
330
1E
100
AcDbEntity
  8
0
100
AcDbLine
 10
474.0
 20
340.3516999999999
 30
0.0
 11
474.0
 21
339.3016999999999
 31
0.0
  0
LINE
  5
485
330
1E
100
AcDbEntity
  8
0
100
AcDbLine
 10
474.0
 20
339.3016999999999
 30
0.0
 11
474.0
 21
340.3516999999999
 31
0.0
  0
LINE
  5
486
330
1E
100
AcDbEntity
  8
0
100
AcDbLine
 10
474.0
 20
339.3016999999999
 30
0.0
 11
474.0
 21
338.5017
 31
0.0
  0
LINE
  5
487
330
1E
100
AcDbEntity
  8
0
100
AcDbLine
 10
474.0
 20
338.5017
 30
0.0
 11
474.0
 21
339.3016999999999
 31
0.0
  0
LINE
  5
488
330
1E
100
AcDbEntity
  8
0
100
AcDbLine
 10
474.0
 20
338.5017
 30
0.0
 11
474.0
 21
338.0183
 31
0.0
  0
LINE
  5
489
330
1E
100
AcDbEntity
  8
0
100
AcDbLine
 10
474.0
 20
338.0183
 30
0.0
 11
474.0
 21
338.5017
 31
0.0
  0
LINE
  5
48A
330
1E
100
AcDbEntity
  8
0
100
AcDbLine
 10
474.0
 20
338.0183
 30
0.0
 11
474.0
 21
337.8349999999999
 31
0.0
  0
LINE
  5
48B
330
1E
100
AcDbEntity
  8
0
100
AcDbLine
 10
474.0
 20
337.8349999999999
 30
0.0
 11
474.0
 21
338.0183
 31
0.0
  0
LINE
  5
48C
330
1E
100
AcDbEntity
  8
0
100
AcDbLine
 10
474.0
 20
336.735
 30
0.0
 11
474.0
 21
337.8349999999999
 31
0.0
  0
LINE
  5
48D
330
1E
100
AcDbEntity
  8
0
100
AcDbLine
 10
474.0
 20
331.035
 30
0.0
 11
474.0
 21
336.735
 31
0.0
  0
LINE
  5
48E
330
1E
100
AcDbEntity
  8
0
100
AcDbLine
 10
475.0
 20
313.8349999999999
 30
0.0
 11
475.0
 21
371.835014
 31
0.0
  0
LINE
  5
48F
330
1E
100
AcDbEntity
  8
0
100
AcDbLine
 10
475.0
 20
313.8349999999999
 30
0.0
 11
505.1999999999999
 21
313.8349999999999
 31
0.0
  0
LINE
  5
490
330
1E
100
AcDbEntity
  8
0
100
AcDbLine
 10
475.0
 20
313.8349999999999
 30
0.0
 11
475.0
 21
312.8349999999999
 31
0.0
  0
LINE
  5
491
330
1E
100
AcDbEntity
  8
0
100
AcDbLine
 10
475.0
 20
312.8349999999999
 30
0.0
 11
505.1999999999999
 21
312.8349999999999
 31
0.0
  0
LINE
  5
492
330
1E
100
AcDbEntity
  8
0
100
AcDbLine
 10
475.0
 20
312.8349999999999
 30
0.0
 11
475.0
 21
313.8349999999999
 31
0.0
  0
LINE
  5
493
330
1E
100
AcDbEntity
  8
0
100
AcDbLine
 10
474.0
 20
347.8349999999999
 30
0.0
 11
474.0
 21
348.9349999999999
 31
0.0
  0
LINE
  5
494
330
1E
100
AcDbEntity
  8
0
100
AcDbLine
 10
474.0
 20
347.8349999999999
 30
0.0
 11
474.0
 21
347.6517
 31
0.0
  0
LINE
  5
495
330
1E
100
AcDbEntity
  8
0
100
AcDbLine
 10
474.0
 20
366.33501
 30
0.0
 11
474.0
 21
371.835014
 31
0.0
  0
LINE
  5
496
330
1E
100
AcDbEntity
  8
0
100
AcDbLine
 10
474.0
 20
371.835014
 30
0.0
 11
474.0
 21
366.33501
 31
0.0
  0
LINE
  5
497
330
1E
100
AcDbEntity
  8
0
100
AcDbLine
 10
474.0
 20
371.835014
 30
0.0
 11
475.0
 21
372.8350139999999
 31
0.0
  0
LINE
  5
498
330
1E
100
AcDbEntity
  8
0
100
AcDbLine
 10
474.0
 20
371.835014
 30
0.0
 11
475.0
 21
371.835014
 31
0.0
  0
LINE
  5
499
330
1E
100
AcDbEntity
  8
0
100
AcDbLine
 10
474.0
 20
371.835014
 30
0.0
 11
474.0
 21
313.8349999999999
 31
0.0
  0
LINE
  5
49A
330
1E
100
AcDbEntity
  8
0
100
AcDbLine
 10
474.0
 20
365.53501
 30
0.0
 11
474.0
 21
366.33501
 31
0.0
  0
LINE
  5
49B
330
1E
100
AcDbEntity
  8
0
100
AcDbLine
 10
474.0
 20
359.4349999999999
 30
0.0
 11
474.0
 21
363.23501
 31
0.0
  0
LINE
  5
49C
330
1E
100
AcDbEntity
  8
0
100
AcDbLine
 10
474.0
 20
354.6349999999999
 30
0.0
 11
474.0
 21
359.4349999999999
 31
0.0
  0
LINE
  5
49D
330
1E
100
AcDbEntity
  8
0
100
AcDbLine
 10
475.0
 20
371.835014
 30
0.0
 11
475.0
 21
372.8350139999999
 31
0.0
  0
LINE
  5
49E
330
1E
100
AcDbEntity
  8
0
100
AcDbLine
 10
475.0
 20
371.835014
 30
0.0
 11
531.2514207469019
 21
371.835014
 31
0.0
  0
LINE
  5
49F
330
1E
100
AcDbEntity
  8
0
100
AcDbLine
 10
475.0
 20
371.835014
 30
0.0
 11
531.2514207469019
 21
371.835014
 31
0.0
  0
LINE
  5
4A0
330
1E
100
AcDbEntity
  8
0
100
AcDbLine
 10
475.0
 20
371.835014
 30
0.0
 11
475.0
 21
313.8349999999999
 31
0.0
  0
LINE
  5
4A1
330
1E
100
AcDbEntity
  8
0
100
AcDbLine
 10
475.0
 20
372.8350139999999
 30
0.0
 11
531.2477991487339
 21
372.8350139999999
 31
0.0
  0
LINE
  5
4A2
330
1E
100
AcDbEntity
  8
0
100
AcDbLine
 10
475.0
 20
372.8350139999999
 30
0.0
 11
475.0
 21
371.835014
 31
0.0
  0
LINE
  5
4A3
330
1E
100
AcDbEntity
  8
0
100
AcDbLine
 10
474.0
 20
363.23501
 30
0.0
 11
474.0
 21
365.53501
 31
0.0
  0
LINE
  5
4A4
330
1E
100
AcDbEntity
  8
0
100
AcDbLine
 10
474.0
 20
348.9349999999999
 30
0.0
 11
474.0
 21
354.6349999999999
 31
0.0
  0
LINE
  5
4A5
330
1E
100
AcDbEntity
  8
0
100
AcDbLine
 10
472.0
 20
322.035
 30
0.0
 11
472.0
 21
319.735
 31
0.0
  0
LINE
  5
4A6
330
1E
100
AcDbEntity
  8
0
100
AcDbLine
 10
479.3860999999999
 20
675.6669999999999
 30
0.0
 11
480.056198318473
 21
676.229497674645
 31
0.0
  0
LINE
  5
4A7
330
1E
100
AcDbEntity
  8
0
100
AcDbLine
 10
479.4246
 20
675.6210000000001
 30
0.0
 11
480.0049259894709
 21
676.1081086890279
 31
0.0
  0
LINE
  5
4A8
330
1E
100
AcDbEntity
  8
0
100
AcDbLine
 10
479.4246
 20
675.6210000000001
 30
0.0
 11
480.5379
 21
674.2939999999999
 31
0.0
  0
LINE
  5
4A9
330
1E
100
AcDbEntity
  8
0
100
AcDbLine
 10
479.8951
 20
675.0599999999999
 30
0.0
 11
480.5379
 21
674.2939999999999
 31
0.0
  0
LINE
  5
4AA
330
1E
100
AcDbEntity
  8
0
100
AcDbLine
 10
480.5379
 20
674.2939999999999
 30
0.0
 11
481.1679432021
 21
674.8228398654789
 31
0.0
  0
LINE
  5
4AB
330
1E
100
AcDbEntity
  8
0
100
AcDbLine
 10
477.6299999999999
 20
677.7599999999999
 30
0.0
 11
478.7433
 21
676.433
 31
0.0
  0
LINE
  5
4AC
330
1E
100
AcDbEntity
  8
0
100
AcDbLine
 10
477.6299999999999
 20
677.7599999999999
 30
0.0
 11
478.1806353313769
 21
678.221857963981
 31
0.0
  0
LINE
  5
4AD
330
1E
100
AcDbEntity
  8
0
100
AcDbLine
 10
477.6299999999999
 20
677.7599999999999
 30
0.0
 11
478.2727
 21
676.9939999999999
 31
0.0
  0
LINE
  5
4AE
330
1E
100
AcDbEntity
  8
0
100
AcDbLine
 10
478.7433
 20
676.433
 30
0.0
 11
479.3860999999999
 21
675.6669999999999
 31
0.0
  0
LINE
  5
4AF
330
1E
100
AcDbEntity
  8
0
100
AcDbLine
 10
479.4418999999999
 20
676.378
 30
0.0
 11
480.208041127683
 21
677.021076489916
 31
0.0
  0
LINE
  5
4B0
330
1E
100
AcDbEntity
  8
0
100
AcDbLine
 10
478.7817999999999
 20
676.3869999999999
 30
0.0
 11
479.8951
 21
675.0599999999999
 31
0.0
  0
LINE
  5
4B1
330
1E
100
AcDbEntity
  8
0
100
AcDbLine
 10
478.7817999999999
 20
676.3869999999999
 30
0.0
 11
479.4246
 21
675.6210000000001
 31
0.0
  0
LINE
  5
4B2
330
1E
100
AcDbEntity
  8
0
100
AcDbLine
 10
478.1563
 20
677.9099999999999
 30
0.0
 11
479.4418999999999
 21
676.378
 31
0.0
  0
LINE
  5
4B3
330
1E
100
AcDbEntity
  8
0
100
AcDbLine
 10
478.1563
 20
677.9099999999999
 30
0.0
 11
478.9224328177399
 21
678.553069514793
 31
0.0
  0
LINE
  5
4B4
330
1E
100
AcDbEntity
  8
0
100
AcDbLine
 10
479.9849
 20
677.2869999999999
 30
0.0
 11
483.7131
 21
672.8439999999999
 31
0.0
  0
LINE
  5
4B5
330
1E
100
AcDbEntity
  8
0
100
AcDbLine
 10
478.2727
 20
676.9939999999999
 30
0.0
 11
478.655530191521
 21
677.3150866106029
 31
0.0
  0
LINE
  5
4B6
330
1E
100
AcDbEntity
  8
0
100
AcDbLine
 10
478.2727
 20
676.9939999999999
 30
0.0
 11
479.3860999999999
 21
675.6669999999999
 31
0.0
  0
LINE
  5
4B7
330
1E
100
AcDbEntity
  8
0
100
AcDbLine
 10
478.5728999999999
 20
676.636
 30
0.0
 11
478.781800619066
 21
676.387000519626
 31
0.0
  0
LINE
  5
4B8
330
1E
100
AcDbEntity
  8
0
100
AcDbLine
 10
477.9301
 20
677.4019999999999
 30
0.0
 11
479.0434
 21
676.075
 31
0.0
  0
LINE
  5
4B9
330
1E
100
AcDbEntity
  8
0
100
AcDbLine
 10
477.9301
 20
677.4019999999999
 30
0.0
 11
478.5728999999999
 21
676.636
 31
0.0
  0
LINE
  5
4BA
330
1E
100
AcDbEntity
  8
0
100
AcDbLine
 10
479.0434
 20
676.075
 30
0.0
 11
479.681869297571
 21
675.3141607312699
 31
0.0
  0
LINE
  5
4BB
330
1E
100
AcDbEntity
  8
0
100
AcDbLine
 10
482.5581
 20
672.6639999999999
 30
0.0
 11
483.6713999999999
 21
671.338
 31
0.0
  0
LINE
  5
4BC
330
1E
100
AcDbEntity
  8
0
100
AcDbLine
 10
481.9153
 20
673.431
 30
0.0
 11
482.1727621469499
 21
673.646938162542
 31
0.0
  0
LINE
  5
4BD
330
1E
100
AcDbEntity
  8
0
100
AcDbLine
 10
481.9153
 20
673.431
 30
0.0
 11
483.0287
 21
672.1039999999999
 31
0.0
  0
LINE
  5
4BE
330
1E
100
AcDbEntity
  8
0
100
AcDbLine
 10
481.9153
 20
673.431
 30
0.0
 11
482.6813821470189
 21
674.0735269622859
 31
0.0
  0
LINE
  5
4BF
330
1E
100
AcDbEntity
  8
0
100
AcDbLine
 10
481.9153
 20
673.431
 30
0.0
 11
482.5581
 21
672.6639999999999
 31
0.0
  0
LINE
  5
4C0
330
1E
100
AcDbEntity
  8
0
100
AcDbLine
 10
483.6713999999999
 20
671.338
 30
0.0
 11
484.4375943784999
 21
671.980621092861
 31
0.0
  0
LINE
  5
4C1
330
1E
100
AcDbEntity
  8
0
100
AcDbLine
 10
483.7131
 20
672.8439999999999
 30
0.0
 11
486.9269999999999
 21
669.0139999999999
 31
0.0
  0
LINE
  5
4C2
330
1E
100
AcDbEntity
  8
0
100
AcDbLine
 10
483.0287
 20
672.1039999999999
 30
0.0
 11
483.6713999999999
 21
671.338
 31
0.0
  0
LINE
  5
4C3
330
1E
100
AcDbEntity
  8
0
100
AcDbLine
 10
483.0287
 20
672.1039999999999
 30
0.0
 11
483.794826767387
 21
672.7466063290419
 31
0.0
  0
LINE
  5
4C4
330
1E
100
AcDbEntity
  8
0
100
AcDbLine
 10
481.2008999999999
 20
677.393
 30
0.0
 11
484.9933
 21
672.8739999999999
 31
0.0
  0
LINE
  5
4C5
330
1E
100
AcDbEntity
  8
0
100
AcDbLine
 10
482.1703999999999
 20
674.682
 30
0.0
 11
485.2558
 21
671.0049999999999
 31
0.0
  0
LINE
  5
4C6
330
1E
100
AcDbEntity
  8
0
100
AcDbLine
 10
481.1162227703859
 20
674.779427245426
 30
0.0
 11
482.1727621469499
 21
673.646938162542
 31
0.0
  0
LINE
  5
4C7
330
1E
100
AcDbEntity
  8
0
100
AcDbLine
 10
476.6078999999999
 20
678.978
 30
0.0
 11
477.30793033332
 21
679.565128110643
 31
0.0
  0
LINE
  5
4C8
330
1E
100
AcDbEntity
  8
0
100
AcDbLine
 10
475.9650999999999
 20
679.7439999999999
 30
0.0
 11
476.6078999999999
 21
678.978
 31
0.0
  0
LINE
  5
4C9
330
1E
100
AcDbEntity
  8
0
100
AcDbLine
 10
475.9650999999999
 20
679.7439999999999
 30
0.0
 11
476.626669014767
 21
680.2988699066481
 31
0.0
  0
LINE
  5
4CA
330
1E
100
AcDbEntity
  8
0
100
AcDbLine
 10
478.5708
 20
678.9719999999999
 30
0.0
 11
482.1703999999999
 21
674.682
 31
0.0
  0
LINE
  5
4CB
330
1E
100
AcDbEntity
  8
0
100
AcDbLine
 10
476.9560732033429
 20
679.270019167349
 30
0.0
 11
477.8046999999999
 21
678.329
 31
0.0
  0
LINE
  5
4CC
330
1E
100
AcDbEntity
  8
0
100
AcDbLine
 10
477.8046999999999
 20
678.329
 30
0.0
 11
478.025810392212
 21
678.0919950091339
 31
0.0
  0
LINE
  5
4CD
330
1E
100
AcDbEntity
  8
0
100
AcDbLine
 10
520.0687
 20
123.2189999999999
 30
0.0
 11
520.2881999999999
 21
145.6029999999999
 31
0.0
  0
LINE
  5
4CE
330
1E
100
AcDbEntity
  8
0
100
AcDbLine
 10
519.9519999999999
 20
100.834
 30
0.0
 11
520.0136999999999
 21
78.35000000000009
 31
0.0
  0
LINE
  5
4CF
330
1E
100
AcDbEntity
  8
0
100
AcDbLine
 10
519.9519999999999
 20
100.834
 30
0.0
 11
520.0687
 21
123.2189999999999
 31
0.0
  0
LINE
  5
4D0
330
1E
100
AcDbEntity
  8
0
100
AcDbLine
 10
520.0136999999999
 20
78.35000000000009
 30
0.0
 11
520.1688
 21
58.3640000000001
 31
0.0
  0
LINE
  5
4D1
330
1E
100
AcDbEntity
  8
0
100
AcDbLine
 10
520.2881999999999
 20
145.6029999999999
 30
0.0
 11
520.570573529697
 21
293.035
 31
0.0
  0
LINE
  5
4D2
330
1E
100
AcDbEntity
  8
0
100
AcDbLine
 10
520.1688
 20
58.3640000000001
 30
0.0
 11
520.5583
 21
42.3750000000001
 31
0.0
  0
LINE
  5
4D3
330
1E
100
AcDbEntity
  8
0
100
AcDbLine
 10
520.1666999999999
 20
293.035
 30
0.0
 11
520.5333
 21
293.035
 31
0.0
  0
LINE
  5
4D4
330
1E
100
AcDbEntity
  8
0
100
AcDbLine
 10
520.1666999999999
 20
293.035
 30
0.0
 11
520.5705577974259
 21
293.026785915259
 31
0.0
  0
LINE
  5
4D5
330
1E
100
AcDbEntity
  8
0
100
AcDbLine
 10
520.0
 20
293.535
 30
0.0
 11
520.0
 21
302.8349999999999
 31
0.0
  0
LINE
  5
4D6
330
1E
100
AcDbEntity
  8
0
100
AcDbLine
 10
520.0
 20
293.535
 30
0.0
 11
520.1666999999999
 21
293.035
 31
0.0
  0
LINE
  5
4D7
330
1E
100
AcDbEntity
  8
0
100
AcDbLine
 10
520.5583
 20
42.3750000000001
 30
0.0
 11
521.1263
 21
25.986
 31
0.0
  0
LINE
  5
4D8
330
1E
100
AcDbEntity
  8
0
100
AcDbLine
 10
521.1263
 20
25.986
 30
0.0
 11
521.8002
 21
16.49399999999999
 31
0.0
  0
LINE
  5
4D9
330
1E
100
AcDbEntity
  8
0
100
AcDbLine
 10
521.8002
 20
16.49399999999999
 30
0.0
 11
522.6473999999999
 21
9.99800000000007
 31
0.0
  0
LINE
  5
4DA
330
1E
100
AcDbEntity
  8
0
100
AcDbLine
 10
522.6473999999999
 20
9.99800000000007
 30
0.0
 11
523.1704999999999
 21
6.990000000000029
 31
0.0
  0
LINE
  5
4DB
330
1E
100
AcDbEntity
  8
0
100
AcDbLine
 10
521.4999999999999
 20
293.035
 30
0.0
 11
523.0666999999999
 21
293.035
 31
0.0
  0
LINE
  5
4DC
330
1E
100
AcDbEntity
  8
0
100
AcDbLine
 10
520.5333
 20
293.035
 30
0.0
 11
521.4999999999999
 21
293.035
 31
0.0
  0
LINE
  5
4DD
330
1E
100
AcDbEntity
  8
0
100
AcDbLine
 10
523.863
 20
5.19099999999999
 30
0.0
 11
525.6137999999999
 21
2.66100000000002
 31
0.0
  0
LINE
  5
4DE
330
1E
100
AcDbEntity
  8
0
100
AcDbLine
 10
524.0476
 20
9.99800000000007
 30
0.0
 11
525.1218999999999
 21
16.49399999999999
 31
0.0
  0
LINE
  5
4DF
330
1E
100
AcDbEntity
  8
0
100
AcDbLine
 10
523.9707
 20
11.386
 30
0.0
 11
524.460544765357
 21
12.4949647172679
 31
0.0
  0
LINE
  5
4E0
330
1E
100
AcDbEntity
  8
0
100
AcDbLine
 10
523.1704999999999
 20
6.990000000000029
 30
0.0
 11
523.863
 21
5.19099999999999
 31
0.0
  0
LINE
  5
4E1
330
1E
100
AcDbEntity
  8
0
100
AcDbLine
 10
527.266
 20
42.3750000000001
 30
0.0
 11
528.214
 21
58.3640000000001
 31
0.0
  0
LINE
  5
4E2
330
1E
100
AcDbEntity
  8
0
100
AcDbLine
 10
526.1276
 20
25.986
 30
0.0
 11
527.266
 21
42.3750000000001
 31
0.0
  0
LINE
  5
4E3
330
1E
100
AcDbEntity
  8
0
100
AcDbLine
 10
525.1218999999999
 20
16.49399999999999
 30
0.0
 11
526.1276
 21
25.986
 31
0.0
  0
LINE
  5
4E4
330
1E
100
AcDbEntity
  8
0
100
AcDbLine
 10
525.6137999999999
 20
2.66100000000002
 30
0.0
 11
528.078
 21
0.8190000000000908
 31
0.0
  0
LINE
  5
4E5
330
1E
100
AcDbEntity
  8
0
100
AcDbLine
 10
525.1
 20
293.035
 30
0.0
 11
527.4669999999999
 21
293.035
 31
0.0
  0
LINE
  5
4E6
330
1E
100
AcDbEntity
  8
0
100
AcDbLine
 10
523.0666999999999
 20
293.035
 30
0.0
 11
525.1
 21
293.035
 31
0.0
  0
LINE
  5
4E7
330
1E
100
AcDbEntity
  8
0
100
AcDbLine
 10
529.91
 20
100.834
 30
0.0
 11
530.5729999999999
 21
123.2189999999999
 31
0.0
  0
LINE
  5
4E8
330
1E
100
AcDbEntity
  8
0
100
AcDbLine
 10
529.065
 20
78.35000000000009
 30
0.0
 11
529.91
 21
100.834
 31
0.0
  0
LINE
  5
4E9
330
1E
100
AcDbEntity
  8
0
100
AcDbLine
 10
528.214
 20
58.3640000000001
 30
0.0
 11
529.065
 21
78.35000000000009
 31
0.0
  0
LINE
  5
4EA
330
1E
100
AcDbEntity
  8
0
100
AcDbLine
 10
528.078
 20
0.8190000000000908
 30
0.0
 11
531.158
 21
0.165000000000038
 31
0.0
  0
LINE
  5
4EB
330
1E
100
AcDbEntity
  8
0
100
AcDbLine
 10
527.4669999999999
 20
293.035
 30
0.0
 11
530.0
 21
293.035
 31
0.0
  0
LINE
  5
4EC
330
1E
100
AcDbEntity
  8
0
100
AcDbLine
 10
527.4329999999999
 20
302.8349999999999
 30
0.0
 11
530.0
 21
302.8349999999999
 31
0.0
  0
LINE
  5
4ED
330
1E
100
AcDbEntity
  8
0
100
AcDbLine
 10
525.0333
 20
302.8349999999999
 30
0.0
 11
527.4329999999999
 21
302.8349999999999
 31
0.0
  0
LINE
  5
4EE
330
1E
100
AcDbEntity
  8
0
100
AcDbLine
 10
522.9333
 20
302.8349999999999
 30
0.0
 11
525.0333
 21
302.8349999999999
 31
0.0
  0
LINE
  5
4EF
330
1E
100
AcDbEntity
  8
0
100
AcDbLine
 10
521.3333
 20
302.8349999999999
 30
0.0
 11
522.9333
 21
302.8349999999999
 31
0.0
  0
LINE
  5
4F0
330
1E
100
AcDbEntity
  8
0
100
AcDbLine
 10
520.3667
 20
302.8349999999999
 30
0.0
 11
521.3333
 21
302.8349999999999
 31
0.0
  0
LINE
  5
4F1
330
1E
100
AcDbEntity
  8
0
100
AcDbLine
 10
520.0
 20
302.8349999999999
 30
0.0
 11
520.3667
 21
302.8349999999999
 31
0.0
  0
LINE
  5
4F2
330
1E
100
AcDbEntity
  8
0
100
AcDbLine
 10
520.0
 20
302.8349999999999
 30
0.0
 11
520.0
 21
293.535
 31
0.0
  0
LINE
  5
4F3
330
1E
100
AcDbEntity
  8
0
100
AcDbLine
 10
531.134
 20
145.6029999999999
 30
0.0
 11
531.529
 21
295.1895
 31
0.0
  0
LINE
  5
4F4
330
1E
100
AcDbEntity
  8
0
100
AcDbLine
 10
530.5729999999999
 20
123.2189999999999
 30
0.0
 11
531.134
 21
145.6029999999999
 31
0.0
  0
LINE
  5
4F5
330
1E
100
AcDbEntity
  8
0
100
AcDbLine
 10
547.093
 20
145.3239999999999
 30
0.0
 11
547.4899999999999
 21
294.9105
 31
0.0
  0
LINE
  5
4F6
330
1E
100
AcDbEntity
  8
0
100
AcDbLine
 10
546.534
 20
122.9389999999999
 30
0.0
 11
547.093
 21
145.3239999999999
 31
0.0
  0
LINE
  5
4F7
330
1E
100
AcDbEntity
  8
0
100
AcDbLine
 10
545.87
 20
100.555
 30
0.0
 11
546.534
 21
122.9389999999999
 31
0.0
  0
LINE
  5
4F8
330
1E
100
AcDbEntity
  8
0
100
AcDbLine
 10
545.0239999999999
 20
78.071
 30
0.0
 11
545.87
 21
100.555
 31
0.0
  0
LINE
  5
4F9
330
1E
100
AcDbEntity
  8
0
100
AcDbLine
 10
544.1729999999999
 20
58.08500000000011
 30
0.0
 11
545.0239999999999
 21
78.071
 31
0.0
  0
LINE
  5
4FA
330
1E
100
AcDbEntity
  8
0
100
AcDbLine
 10
543.225
 20
42.0970000000001
 30
0.0
 11
544.1729999999999
 21
58.08500000000011
 31
0.0
  0
LINE
  5
4FB
330
1E
100
AcDbEntity
  8
0
100
AcDbLine
 10
542.0869999999999
 20
25.708
 30
0.0
 11
543.225
 21
42.0970000000001
 31
0.0
  0
LINE
  5
4FC
330
1E
100
AcDbEntity
  8
0
100
AcDbLine
 10
541.082
 20
16.21500000000009
 30
0.0
 11
542.0869999999999
 21
25.708
 31
0.0
  0
LINE
  5
4FD
330
1E
100
AcDbEntity
  8
0
100
AcDbLine
 10
540.008
 20
9.71900000000007
 30
0.0
 11
541.082
 21
16.21500000000009
 31
0.0
  0
LINE
  5
4FE
330
1E
100
AcDbEntity
  8
0
100
AcDbLine
 10
539.379
 20
6.73200000000004
 30
0.0
 11
540.008
 21
9.71900000000007
 31
0.0
  0
LINE
  5
4FF
330
1E
100
AcDbEntity
  8
0
100
AcDbLine
 10
538.626
 20
4.933000000000069
 30
0.0
 11
539.379
 21
6.73200000000004
 31
0.0
  0
LINE
  5
500
330
1E
100
AcDbEntity
  8
0
100
AcDbLine
 10
536.7869999999999
 20
2.466000000000029
 30
0.0
 11
538.626
 21
4.933000000000069
 31
0.0
  0
LINE
  5
501
330
1E
100
AcDbEntity
  8
0
100
AcDbLine
 10
534.2609999999999
 20
0.7110000000000301
 30
0.0
 11
536.7869999999999
 21
2.466000000000029
 31
0.0
  0
LINE
  5
502
330
1E
100
AcDbEntity
  8
0
100
AcDbLine
 10
531.158
 20
0.165000000000038
 30
0.0
 11
534.2609999999999
 21
0.7110000000000301
 31
0.0
  0
LINE
  5
503
330
1E
100
AcDbEntity
  8
0
100
AcDbLine
 10
530.0
 20
293.035
 30
0.0
 11
531.5233108001059
 21
293.035
 31
0.0
  0
LINE
  5
504
330
1E
100
AcDbEntity
  8
0
100
AcDbLine
 10
530.0
 20
302.8349999999999
 30
0.0
 11
531.501311071205
 21
302.8349999999999
 31
0.0
  0
LINE
  5
505
330
1E
100
AcDbEntity
  8
0
100
AcDbLine
 10
547.461578918896
 20
302.8349999999999
 30
0.0
 11
558.0
 21
302.8349999999999
 31
0.0
  0
LINE
  5
506
330
1E
100
AcDbEntity
  8
0
100
AcDbLine
 10
516.6
 20
302.8349999999999
 30
0.0
 11
520.0
 21
302.8349999999999
 31
0.0
  0
LINE
  5
507
330
1E
100
AcDbEntity
  8
0
100
AcDbLine
 10
559.0
 20
303.8349999999999
 30
0.0
 11
559.0
 21
304.5301
 31
0.0
  0
LINE
  5
508
330
1E
100
AcDbEntity
  8
0
100
AcDbLine
 10
498.1505
 20
636.6579999999999
 30
0.0
 11
499.2229
 21
637.558
 31
0.0
  0
LINE
  5
509
330
1E
100
AcDbEntity
  8
0
100
AcDbLine
 10
497.7674
 20
636.3369999999999
 30
0.0
 11
498.1505
 21
636.6579999999999
 31
0.0
  0
LINE
  5
50A
330
1E
100
AcDbEntity
  8
0
100
AcDbLine
 10
497.7674
 20
636.3369999999999
 30
0.0
 11
518.0493
 21
560.6709999999999
 31
0.0
  0
LINE
  5
50B
330
1E
100
AcDbEntity
  8
0
100
AcDbLine
 10
500.755
 20
638.8440000000001
 30
0.0
 11
501.0614
 21
639.101
 31
0.0
  0
LINE
  5
50C
330
1E
100
AcDbEntity
  8
0
100
AcDbLine
 10
499.2229
 20
637.558
 30
0.0
 11
500.9082
 21
638.9719999999999
 31
0.0
  0
LINE
  5
50D
330
1E
100
AcDbEntity
  8
0
100
AcDbLine
 10
501.0614
 20
639.101
 30
0.0
 11
501.677559202274
 21
639.617519244256
 31
0.0
  0
LINE
  5
50E
330
1E
100
AcDbEntity
  8
0
100
AcDbLine
 10
501.8497282227559
 20
639.761975066267
 30
0.0
 11
503.1297999999999
 21
640.836
 31
0.0
  0
LINE
  5
50F
330
1E
100
AcDbEntity
  8
0
100
AcDbLine
 10
501.8497282227559
 20
639.761975066267
 30
0.0
 11
502.9765
 21
640.708
 31
0.0
  0
LINE
  5
510
330
1E
100
AcDbEntity
  8
0
100
AcDbLine
 10
500.9082
 20
638.9719999999999
 30
0.0
 11
501.677559202274
 21
639.617519244256
 31
0.0
  0
LINE
  5
511
330
1E
100
AcDbEntity
  8
0
100
AcDbLine
 10
500.9082
 20
638.9719999999999
 30
0.0
 11
503.1297999999999
 21
640.836
 31
0.0
  0
LINE
  5
512
330
1E
100
AcDbEntity
  8
0
100
AcDbLine
 10
503.1297999999999
 20
640.836
 30
0.0
 11
505.6576999999999
 21
642.957
 31
0.0
  0
LINE
  5
513
330
1E
100
AcDbEntity
  8
0
100
AcDbLine
 10
504.5852
 20
642.058
 30
0.0
 11
506.4237
 21
643.5999999999999
 31
0.0
  0
LINE
  5
514
330
1E
100
AcDbEntity
  8
0
100
AcDbLine
 10
502.9765
 20
640.708
 30
0.0
 11
504.5852
 21
642.058
 31
0.0
  0
LINE
  5
515
330
1E
100
AcDbEntity
  8
0
100
AcDbLine
 10
505.1999999999999
 20
313.8349999999999
 30
0.0
 11
509.2281999999999
 21
310.1023
 31
0.0
  0
LINE
  5
516
330
1E
100
AcDbEntity
  8
0
100
AcDbLine
 10
514.2999999999999
 20
304.5301
 30
0.0
 11
515.0
 21
303.8349999999999
 31
0.0
  0
LINE
  5
517
330
1E
100
AcDbEntity
  8
0
100
AcDbLine
 10
559.0
 20
306.5427
 30
0.0
 11
559.0
 21
309.4238999999999
 31
0.0
  0
LINE
  5
518
330
1E
100
AcDbEntity
  8
0
100
AcDbLine
 10
559.0
 20
306.5427
 30
0.0
 11
559.0
 21
304.5301
 31
0.0
  0
LINE
  5
519
330
1E
100
AcDbEntity
  8
0
100
AcDbLine
 10
559.0
 20
304.5301
 30
0.0
 11
559.0
 21
306.5427
 31
0.0
  0
LINE
  5
51A
330
1E
100
AcDbEntity
  8
0
100
AcDbLine
 10
559.0
 20
304.5301
 30
0.0
 11
559.0
 21
303.8349999999999
 31
0.0
  0
LINE
  5
51B
330
1E
100
AcDbEntity
  8
0
100
AcDbLine
 10
558.0
 20
307.1524
 30
0.0
 11
558.0
 21
310.1023
 31
0.0
  0
LINE
  5
51C
330
1E
100
AcDbEntity
  8
0
100
AcDbLine
 10
558.0
 20
310.1023
 30
0.0
 11
558.0
 21
307.1524
 31
0.0
  0
LINE
  5
51D
330
1E
100
AcDbEntity
  8
0
100
AcDbLine
 10
558.0
 20
310.1023
 30
0.0
 11
558.0
 21
313.8349999999999
 31
0.0
  0
LINE
  5
51E
330
1E
100
AcDbEntity
  8
0
100
AcDbLine
 10
547.214111571546
 20
371.835014
 30
0.0
 11
558.0
 21
371.835014
 31
0.0
  0
LINE
  5
51F
330
1E
100
AcDbEntity
  8
0
100
AcDbLine
 10
558.0
 20
313.8349999999999
 30
0.0
 11
558.0
 21
371.835014
 31
0.0
  0
LINE
  5
520
330
1E
100
AcDbEntity
  8
0
100
AcDbLine
 10
558.0
 20
313.8349999999999
 30
0.0
 11
558.0
 21
310.1023
 31
0.0
  0
LINE
  5
521
330
1E
100
AcDbEntity
  8
0
100
AcDbLine
 10
519.2679
 20
559.9969999999999
 30
0.0
 11
519.7028999999999
 21
560.101
 31
0.0
  0
LINE
  5
522
330
1E
100
AcDbEntity
  8
0
100
AcDbLine
 10
519.7028999999999
 20
560.101
 30
0.0
 11
520.7902999999999
 21
560.3609999999999
 31
0.0
  0
LINE
  5
523
330
1E
100
AcDbEntity
  8
0
100
AcDbLine
 10
520.7902999999999
 20
560.3609999999999
 30
0.0
 11
522.193181534527
 21
560.7502272345709
 31
0.0
  0
LINE
  5
524
330
1E
100
AcDbEntity
  8
0
100
AcDbLine
 10
520.7902999999999
 20
560.3609999999999
 30
0.0
 11
522.1801555048659
 21
560.801997352454
 31
0.0
  0
LINE
  5
525
330
1E
100
AcDbEntity
  8
0
100
AcDbLine
 10
518.5608999999999
 20
560.84
 30
0.0
 11
519.7249
 21
561.164
 31
0.0
  0
LINE
  5
526
330
1E
100
AcDbEntity
  8
0
100
AcDbLine
 10
521.9058043149069
 20
560.714946469833
 30
0.0
 11
522.1830712921169
 21
560.790408967227
 31
0.0
  0
LINE
  5
527
330
1E
100
AcDbEntity
  8
0
100
AcDbLine
 10
518.0493
 20
560.6709999999999
 30
0.0
 11
519.2679
 21
559.9969999999999
 31
0.0
  0
LINE
  5
528
330
1E
100
AcDbEntity
  8
0
100
AcDbLine
 10
518.0493
 20
560.6709999999999
 30
0.0
 11
518.5608999999999
 21
560.84
 31
0.0
  0
LINE
  5
529
330
1E
100
AcDbEntity
  8
0
100
AcDbLine
 10
510.0
 20
372.8350139999999
 30
0.0
 11
510.0
 21
590.700648790301
 31
0.0
  0
LINE
  5
52A
330
1E
100
AcDbEntity
  8
0
100
AcDbLine
 10
519.7249
 20
561.164
 30
0.0
 11
521.618
 21
561.708
 31
0.0
  0
LINE
  5
52B
330
1E
100
AcDbEntity
  8
0
100
AcDbLine
 10
521.618
 20
561.708
 30
0.0
 11
524.087
 21
562.344
 31
0.0
  0
LINE
  5
52F
330
1E
100
AcDbEntity
  8
0
100
AcDbLine
 10
530.0
 20
372.8350139999999
 30
0.0
 11
530.0
 21
509.4924137931039
 31
0.0
  0
LINE
  5
530
330
1E
100
AcDbEntity
  8
0
100
AcDbLine
 10
530.8069999999999
 20
494.549
 30
0.0
 11
531.529
 21
295.1895
 31
0.0
  0
LINE
  5
531
330
1E
100
AcDbEntity
  8
0
100
AcDbLine
 10
529.096
 20
526.2319999999999
 30
0.0
 11
530.8069999999999
 21
494.549
 31
0.0
  0
LINE
  5
532
330
1E
100
AcDbEntity
  8
0
100
AcDbLine
 10
537.7999999999999
 20
530.518
 30
0.0
 11
559.0
 21
530.518
 31
0.0
  0
LINE
  5
533
330
1E
100
AcDbEntity
  8
0
100
AcDbLine
 10
534.9
 20
530.518
 30
0.0
 11
537.7999999999999
 21
530.518
 31
0.0
  0
LINE
  5
534
330
1E
100
AcDbEntity
  8
0
100
AcDbLine
 10
532.1
 20
530.518
 30
0.0
 11
534.9
 21
530.518
 31
0.0
  0
LINE
  5
535
330
1E
100
AcDbEntity
  8
0
100
AcDbLine
 10
527.1640841082489
 20
540.9940759800369
 30
0.0
 11
529.096
 21
526.2319999999999
 31
0.0
  0
LINE
  5
538
330
1E
100
AcDbEntity
  8
0
100
AcDbLine
 10
524.087
 20
562.344
 30
0.0
 11
527.0679999999999
 21
563.1469999999999
 31
0.0
  0
LINE
  5
539
330
1E
100
AcDbEntity
  8
0
100
AcDbLine
 10
522.1801555048665
 20
560.8019973524542
 30
0.0
 11
533.224
 21
563.745
 31
0.0
  0
LINE
  5
53A
330
1E
100
AcDbEntity
  8
0
100
AcDbLine
 10
533.224
 20
563.745
 30
0.0
 11
535.9109999999999
 21
564.432
 31
0.0
  0
LINE
  5
53B
330
1E
100
AcDbEntity
  8
0
100
AcDbLine
 10
527.0679999999999
 20
563.1469999999999
 30
0.0
 11
530.125
 21
564.0159999999999
 31
0.0
  0
LINE
  5
53C
330
1E
100
AcDbEntity
  8
0
100
AcDbLine
 10
530.125
 20
564.0159999999999
 30
0.0
 11
533.246
 21
564.807
 31
0.0
  0
LINE
  5
53D
330
1E
100
AcDbEntity
  8
0
100
AcDbLine
 10
535.9109999999999
 20
564.432
 30
0.0
 11
538.239
 21
565.08
 31
0.0
  0
LINE
  5
53E
330
1E
100
AcDbEntity
  8
0
100
AcDbLine
 10
538.239
 20
565.08
 30
0.0
 11
540.0549999999999
 21
565.5599999999999
 31
0.0
  0
LINE
  5
53F
330
1E
100
AcDbEntity
  8
0
100
AcDbLine
 10
533.246
 20
564.807
 30
0.0
 11
536.1499999999999
 21
565.547
 31
0.0
  0
LINE
  5
541
330
1E
100
AcDbEntity
  8
0
100
AcDbLine
 10
538.895757281554
 20
565.2535922330099
 30
0.0
 11
539.7999999999999
 21
565.418
 31
0.0
  0
LINE
  5
542
330
1E
100
AcDbEntity
  8
0
100
AcDbLine
 10
529.8
 20
530.518
 30
0.0
 11
532.1
 21
530.518
 31
0.0
  0
LINE
  5
543
330
1E
100
AcDbEntity
  8
0
100
AcDbLine
 10
522.193181534527
 20
560.7502272345709
 30
0.0
 11
527.1640841082489
 21
540.9940759800369
 31
0.0
  0
LINE
  5
544
330
1E
100
AcDbEntity
  8
0
100
AcDbLine
 10
539.034229439718
 20
565.27876898904
 30
0.0
 11
539.7999999999999
 21
565.418
 31
0.0
  0
LINE
  5
545
330
1E
100
AcDbEntity
  8
0
100
AcDbLine
 10
546.774
 20
494.549
 30
0.0
 11
547.4899999999999
 21
294.9105
 31
0.0
  0
LINE
  5
546
330
1E
100
AcDbEntity
  8
0
100
AcDbLine
 10
544.778
 20
528.83
 30
0.0
 11
546.774
 21
494.549
 31
0.0
  0
LINE
  5
547
330
1E
100
AcDbEntity
  8
0
100
AcDbLine
 10
544.5402329641369
 20
530.518
 30
0.0
 11
544.778
 21
528.83
 31
0.0
  0
LINE
  5
548
330
1E
100
AcDbEntity
  8
0
100
AcDbLine
 10
539.7999999999999
 20
565.418
 30
0.0
 11
540.0
 21
565.518
 31
0.0
  0
LINE
  5
549
330
1E
100
AcDbEntity
  8
0
100
AcDbLine
 10
505.6576999999999
 20
642.957
 30
0.0
 11
508.3389
 21
645.2069999999999
 31
0.0
  0
LINE
  5
54A
330
1E
100
AcDbEntity
  8
0
100
AcDbLine
 10
508.3389
 20
645.2069999999999
 30
0.0
 11
511.0966
 21
647.5209999999999
 31
0.0
  0
LINE
  5
54B
330
1E
100
AcDbEntity
  8
0
100
AcDbLine
 10
511.0966
 20
647.5209999999999
 30
0.0
 11
513.6245999999999
 21
649.6419999999999
 31
0.0
  0
LINE
  5
54C
330
1E
100
AcDbEntity
  8
0
100
AcDbLine
 10
511.538061260388
 20
647.891387394495
 30
0.0
 11
512.1690999999999
 21
648.4209999999999
 31
0.0
  0
LINE
  5
54D
330
1E
100
AcDbEntity
  8
0
100
AcDbLine
 10
512.1690999999999
 20
648.4209999999999
 30
0.0
 11
513.7011999999999
 21
649.7069999999999
 31
0.0
  0
LINE
  5
54E
330
1E
100
AcDbEntity
  8
0
100
AcDbLine
 10
513.6245999999999
 20
649.6419999999999
 30
0.0
 11
514.6246013711929
 21
650.4815239960729
 31
0.0
  0
LINE
  5
54F
330
1E
100
AcDbEntity
  8
0
100
AcDbLine
 10
513.6245999999999
 20
649.6419999999999
 30
0.0
 11
515.8460999999999
 21
651.5069999999999
 31
0.0
  0
LINE
  5
550
330
1E
100
AcDbEntity
  8
0
100
AcDbLine
 10
506.4237
 20
643.5999999999999
 30
0.0
 11
508.3389
 21
645.2069999999999
 31
0.0
  0
LINE
  5
551
330
1E
100
AcDbEntity
  8
0
100
AcDbLine
 10
515.8460999999999
 20
651.5069999999999
 30
0.0
 11
517.5313999999999
 21
652.9209999999999
 31
0.0
  0
LINE
  5
552
330
1E
100
AcDbEntity
  8
0
100
AcDbLine
 10
517.5313999999999
 20
652.9209999999999
 30
0.0
 11
518.5272
 21
653.756
 31
0.0
  0
LINE
  5
553
330
1E
100
AcDbEntity
  8
0
100
AcDbLine
 10
518.9103
 20
654.0779999999999
 30
0.0
 11
542.1879999999999
 21
567.219
 31
0.0
  0
LINE
  5
554
330
1E
100
AcDbEntity
  8
0
100
AcDbLine
 10
518.5272
 20
653.756
 30
0.0
 11
518.9103
 21
654.0779999999999
 31
0.0
  0
LINE
  5
555
330
1E
100
AcDbEntity
  8
0
100
AcDbLine
 10
513.7011999999999
 20
649.7069999999999
 30
0.0
 11
514.6246013711929
 21
650.4815239960729
 31
0.0
  0
LINE
  5
556
330
1E
100
AcDbEntity
  8
0
100
AcDbLine
 10
536.1499999999999
 20
565.547
 30
0.0
 11
538.696
 21
566.2469999999999
 31
0.0
  0
LINE
  5
557
330
1E
100
AcDbEntity
  8
0
100
AcDbLine
 10
541.0779999999999
 20
565.8969999999999
 30
0.0
 11
541.513
 21
566.0009999999999
 31
0.0
  0
LINE
  5
558
330
1E
100
AcDbEntity
  8
0
100
AcDbLine
 10
540.8766385531439
 20
565.83066685475
 30
0.0
 11
541.513
 21
566.0009999999999
 31
0.0
  0
LINE
  5
559
330
1E
100
AcDbEntity
  8
0
100
AcDbLine
 10
540.0549999999999
 20
565.5599999999999
 30
0.0
 11
541.0779999999999
 21
565.8969999999999
 31
0.0
  0
LINE
  5
55A
330
1E
100
AcDbEntity
  8
0
100
AcDbLine
 10
538.696
 20
566.2469999999999
 30
0.0
 11
540.589
 21
566.7909999999999
 31
0.0
  0
LINE
  5
55B
330
1E
100
AcDbEntity
  8
0
100
AcDbLine
 10
540.589
 20
566.7909999999999
 30
0.0
 11
541.753
 21
567.1149999999999
 31
0.0
  0
LINE
  5
55C
330
1E
100
AcDbEntity
  8
0
100
AcDbLine
 10
541.753
 20
567.1149999999999
 30
0.0
 11
542.1879999999999
 21
567.219
 31
0.0
  0
LINE
  5
55D
330
1E
100
AcDbEntity
  8
0
100
AcDbLine
 10
541.513
 20
566.0009999999999
 30
0.0
 11
542.1879999999999
 21
567.219
 31
0.0
  0
LINE
  5
55E
330
1E
100
AcDbEntity
  8
0
100
AcDbLine
 10
530.0
 20
612.697612234027
 30
0.0
 11
530.0
 21
1172.835
 31
0.0
  0
LINE
  5
55F
330
1E
100
AcDbEntity
  8
0
100
AcDbLine
 10
530.0
 20
612.697612234027
 30
0.0
 11
530.0
 21
1172.835
 31
0.0
  0
LINE
  5
560
330
1E
100
AcDbEntity
  8
0
100
AcDbLine
 10
540.0
 20
565.518
 30
0.0
 11
540.026285714286
 21
565.418
 31
0.0
  0
LINE
  5
561
330
1E
100
AcDbEntity
  8
0
100
AcDbLine
 10
540.0
 20
565.518
 30
0.0
 11
559.0
 21
565.518
 31
0.0
  0
LINE
  5
562
330
1E
100
AcDbEntity
  8
0
100
AcDbLine
 10
547.7
 20
530.518
 30
0.0
 11
548.7999999999999
 21
530.518
 31
0.0
  0
LINE
  5
563
330
1E
100
AcDbEntity
  8
0
100
AcDbLine
 10
548.7999999999999
 20
530.518
 30
0.0
 11
549.2
 21
530.518
 31
0.0
  0
LINE
  5
564
330
1E
100
AcDbEntity
  8
0
100
AcDbLine
 10
547.210525088978
 20
372.8350139999999
 30
0.0
 11
558.0
 21
372.8350139999999
 31
0.0
  0
LINE
  5
565
330
1E
100
AcDbEntity
  8
0
100
AcDbLine
 10
558.0
 20
371.835014
 30
0.0
 11
559.0
 21
371.835014
 31
0.0
  0
LINE
  5
566
330
1E
100
AcDbEntity
  8
0
100
AcDbLine
 10
558.0
 20
371.835014
 30
0.0
 11
558.0
 21
372.8350139999999
 31
0.0
  0
LINE
  5
567
330
1E
100
AcDbEntity
  8
0
100
AcDbLine
 10
558.0
 20
371.835014
 30
0.0
 11
558.0
 21
313.8349999999999
 31
0.0
  0
LINE
  5
568
330
1E
100
AcDbEntity
  8
0
100
AcDbLine
 10
559.0
 20
309.4238999999999
 30
0.0
 11
559.0
 21
312.8349999999999
 31
0.0
  0
LINE
  5
569
330
1E
100
AcDbEntity
  8
0
100
AcDbLine
 10
559.0
 20
309.4238999999999
 30
0.0
 11
559.0
 21
306.5427
 31
0.0
  0
LINE
  5
56A
330
1E
100
AcDbEntity
  8
0
100
AcDbLine
 10
559.0
 20
312.8349999999999
 30
0.0
 11
559.0
 21
371.835014
 31
0.0
  0
LINE
  5
56B
330
1E
100
AcDbEntity
  8
0
100
AcDbLine
 10
559.0
 20
312.8349999999999
 30
0.0
 11
559.0
 21
309.4238999999999
 31
0.0
  0
LINE
  5
56C
330
1E
100
AcDbEntity
  8
0
100
AcDbLine
 10
559.0
 20
561.518
 30
0.0
 11
559.0
 21
530.518
 31
0.0
  0
LINE
  5
56D
330
1E
100
AcDbEntity
  8
0
100
AcDbLine
 10
559.0
 20
562.518
 30
0.0
 11
559.0
 21
561.518
 31
0.0
  0
LINE
  5
56E
330
1E
100
AcDbEntity
  8
0
100
AcDbLine
 10
559.0
 20
563.318
 30
0.0
 11
559.0
 21
562.518
 31
0.0
  0
LINE
  5
56F
330
1E
100
AcDbEntity
  8
0
100
AcDbLine
 10
559.0
 20
564.0179999999999
 30
0.0
 11
559.0
 21
563.318
 31
0.0
  0
LINE
  5
570
330
1E
100
AcDbEntity
  8
0
100
AcDbLine
 10
559.0
 20
564.118
 30
0.0
 11
559.0
 21
564.0179999999999
 31
0.0
  0
LINE
  5
571
330
1E
100
AcDbEntity
  8
0
100
AcDbLine
 10
559.0
 20
564.518
 30
0.0
 11
559.0
 21
564.118
 31
0.0
  0
LINE
  5
572
330
1E
100
AcDbEntity
  8
0
100
AcDbLine
 10
559.0
 20
564.8179999999999
 30
0.0
 11
559.0
 21
564.518
 31
0.0
  0
LINE
  5
573
330
1E
100
AcDbEntity
  8
0
100
AcDbLine
 10
559.0
 20
565.218
 30
0.0
 11
559.0
 21
564.8179999999999
 31
0.0
  0
LINE
  5
574
330
1E
100
AcDbEntity
  8
0
100
AcDbLine
 10
559.0
 20
565.518
 30
0.0
 11
559.0
 21
565.418
 31
0.0
  0
LINE
  5
575
330
1E
100
AcDbEntity
  8
0
100
AcDbLine
 10
559.0
 20
565.418
 30
0.0
 11
559.0
 21
565.518
 31
0.0
  0
LINE
  5
576
330
1E
100
AcDbEntity
  8
0
100
AcDbLine
 10
559.0
 20
565.418
 30
0.0
 11
559.0
 21
565.218
 31
0.0
  0
LINE
  5
577
330
1E
100
AcDbEntity
  8
0
100
AcDbLine
 10
559.0
 20
371.835014
 30
0.0
 11
559.0
 21
312.8349999999999
 31
0.0
  0
LINE
  5
578
330
1E
100
AcDbEntity
  8
0
100
AcDbLine
 10
558.0
 20
372.8350139999999
 30
0.0
 11
559.0
 21
371.835014
 31
0.0
  0
LINE
  5
579
330
1E
100
AcDbEntity
  8
0
100
AcDbLine
 10
558.0
 20
372.8350139999999
 30
0.0
 11
558.0
 21
371.835014
 31
0.0
  0
LINE
  5
57A
330
1E
100
AcDbEntity
  8
0
100
AcDbLine
 10
512.1
 20
306.5427
 30
0.0
 11
514.2999999999999
 21
304.5301
 31
0.0
  0
LINE
  5
57B
330
1E
100
AcDbEntity
  8
0
100
AcDbLine
 10
505.1999999999999
 20
312.8349999999999
 30
0.0
 11
512.1
 21
306.5427
 31
0.0
  0
LINE
  5
57C
330
1E
100
AcDbEntity
  8
0
100
AcDbLine
 10
515.0
 20
303.8349999999999
 30
0.0
 11
516.6
 21
302.8349999999999
 31
0.0
  0
LINE
  5
57D
330
1E
100
AcDbEntity
  8
0
100
AcDbLine
 10
488.0339
 20
659.7599999999999
 30
0.0
 11
488.8519
 21
660.186
 31
0.0
  0
LINE
  5
57E
330
1E
100
AcDbEntity
  8
0
100
AcDbLine
 10
489.4893999999999
 20
660.982
 30
0.0
 11
490.7836999999999
 21
664.4169999999999
 31
0.0
  0
LINE
  5
57F
330
1E
100
AcDbEntity
  8
0
100
AcDbLine
 10
488.8519
 20
660.186
 30
0.0
 11
489.4893999999999
 21
660.982
 31
0.0
  0
LINE
  5
580
330
1E
100
AcDbEntity
  8
0
100
AcDbLine
 10
487.3294999999999
 20
659.822
 30
0.0
 11
488.0339
 21
659.7599999999999
 31
0.0
  0
LINE
  5
581
330
1E
100
AcDbEntity
  8
0
100
AcDbLine
 10
486.6100999999999
 20
660.5239999999999
 30
0.0
 11
487.3294999999999
 21
659.822
 31
0.0
  0
LINE
  5
582
330
1E
100
AcDbEntity
  8
0
100
AcDbLine
 10
491.1693999999999
 20
663.9580000000001
 30
0.0
 11
492.2620999999999
 21
662.6549999999999
 31
0.0
  0
LINE
  5
583
330
1E
100
AcDbEntity
  8
0
100
AcDbLine
 10
492.5139999999999
 20
663.911
 30
0.0
 11
493.6709999999999
 21
662.5319999999999
 31
0.0
  0
LINE
  5
584
330
1E
100
AcDbEntity
  8
0
100
AcDbLine
 10
494.495994019703
 20
662.332665892852
 30
0.0
 11
500.755
 21
638.8440000000001
 31
0.0
  0
LINE
  5
585
330
1E
100
AcDbEntity
  8
0
100
AcDbLine
 10
493.6709999999999
 20
662.5319999999999
 30
0.0
 11
494.1208999999999
 21
661.996
 31
0.0
  0
LINE
  5
586
330
1E
100
AcDbEntity
  8
0
100
AcDbLine
 10
492.7121
 20
662.1189999999999
 30
0.0
 11
494.1208999999999
 21
661.996
 31
0.0
  0
LINE
  5
587
330
1E
100
AcDbEntity
  8
0
100
AcDbLine
 10
492.2620999999999
 20
662.6549999999999
 30
0.0
 11
492.7121
 21
662.1189999999999
 31
0.0
  0
LINE
  5
588
330
1E
100
AcDbEntity
  8
0
100
AcDbLine
 10
494.1208999999999
 20
661.996
 30
0.0
 11
494.537534376292
 21
662.345582321825
 31
0.0
  0
LINE
  5
589
330
1E
100
AcDbEntity
  8
0
100
AcDbLine
 10
485.8870999999999
 20
663.705
 30
0.0
 11
486.2613999999999
 21
661.4060000000001
 31
0.0
  0
LINE
  5
58A
330
1E
100
AcDbEntity
  8
0
100
AcDbLine
 10
486.2613999999999
 20
661.4060000000001
 30
0.0
 11
486.6100999999999
 21
660.5239999999999
 31
0.0
  0
LINE
  5
58B
330
1E
100
AcDbEntity
  8
0
100
AcDbLine
 10
485.8769999999999
 20
663.7699999999999
 30
0.0
 11
486.2613999999999
 21
661.4060000000001
 31
0.0
  0
LINE
  5
58C
330
1E
100
AcDbEntity
  8
0
100
AcDbLine
 10
484.9107
 20
669.8610000000001
 30
0.0
 11
486.024
 21
668.534
 31
0.0
  0
LINE
  5
58D
330
1E
100
AcDbEntity
  8
0
100
AcDbLine
 10
484.9107
 20
669.8610000000001
 30
0.0
 11
485.564716930126
 21
670.4095358365719
 31
0.0
  0
LINE
  5
58E
330
1E
100
AcDbEntity
  8
0
100
AcDbLine
 10
484.9107
 20
669.8610000000001
 30
0.0
 11
485.5534999999999
 21
669.095
 31
0.0
  0
LINE
  5
58F
330
1E
100
AcDbEntity
  8
0
100
AcDbLine
 10
484.9933
 20
672.8739999999999
 30
0.0
 11
488.2073
 21
669.0439999999999
 31
0.0
  0
LINE
  5
590
330
1E
100
AcDbEntity
  8
0
100
AcDbLine
 10
484.700952433477
 20
671.015890013172
 30
0.0
 11
485.8769999999999
 21
663.7699999999999
 31
0.0
  0
LINE
  5
591
330
1E
100
AcDbEntity
  8
0
100
AcDbLine
 10
488.5868
 20
665.48
 30
0.0
 11
489.352774189865
 21
666.122436416668
 31
0.0
  0
LINE
  5
592
330
1E
100
AcDbEntity
  8
0
100
AcDbLine
 10
490.7141
 20
666.056
 30
0.0
 11
492.5139999999999
 21
663.911
 31
0.0
  0
LINE
  5
593
330
1E
100
AcDbEntity
  8
0
100
AcDbLine
 10
485.5534999999999
 20
669.095
 30
0.0
 11
486.3197456691479
 21
669.7376641112559
 31
0.0
  0
LINE
  5
594
330
1E
100
AcDbEntity
  8
0
100
AcDbLine
 10
485.5534999999999
 20
669.095
 30
0.0
 11
486.6668
 21
667.768
 31
0.0
  0
LINE
  5
595
330
1E
100
AcDbEntity
  8
0
100
AcDbLine
 10
486.024
 20
668.534
 30
0.0
 11
486.6668
 21
667.768
 31
0.0
  0
LINE
  5
596
330
1E
100
AcDbEntity
  8
0
100
AcDbLine
 10
486.6668
 20
667.768
 30
0.0
 11
487.432856240588
 21
668.411005238167
 31
0.0
  0
LINE
  5
597
330
1E
100
AcDbEntity
  8
0
100
AcDbLine
 10
486.9269999999999
 20
669.0139999999999
 30
0.0
 11
489.3053
 21
666.1789999999999
 31
0.0
  0
LINE
  5
598
330
1E
100
AcDbEntity
  8
0
100
AcDbLine
 10
486.8306999999999
 20
667.5729999999999
 30
0.0
 11
487.944
 21
666.2460000000001
 31
0.0
  0
LINE
  5
599
330
1E
100
AcDbEntity
  8
0
100
AcDbLine
 10
486.8306999999999
 20
667.5729999999999
 30
0.0
 11
487.4853067588739
 21
668.122030536619
 31
0.0
  0
LINE
  5
59A
330
1E
100
AcDbEntity
  8
0
100
AcDbLine
 10
486.8306999999999
 20
667.5729999999999
 30
0.0
 11
487.4735
 21
666.807
 31
0.0
  0
LINE
  5
59B
330
1E
100
AcDbEntity
  8
0
100
AcDbLine
 10
485.2849612460559
 20
667.41768213185
 30
0.0
 11
485.8870999999999
 21
663.705
 31
0.0
  0
LINE
  5
59C
330
1E
100
AcDbEntity
  8
0
100
AcDbLine
 10
489.3053
 20
666.1789999999999
 30
0.0
 11
491.1693999999999
 21
663.9580000000001
 31
0.0
  0
LINE
  5
59D
330
1E
100
AcDbEntity
  8
0
100
AcDbLine
 10
488.2073
 20
669.0439999999999
 30
0.0
 11
490.7141
 21
666.056
 31
0.0
  0
LINE
  5
59E
330
1E
100
AcDbEntity
  8
0
100
AcDbLine
 10
509.7579
 20
676.031
 30
0.0
 11
510.2078999999999
 21
675.4939999999999
 31
0.0
  0
LINE
  5
59F
330
1E
100
AcDbEntity
  8
0
100
AcDbLine
 10
509.7452803767289
 20
675.105833177416
 30
0.0
 11
510.2078999999999
 21
675.4939999999999
 31
0.0
  0
LINE
  5
5A0
330
1E
100
AcDbEntity
  8
0
100
AcDbLine
 10
509.7452803767289
 20
675.105833177416
 30
0.0
 11
515.9991828758299
 21
651.6354395576
 31
0.0
  0
LINE
  5
5A1
330
1E
100
AcDbEntity
  8
0
100
AcDbLine
 10
510.2078999999999
 20
675.4939999999999
 30
0.0
 11
510.3310999999999
 21
676.903
 31
0.0
  0
LINE
  5
5A2
330
1E
100
AcDbEntity
  8
0
100
AcDbLine
 10
510.0
 20
674.1498908962999
 30
0.0
 11
510.0
 21
675.3195588860569
 31
0.0
  0
LINE
  5
5A3
330
1E
100
AcDbEntity
  8
0
100
AcDbLine
 10
508.6009
 20
677.4099999999999
 30
0.0
 11
509.7579
 21
676.031
 31
0.0
  0
LINE
  5
5A4
330
1E
100
AcDbEntity
  8
0
100
AcDbLine
 10
506.8011
 20
679.5549999999999
 30
0.0
 11
508.6009
 21
677.4099999999999
 31
0.0
  0
LINE
  5
5A5
330
1E
100
AcDbEntity
  8
0
100
AcDbLine
 10
508.7884
 20
678.742
 30
0.0
 11
509.8811999999999
 21
677.44
 31
0.0
  0
LINE
  5
5A6
330
1E
100
AcDbEntity
  8
0
100
AcDbLine
 10
509.8811999999999
 20
677.44
 30
0.0
 11
510.3310999999999
 21
676.903
 31
0.0
  0
LINE
  5
5A7
330
1E
100
AcDbEntity
  8
0
100
AcDbLine
 10
510.0
 20
677.3222056450549
 30
0.0
 11
510.0
 21
1172.835
 31
0.0
  0
LINE
  5
5A8
330
1E
100
AcDbEntity
  8
0
100
AcDbLine
 10
510.0
 20
677.3222056450549
 30
0.0
 11
510.0
 21
1172.835
 31
0.0
  0
LINE
  5
5A9
330
1E
100
AcDbEntity
  8
0
100
AcDbLine
 10
487.4735
 20
666.807
 30
0.0
 11
488.1764900429689
 21
667.396610472694
 31
0.0
  0
LINE
  5
5AA
330
1E
100
AcDbEntity
  8
0
100
AcDbLine
 10
487.4735
 20
666.807
 30
0.0
 11
488.5868
 21
665.48
 31
0.0
  0
LINE
  5
5AB
330
1E
100
AcDbEntity
  8
0
100
AcDbLine
 10
487.944
 20
666.2460000000001
 30
0.0
 11
488.5868
 21
665.48
 31
0.0
  0
LINE
  5
5AC
330
1E
100
AcDbEntity
  8
0
100
AcDbLine
 10
487.2501324982
 20
668.2576322646599
 30
0.0
 11
487.4229843982179
 21
668.069759644742
 31
0.0
  0
LINE
  5
5AD
330
1E
100
AcDbEntity
  8
0
100
AcDbLine
 10
489.2747918963969
 20
666.057031255708
 30
0.0
 11
490.7836999999999
 21
664.4169999999999
 31
0.0
  0
LINE
  5
5AE
330
1E
100
AcDbEntity
  8
0
100
AcDbLine
 10
485.2558
 20
671.0049999999999
 30
0.0
 11
485.6767312358719
 21
670.5034842621869
 31
0.0
  0
LINE
  5
5AF
330
1E
100
AcDbEntity
  8
0
100
AcDbLine
 10
485.2558
 20
671.0049999999999
 30
0.0
 11
487.166833541836
 21
668.7281117221949
 31
0.0
  0
LINE
  5
5B0
330
1E
100
AcDbEntity
  8
0
100
AcDbLine
 10
490.4163622238939
 20
664.855214151994
 30
0.0
 11
490.7836999999999
 21
664.4169999999999
 31
0.0
  0
LINE
  5
5B1
330
1E
100
AcDbEntity
  8
0
100
AcDbLine
 10
490.4163622238939
 20
664.855214151994
 30
0.0
 11
491.1693999999999
 21
663.9580000000001
 31
0.0
  0
LINE
  5
5B2
330
1E
100
AcDbEntity
  8
0
100
AcDbLine
 10
484.039121620651
 20
671.646414778759
 30
0.0
 11
484.716451897585
 21
670.9203943755909
 31
0.0
  0
LINE
  5
5B3
330
1E
100
AcDbEntity
  8
0
100
AcDbLine
 10
471.076938694849
 20
687.902864596329
 30
0.0
 11
471.558620273844
 21
687.328787971992
 31
0.0
  0
LINE
  5
5B4
330
1E
100
AcDbEntity
  8
0
100
AcDbLine
 10
471.1109
 20
684.751
 30
0.0
 11
471.7537
 21
683.985
 31
0.0
  0
LINE
  5
5B5
330
1E
100
AcDbEntity
  8
0
100
AcDbLine
 10
471.6951
 20
684.833
 30
0.0
 11
472.334675243564
 21
685.369423332668
 31
0.0
  0
LINE
  5
5B6
330
1E
100
AcDbEntity
  8
0
100
AcDbLine
 10
472.0089999999999
 20
688.348
 30
0.0
 11
476.8298999999999
 21
682.6030000000001
 31
0.0
  0
LINE
  5
5B7
330
1E
100
AcDbEntity
  8
0
100
AcDbLine
 10
472.2221
 20
684.982
 30
0.0
 11
473.5077
 21
683.45
 31
0.0
  0
LINE
  5
5B8
330
1E
100
AcDbEntity
  8
0
100
AcDbLine
 10
472.2221
 20
684.982
 30
0.0
 11
472.988174204188
 21
685.625020316289
 31
0.0
  0
LINE
  5
5B9
330
1E
100
AcDbEntity
  8
0
100
AcDbLine
 10
472.2221
 20
684.982
 30
0.0
 11
472.8774542797729
 21
685.5320852449501
 31
0.0
  0
LINE
  5
5BA
330
1E
100
AcDbEntity
  8
0
100
AcDbLine
 10
471.7537
 20
683.985
 30
0.0
 11
472.3801681348529
 21
684.5108390584299
 31
0.0
  0
LINE
  5
5BB
330
1E
100
AcDbEntity
  8
0
100
AcDbLine
 10
471.1642
 20
684.687
 30
0.0
 11
471.8069999999999
 21
683.921
 31
0.0
  0
LINE
  5
5BC
330
1E
100
AcDbEntity
  8
0
100
AcDbLine
 10
471.8069999999999
 20
683.921
 30
0.0
 11
472.3876072720869
 21
684.408344789442
 31
0.0
  0
LINE
  5
5BD
330
1E
100
AcDbEntity
  8
0
100
AcDbLine
 10
473.5077
 20
683.45
 30
0.0
 11
474.273675338076
 21
684.092937330961
 31
0.0
  0
LINE
  5
5BE
330
1E
100
AcDbEntity
  8
0
100
AcDbLine
 10
473.5077
 20
683.45
 30
0.0
 11
474.248060768958
 21
684.071437209634
 31
0.0
  0
LINE
  5
5BF
330
1E
100
AcDbEntity
  8
0
100
AcDbLine
 10
475.6782
 20
682.4189999999999
 30
0.0
 11
479.9849
 21
677.2869999999999
 31
0.0
  0
LINE
  5
5C0
330
1E
100
AcDbEntity
  8
0
100
AcDbLine
 10
476.8298999999999
 20
682.6030000000001
 30
0.0
 11
481.2008999999999
 21
677.393
 31
0.0
  0
LINE
  5
5C1
330
1E
100
AcDbEntity
  8
0
100
AcDbLine
 10
501.0803
 20
686.3719999999999
 30
0.0
 11
504.2942
 21
682.5419999999999
 31
0.0
  0
LINE
  5
5C2
330
1E
100
AcDbEntity
  8
0
100
AcDbLine
 10
504.2942
 20
682.5419999999999
 30
0.0
 11
506.8011
 21
679.5549999999999
 31
0.0
  0
LINE
  5
5C3
330
1E
100
AcDbEntity
  8
0
100
AcDbLine
 10
488.0959999999999
 20
701.846
 30
0.0
 11
492.9168999999999
 21
696.1010000000001
 31
0.0
  0
LINE
  5
5C4
330
1E
100
AcDbEntity
  8
0
100
AcDbLine
 10
492.9168999999999
 20
696.1010000000001
 30
0.0
 11
497.2878
 21
690.8919999999999
 31
0.0
  0
LINE
  5
5C5
330
1E
100
AcDbEntity
  8
0
100
AcDbLine
 10
493.2971999999999
 20
697.203
 30
0.0
 11
497.6039
 21
692.071
 31
0.0
  0
LINE
  5
5C6
330
1E
100
AcDbEntity
  8
0
100
AcDbLine
 10
488.5405999999999
 20
702.8719999999999
 30
0.0
 11
493.2971999999999
 21
697.203
 31
0.0
  0
LINE
  5
5C7
330
1E
100
AcDbEntity
  8
0
100
AcDbLine
 10
497.2878
 20
690.8919999999999
 30
0.0
 11
501.0803
 21
686.3719999999999
 31
0.0
  0
LINE
  5
5C8
330
1E
100
AcDbEntity
  8
0
100
AcDbLine
 10
497.6039
 20
692.071
 30
0.0
 11
501.3321
 21
687.628
 31
0.0
  0
LINE
  5
5C9
330
1E
100
AcDbEntity
  8
0
100
AcDbLine
 10
501.3321
 20
687.628
 30
0.0
 11
504.546
 21
683.7979999999999
 31
0.0
  0
LINE
  5
5CA
330
1E
100
AcDbEntity
  8
0
100
AcDbLine
 10
504.546
 20
683.7979999999999
 30
0.0
 11
506.9243
 21
680.9630000000001
 31
0.0
  0
LINE
  5
5CB
330
1E
100
AcDbEntity
  8
0
100
AcDbLine
 10
506.9243
 20
680.9630000000001
 30
0.0
 11
508.7884
 21
678.742
 31
0.0
  0
LINE
  5
5CC
330
1E
100
AcDbEntity
  8
0
100
AcDbLine
 10
474.8518
 20
681.071
 30
0.0
 11
475.137776661744
 21
681.3108538021939
 31
0.0
  0
LINE
  5
5CD
330
1E
100
AcDbEntity
  8
0
100
AcDbLine
 10
474.8518
 20
681.071
 30
0.0
 11
475.9650999999999
 21
679.7439999999999
 31
0.0
  0
LINE
  5
5CE
330
1E
100
AcDbEntity
  8
0
100
AcDbLine
 10
474.8518
 20
681.071
 30
0.0
 11
475.446587037358
 21
681.569858653486
 31
0.0
  0
LINE
  5
5CF
330
1E
100
AcDbEntity
  8
0
100
AcDbLine
 10
477.622320907073
 20
680.102324007918
 30
0.0
 11
478.5708
 21
678.9719999999999
 31
0.0
  0
LINE
  5
5D0
330
1E
100
AcDbEntity
  8
0
100
AcDbLine
 10
472.294591951334
 20
684.4390089089589
 30
0.0
 11
475.125158473843
 21
681.30027069962
 31
0.0
  0
LINE
  5
5D1
330
1E
100
AcDbEntity
  8
0
100
AcDbLine
 10
477.757026061282
 20
679.941792826021
 30
0.0
 11
478.5708
 21
678.9719999999999
 31
0.0
  0
LINE
  5
5D2
330
1E
100
AcDbEntity
  8
0
100
AcDbLine
 10
471.076890819183
 20
687.9028244082698
 30
0.0
 11
471.5585836896779
 21
687.3287572881899
 31
0.0
  0
LINE
  5
5D3
330
1E
100
AcDbEntity
  8
0
100
AcDbLine
 10
447.6685999999999
 20
711.133
 30
0.0
 11
448.051487197424
 21
711.454134422485
 31
0.0
  0
LINE
  5
5D4
330
1E
100
AcDbEntity
  8
0
100
AcDbLine
 10
448.0516
 20
711.4539999999999
 30
0.0
 11
448.564681131098
 21
711.8846653185769
 31
0.0
  0
LINE
  5
5D5
330
1E
100
AcDbEntity
  8
0
100
AcDbLine
 10
448.4346
 20
711.776
 30
0.0
 11
448.817487202574
 21
712.097134426804
 31
0.0
  0
LINE
  5
5D6
330
1E
100
AcDbEntity
  8
0
100
AcDbLine
 10
448.434674145812
 20
711.77552025153
 30
0.0
 11
448.6145999999999
 21
711.561
 31
0.0
  0
LINE
  5
5D7
330
1E
100
AcDbEntity
  8
0
100
AcDbLine
 10
447.8486
 20
710.918
 30
0.0
 11
448.6199
 21
709.9989999999999
 31
0.0
  0
LINE
  5
5D8
330
1E
100
AcDbEntity
  8
0
100
AcDbLine
 10
446.383
 20
712.6649999999999
 30
0.0
 11
447.6685999999999
 21
711.133
 31
0.0
  0
LINE
  5
5D9
330
1E
100
AcDbEntity
  8
0
100
AcDbLine
 10
446.383
 20
712.6649999999999
 30
0.0
 11
447.11690000004
 21
713.28053521314
 31
0.0
  0
LINE
  5
5DA
330
1E
100
AcDbEntity
  8
0
100
AcDbLine
 10
446.7659999999999
 20
712.986
 30
0.0
 11
448.0516
 21
711.4539999999999
 31
0.0
  0
LINE
  5
5DB
330
1E
100
AcDbEntity
  8
0
100
AcDbLine
 10
446.7659999999999
 20
712.986
 30
0.0
 11
447.149256512058
 21
713.307694324461
 31
0.0
  0
LINE
  5
5DC
330
1E
100
AcDbEntity
  8
0
100
AcDbLine
 10
447.5321
 20
713.6289999999998
 30
0.0
 11
448.8176
 21
712.0969999999999
 31
0.0
  0
LINE
  5
5DD
330
1E
100
AcDbEntity
  8
0
100
AcDbLine
 10
447.5321
 20
713.6289999999998
 30
0.0
 11
448.005074358693
 21
714.026000865009
 31
0.0
  0
LINE
  5
5DE
330
1E
100
AcDbEntity
  8
0
100
AcDbLine
 10
447.149
 20
713.3079999999999
 30
0.0
 11
448.4346
 21
711.776
 31
0.0
  0
LINE
  5
5DF
330
1E
100
AcDbEntity
  8
0
100
AcDbLine
 10
447.149
 20
713.3079999999999
 30
0.0
 11
447.914885180284
 21
713.9503617627209
 31
0.0
  0
LINE
  5
5E0
330
1E
100
AcDbEntity
  8
0
100
AcDbLine
 10
446.9691
 20
713.5219999999999
 30
0.0
 11
447.1491103910209
 21
713.307571674729
 31
0.0
  0
LINE
  5
5E1
330
1E
100
AcDbEntity
  8
0
100
AcDbLine
 10
447.0258
 20
711.8989999999999
 30
0.0
 11
447.8486
 21
710.918
 31
0.0
  0
LINE
  5
5E2
330
1E
100
AcDbEntity
  8
0
100
AcDbLine
 10
446.203
 20
712.8789999999999
 30
0.0
 11
447.0257999998729
 21
711.899000000151
 31
0.0
  0
LINE
  5
5E3
330
1E
100
AcDbEntity
  8
0
100
AcDbLine
 10
445.4316999999999
 20
713.799
 30
0.0
 11
446.203
 21
712.8789999999999
 31
0.0
  0
LINE
  5
5E4
330
1E
100
AcDbEntity
  8
0
100
AcDbLine
 10
449.8154999999999
 20
708.5739999999999
 30
0.0
 11
450.124
 21
708.2069999999999
 31
0.0
  0
LINE
  5
5E5
330
1E
100
AcDbEntity
  8
0
100
AcDbLine
 10
450.2397
 20
708.0689999999999
 30
0.0
 11
451.0057999999999
 21
708.711
 31
0.0
  0
LINE
  5
5E6
330
1E
100
AcDbEntity
  8
0
100
AcDbLine
 10
450.124
 20
708.2069999999999
 30
0.0
 11
450.2397
 21
708.0689999999999
 31
0.0
  0
LINE
  5
5E7
330
1E
100
AcDbEntity
  8
0
100
AcDbLine
 10
448.6145999999999
 20
711.561
 30
0.0
 11
449.3858999999999
 21
710.6419999999999
 31
0.0
  0
LINE
  5
5E8
330
1E
100
AcDbEntity
  8
0
100
AcDbLine
 10
449.3013
 20
709.187
 30
0.0
 11
449.8154999999999
 21
708.5739999999999
 31
0.0
  0
LINE
  5
5E9
330
1E
100
AcDbEntity
  8
0
100
AcDbLine
 10
448.8176
 20
712.0969999999999
 30
0.0
 11
449.200422824292
 21
712.418330299615
 31
0.0
  0
LINE
  5
5EA
330
1E
100
AcDbEntity
  8
0
100
AcDbLine
 10
449.9667279362819
 20
713.0609814803599
 30
0.0
 11
454.9161999999999
 21
707.1629999999999
 31
0.0
  0
LINE
  5
5EB
330
1E
100
AcDbEntity
  8
0
100
AcDbLine
 10
449.2007
 20
712.4179999999999
 30
0.0
 11
449.9667279362819
 21
713.0609814803599
 31
0.0
  0
LINE
  5
5EC
330
1E
100
AcDbEntity
  8
0
100
AcDbLine
 10
449.3858999999999
 20
710.6419999999999
 30
0.0
 11
449.505345411898
 21
710.499661176312
 31
0.0
  0
LINE
  5
5ED
330
1E
100
AcDbEntity
  8
0
100
AcDbLine
 10
448.6199
 20
709.9989999999999
 30
0.0
 11
449.3013
 21
709.187
 31
0.0
  0
LINE
  5
5EE
330
1E
100
AcDbEntity
  8
0
100
AcDbLine
 10
450.6844
 20
709.0939999999999
 30
0.0
 11
452.0985
 21
707.4089999999999
 31
0.0
  0
LINE
  5
5EF
330
1E
100
AcDbEntity
  8
0
100
AcDbLine
 10
448.434803475939
 20
711.775649807492
 30
0.0
 11
449.2702
 21
710.78
 31
0.0
  0
LINE
  5
5F0
330
1E
100
AcDbEntity
  8
0
100
AcDbLine
 10
445.5163999999999
 20
715.253
 30
0.0
 11
446.1977
 21
714.441
 31
0.0
  0
LINE
  5
5F1
330
1E
100
AcDbEntity
  8
0
100
AcDbLine
 10
444.7503
 20
714.6110000000001
 30
0.0
 11
445.4316999999999
 21
713.799
 31
0.0
  0
LINE
  5
5F2
330
1E
100
AcDbEntity
  8
0
100
AcDbLine
 10
444.2361
 20
715.2230000000001
 30
0.0
 11
444.7503
 21
714.6110000000001
 31
0.0
  0
LINE
  5
5F3
330
1E
100
AcDbEntity
  8
0
100
AcDbLine
 10
443.9275999999999
 20
715.591
 30
0.0
 11
444.2361
 21
715.2230000000001
 31
0.0
  0
LINE
  5
5F4
330
1E
100
AcDbEntity
  8
0
100
AcDbLine
 10
446.1977
 20
714.441
 30
0.0
 11
446.9691
 21
713.5219999999999
 31
0.0
  0
LINE
  5
5F5
330
1E
100
AcDbEntity
  8
0
100
AcDbLine
 10
443.7317
 20
720.4919999999999
 30
0.0
 11
449.3238999999999
 21
713.827
 31
0.0
  0
LINE
  5
5F6
330
1E
100
AcDbEntity
  8
0
100
AcDbLine
 10
444.4334
 20
721.211
 30
0.0
 11
450.0899999999999
 21
714.47
 31
0.0
  0
LINE
  5
5F7
330
1E
100
AcDbEntity
  8
0
100
AcDbLine
 10
445.0020999999999
 20
715.8660000000001
 30
0.0
 11
445.5163999999999
 21
715.253
 31
0.0
  0
LINE
  5
5F8
330
1E
100
AcDbEntity
  8
0
100
AcDbLine
 10
444.6935999999999
 20
716.2339999999999
 30
0.0
 11
445.0020999999999
 21
715.8660000000001
 31
0.0
  0
LINE
  5
5F9
330
1E
100
AcDbEntity
  8
0
100
AcDbLine
 10
444.602878619865
 20
716.342207004828
 30
0.0
 11
444.6935999999999
 21
716.2339999999999
 31
0.0
  0
LINE
  5
5FA
330
1E
100
AcDbEntity
  8
0
100
AcDbLine
 10
443.8118999999999
 20
715.7289999999999
 30
0.0
 11
443.9275999999999
 21
715.591
 31
0.0
  0
LINE
  5
5FB
330
1E
100
AcDbEntity
  8
0
100
AcDbLine
 10
443.8118999999999
 20
715.7289999999999
 30
0.0
 11
444.577885619936
 21
716.371987929006
 31
0.0
  0
LINE
  5
5FC
330
1E
100
AcDbEntity
  8
0
100
AcDbLine
 10
450.0899999999999
 20
714.47
 30
0.0
 11
455.7465
 21
707.7289999999999
 31
0.0
  0
LINE
  5
5FD
330
1E
100
AcDbEntity
  8
0
100
AcDbLine
 10
447.9150999999999
 20
713.95
 30
0.0
 11
449.2007
 21
712.4179999999999
 31
0.0
  0
LINE
  5
5FE
330
1E
100
AcDbEntity
  8
0
100
AcDbLine
 10
447.9150999999999
 20
713.95
 30
0.0
 11
448.681176723469
 21
714.5930224308999
 31
0.0
  0
LINE
  5
5FF
330
1E
100
AcDbEntity
  8
0
100
AcDbLine
 10
446.3134
 20
714.304
 30
0.0
 11
447.149053032004
 21
713.3080444789019
 31
0.0
  0
LINE
  5
600
330
1E
100
AcDbEntity
  8
0
100
AcDbLine
 10
449.3238999999999
 20
713.827
 30
0.0
 11
454.7876
 21
707.316
 31
0.0
  0
LINE
  5
601
330
1E
100
AcDbEntity
  8
0
100
AcDbLine
 10
449.3238999999999
 20
713.827
 30
0.0
 11
454.9161999999999
 21
707.1629999999999
 31
0.0
  0
LINE
  5
602
330
1E
100
AcDbEntity
  8
0
100
AcDbLine
 10
455.7465
 20
707.7289999999999
 30
0.0
 11
461.4673
 21
700.911
 31
0.0
  0
LINE
  5
603
330
1E
100
AcDbEntity
  8
0
100
AcDbLine
 10
471.8333999999999
 20
721.227
 30
0.0
 11
477.5541999999999
 21
714.4099999999999
 31
0.0
  0
LINE
  5
604
330
1E
100
AcDbEntity
  8
0
100
AcDbLine
 10
483.0179
 20
707.898
 30
0.0
 11
488.0959999999999
 21
701.846
 31
0.0
  0
LINE
  5
605
330
1E
100
AcDbEntity
  8
0
100
AcDbLine
 10
477.5541999999999
 20
714.4099999999999
 30
0.0
 11
483.0179
 21
707.898
 31
0.0
  0
LINE
  5
606
330
1E
100
AcDbEntity
  8
0
100
AcDbLine
 10
483.5269
 20
708.847
 30
0.0
 11
488.5405999999999
 21
702.8719999999999
 31
0.0
  0
LINE
  5
607
330
1E
100
AcDbEntity
  8
0
100
AcDbLine
 10
477.8703
 20
715.5889999999999
 30
0.0
 11
483.5269
 21
708.847
 31
0.0
  0
LINE
  5
608
330
1E
100
AcDbEntity
  8
0
100
AcDbLine
 10
472.5351999999999
 20
721.947
 30
0.0
 11
477.8703
 21
715.5889999999999
 31
0.0
  0
LINE
  5
609
330
1E
100
AcDbEntity
  8
0
100
AcDbLine
 10
452.0985
 20
707.4089999999999
 30
0.0
 11
453.3840999999999
 21
705.8769999999999
 31
0.0
  0
LINE
  5
60A
330
1E
100
AcDbEntity
  8
0
100
AcDbLine
 10
450.98082137999
 20
708.7407929953439
 30
0.0
 11
452.0985
 21
707.4089999999999
 31
0.0
  0
LINE
  5
60B
330
1E
100
AcDbEntity
  8
0
100
AcDbLine
 10
454.7876
 20
707.316
 30
0.0
 11
456.687988000821
 21
705.051174561448
 31
0.0
  0
LINE
  5
60C
330
1E
100
AcDbEntity
  8
0
100
AcDbLine
 10
454.7876
 20
707.316
 30
0.0
 11
456.687988000821
 21
705.051174561448
 31
0.0
  0
LINE
  5
60D
330
1E
100
AcDbEntity
  8
0
100
AcDbLine
 10
442.1996
 20
719.206
 30
0.0
 11
443.4852
 21
717.6739999999999
 31
0.0
  0
LINE
  5
60E
330
1E
100
AcDbEntity
  8
0
100
AcDbLine
 10
438.3964999999999
 20
726.85
 30
0.0
 11
443.7317
 21
720.4919999999999
 31
0.0
  0
LINE
  5
60F
330
1E
100
AcDbEntity
  8
0
100
AcDbLine
 10
438.7126
 20
728.0289999999999
 30
0.0
 11
444.4334
 21
721.211
 31
0.0
  0
LINE
  5
610
330
1E
100
AcDbEntity
  8
0
100
AcDbLine
 10
466.1768999999999
 20
727.9689999999999
 30
0.0
 11
471.8333999999999
 21
721.227
 31
0.0
  0
LINE
  5
611
330
1E
100
AcDbEntity
  8
0
100
AcDbLine
 10
466.9429
 20
728.611
 30
0.0
 11
472.5351999999999
 21
721.947
 31
0.0
  0
LINE
  5
612
330
1E
100
AcDbEntity
  8
0
100
AcDbLine
 10
454.7996
 20
741.528
 30
0.0
 11
460.5203999999999
 21
734.71
 31
0.0
  0
LINE
  5
613
330
1E
100
AcDbEntity
  8
0
100
AcDbLine
 10
460.5203999999999
 20
734.71
 30
0.0
 11
466.1768999999999
 21
727.9689999999999
 31
0.0
  0
LINE
  5
614
330
1E
100
AcDbEntity
  8
0
100
AcDbLine
 10
449.3358999999999
 20
748.0389999999999
 30
0.0
 11
454.7996
 21
741.528
 31
0.0
  0
LINE
  5
615
330
1E
100
AcDbEntity
  8
0
100
AcDbLine
 10
456.0156
 20
741.6339999999999
 30
0.0
 11
461.3507
 21
735.276
 31
0.0
  0
LINE
  5
616
330
1E
100
AcDbEntity
  8
0
100
AcDbLine
 10
461.3507
 20
735.276
 30
0.0
 11
466.9429
 21
728.611
 31
0.0
  0
LINE
  5
617
330
1E
100
AcDbEntity
  8
0
100
AcDbLine
 10
468.475
 20
729.8969999999999
 30
0.0
 11
510.3310999999999
 21
676.903
 31
0.0
  0
LINE
  5
618
330
1E
100
AcDbEntity
  8
0
100
AcDbLine
 10
436.9287299999999
 20
725.488
 30
0.0
 11
437.443
 21
724.875
 31
0.0
  0
LINE
  5
619
330
1E
100
AcDbEntity
  8
0
100
AcDbLine
 10
437.443
 20
724.875
 30
0.0
 11
438.0214999999999
 21
724.1849999999999
 31
0.0
  0
LINE
  5
61A
330
1E
100
AcDbEntity
  8
0
100
AcDbLine
 10
434.562661566233
 20
728.48592269554
 30
0.0
 11
436.54305
 21
725.947
 31
0.0
  0
LINE
  5
61B
330
1E
100
AcDbEntity
  8
0
100
AcDbLine
 10
411.5623
 20
757.2739999999998
 30
0.0
 11
412.2050999999999
 21
756.508
 31
0.0
  0
LINE
  5
61C
330
1E
100
AcDbEntity
  8
0
100
AcDbLine
 10
411.5623
 20
757.2739999999998
 30
0.0
 11
412.3283529872519
 21
757.917002507412
 31
0.0
  0
LINE
  5
61D
330
1E
100
AcDbEntity
  8
0
100
AcDbLine
 10
410.285
 20
758.796
 30
0.0
 11
410.9397322809839
 21
759.345599029599
 31
0.0
  0
LINE
  5
61E
330
1E
100
AcDbEntity
  8
0
100
AcDbLine
 10
410.449
 20
758.6010000000001
 30
0.0
 11
411.2151265730359
 21
759.243564223191
 31
0.0
  0
LINE
  5
61F
330
1E
100
AcDbEntity
  8
0
100
AcDbLine
 10
410.449
 20
758.6010000000001
 30
0.0
 11
411.5623
 21
757.2739999999998
 31
0.0
  0
LINE
  5
620
330
1E
100
AcDbEntity
  8
0
100
AcDbLine
 10
410.2850638481379
 20
758.796053595761
 30
0.0
 11
411.2843999999999
 21
757.605
 31
0.0
  0
LINE
  5
621
330
1E
100
AcDbEntity
  8
0
100
AcDbLine
 10
411.2843999999999
 20
757.605
 30
0.0
 11
411.9271
 21
756.8389999999999
 31
0.0
  0
LINE
  5
622
330
1E
100
AcDbEntity
  8
0
100
AcDbLine
 10
412.2050999999999
 20
756.508
 30
0.0
 11
412.8589158807559
 21
757.0567939577401
 31
0.0
  0
LINE
  5
623
330
1E
100
AcDbEntity
  8
0
100
AcDbLine
 10
411.7207999999999
 20
758.641
 30
0.0
 11
414.9347999999999
 21
754.811
 31
0.0
  0
LINE
  5
624
330
1E
100
AcDbEntity
  8
0
100
AcDbLine
 10
411.6521300937349
 20
758.7228275719439
 30
0.0
 11
413.3920999999999
 21
756.6489999999999
 31
0.0
  0
LINE
  5
625
330
1E
100
AcDbEntity
  8
0
100
AcDbLine
 10
411.9727
 20
759.896
 30
0.0
 11
415.1866
 21
756.066
 31
0.0
  0
LINE
  5
626
330
1E
100
AcDbEntity
  8
0
100
AcDbLine
 10
409.6422
 20
759.562
 30
0.0
 11
410.285
 21
758.796
 31
0.0
  0
LINE
  5
627
330
1E
100
AcDbEntity
  8
0
100
AcDbLine
 10
409.6422
 20
759.562
 30
0.0
 11
410.3453268733329
 21
760.1521841649409
 31
0.0
  0
LINE
  5
628
330
1E
100
AcDbEntity
  8
0
100
AcDbLine
 10
408.5288
 20
760.8889999999998
 30
0.0
 11
409.294752365908
 21
761.5319180487939
 31
0.0
  0
LINE
  5
629
330
1E
100
AcDbEntity
  8
0
100
AcDbLine
 10
408.5288
 20
760.8889999999998
 30
0.0
 11
409.6422
 21
759.562
 31
0.0
  0
LINE
  5
62A
330
1E
100
AcDbEntity
  8
0
100
AcDbLine
 10
409.3424999999999
 20
761.475
 30
0.0
 11
411.7207999999999
 21
758.641
 31
0.0
  0
LINE
  5
62B
330
1E
100
AcDbEntity
  8
0
100
AcDbLine
 10
409.4657999999999
 20
762.8839999999999
 30
0.0
 11
411.9727
 21
759.896
 31
0.0
  0
LINE
  5
62C
330
1E
100
AcDbEntity
  8
0
100
AcDbLine
 10
408.4535999999999
 20
760.9789999999999
 30
0.0
 11
409.1583368823149
 21
761.57007557847
 31
0.0
  0
LINE
  5
62D
330
1E
100
AcDbEntity
  8
0
100
AcDbLine
 10
408.4535999999999
 20
760.9789999999999
 30
0.0
 11
408.528979794438
 21
760.8891509142011
 31
0.0
  0
LINE
  5
62E
330
1E
100
AcDbEntity
  8
0
100
AcDbLine
 10
408.2498
 20
762.7769999999999
 30
0.0
 11
409.3424999999999
 21
761.475
 31
0.0
  0
LINE
  5
62F
330
1E
100
AcDbEntity
  8
0
100
AcDbLine
 10
410.851094441109
 20
759.2711941587899
 30
0.0
 11
411.004782063155
 21
759.067144475657
 31
0.0
  0
LINE
  5
630
330
1E
100
AcDbEntity
  8
0
100
AcDbLine
 10
415.8119
 20
751.432
 30
0.0
 11
416.4418539670339
 21
751.9603744860699
 31
0.0
  0
LINE
  5
631
330
1E
100
AcDbEntity
  8
0
100
AcDbLine
 10
415.8119
 20
751.432
 30
0.0
 11
416.9252
 21
750.105
 31
0.0
  0
LINE
  5
632
330
1E
100
AcDbEntity
  8
0
100
AcDbLine
 10
415.2007
 20
752.9379999999999
 30
0.0
 11
415.4583898745169
 21
753.154129161775
 31
0.0
  0
LINE
  5
633
330
1E
100
AcDbEntity
  8
0
100
AcDbLine
 10
415.2007
 20
752.9379999999999
 30
0.0
 11
415.8126114349389
 21
753.451221195677
 31
0.0
  0
LINE
  5
634
330
1E
100
AcDbEntity
  8
0
100
AcDbLine
 10
418.07691
 20
748.7319999999999
 30
0.0
 11
418.7196899999999
 21
747.9659999999999
 31
0.0
  0
LINE
  5
635
330
1E
100
AcDbEntity
  8
0
100
AcDbLine
 10
418.07691
 20
748.7319999999999
 30
0.0
 11
418.459963490944
 21
749.0535260130631
 31
0.0
  0
LINE
  5
636
330
1E
100
AcDbEntity
  8
0
100
AcDbLine
 10
418.9597
 20
748.4580000000001
 30
0.0
 11
419.7258908044299
 21
749.1011223847799
 31
0.0
  0
LINE
  5
637
330
1E
100
AcDbEntity
  8
0
100
AcDbLine
 10
450.359
 20
748.375
 30
0.0
 11
456.0156
 21
741.6339999999999
 31
0.0
  0
LINE
  5
638
330
1E
100
AcDbEntity
  8
0
100
AcDbLine
 10
420.07709
 20
748.682
 30
0.0
 11
420.8906338718559
 21
747.7124717733341
 31
0.0
  0
LINE
  5
639
330
1E
100
AcDbEntity
  8
0
100
AcDbLine
 10
420.07709
 20
748.682
 30
0.0
 11
424.12665
 21
743.8560000000001
 31
0.0
  0
LINE
  5
63A
330
1E
100
AcDbEntity
  8
0
100
AcDbLine
 10
416.9635999999999
 20
750.0589999999999
 30
0.0
 11
417.63354648105
 21
750.6213371829531
 31
0.0
  0
LINE
  5
63B
330
1E
100
AcDbEntity
  8
0
100
AcDbLine
 10
416.9635999999999
 20
750.0589999999999
 30
0.0
 11
418.07691
 21
748.7319999999999
 31
0.0
  0
LINE
  5
63C
330
1E
100
AcDbEntity
  8
0
100
AcDbLine
 10
416.9252
 20
750.105
 30
0.0
 11
416.963718615815
 21
750.0590995633009
 31
0.0
  0
LINE
  5
63D
330
1E
100
AcDbEntity
  8
0
100
AcDbLine
 10
416.9252
 20
750.105
 30
0.0
 11
417.4889432461929
 21
750.5778185778819
 31
0.0
  0
LINE
  5
63E
330
1E
100
AcDbEntity
  8
0
100
AcDbLine
 10
416.6631999999999
 20
750.4169999999999
 30
0.0
 11
417.2768145691819
 21
749.685666666692
 31
0.0
  0
LINE
  5
63F
330
1E
100
AcDbEntity
  8
0
100
AcDbLine
 10
418.6629599999999
 20
750.3680000000001
 30
0.0
 11
422.9696299999999
 21
745.235
 31
0.0
  0
LINE
  5
640
330
1E
100
AcDbEntity
  8
0
100
AcDbLine
 10
418.9790499999999
 20
751.547
 30
0.0
 11
423.35
 21
746.337
 31
0.0
  0
LINE
  5
641
330
1E
100
AcDbEntity
  8
0
100
AcDbLine
 10
417.67412
 20
749.99
 30
0.0
 11
418.4404179981179
 21
750.6332123606179
 31
0.0
  0
LINE
  5
642
330
1E
100
AcDbEntity
  8
0
100
AcDbLine
 10
417.67412
 20
749.99
 30
0.0
 11
418.9597
 21
748.4580000000001
 31
0.0
  0
LINE
  5
643
330
1E
100
AcDbEntity
  8
0
100
AcDbLine
 10
419.868654689468
 20
748.9304137032781
 30
0.0
 11
420.07709
 21
748.682
 31
0.0
  0
LINE
  5
644
330
1E
100
AcDbEntity
  8
0
100
AcDbLine
 10
416.4775
 20
752.972
 30
0.0
 11
416.960977753439
 21
752.3957900532421
 31
0.0
  0
LINE
  5
645
330
1E
100
AcDbEntity
  8
0
100
AcDbLine
 10
416.4775
 20
752.972
 30
0.0
 11
420.07709
 21
748.682
 31
0.0
  0
LINE
  5
646
330
1E
100
AcDbEntity
  8
0
100
AcDbLine
 10
414.9347999999999
 20
754.811
 30
0.0
 11
418.6629599999999
 21
750.3680000000001
 31
0.0
  0
LINE
  5
647
330
1E
100
AcDbEntity
  8
0
100
AcDbLine
 10
414.558
 20
753.7039999999999
 30
0.0
 11
415.2007
 21
752.9379999999999
 31
0.0
  0
LINE
  5
648
330
1E
100
AcDbEntity
  8
0
100
AcDbLine
 10
414.0874
 20
754.265
 30
0.0
 11
414.853667526558
 21
754.9076824434609
 31
0.0
  0
LINE
  5
649
330
1E
100
AcDbEntity
  8
0
100
AcDbLine
 10
414.0874
 20
754.265
 30
0.0
 11
415.2007
 21
752.9379999999999
 31
0.0
  0
LINE
  5
64A
330
1E
100
AcDbEntity
  8
0
100
AcDbLine
 10
415.1866
 20
756.066
 30
0.0
 11
418.9790499999999
 21
751.547
 31
0.0
  0
LINE
  5
64B
330
1E
100
AcDbEntity
  8
0
100
AcDbLine
 10
413.4445999999999
 20
755.031
 30
0.0
 11
413.8124067854789
 21
755.339486208042
 31
0.0
  0
LINE
  5
64C
330
1E
100
AcDbEntity
  8
0
100
AcDbLine
 10
413.4445999999999
 20
755.031
 30
0.0
 11
414.0874
 21
754.265
 31
0.0
  0
LINE
  5
64D
330
1E
100
AcDbEntity
  8
0
100
AcDbLine
 10
413.4445999999999
 20
755.031
 30
0.0
 11
414.2108675265579
 21
755.6736824434609
 31
0.0
  0
LINE
  5
64E
330
1E
100
AcDbEntity
  8
0
100
AcDbLine
 10
413.4445999999999
 20
755.031
 30
0.0
 11
414.558
 21
753.7039999999999
 31
0.0
  0
LINE
  5
64F
330
1E
100
AcDbEntity
  8
0
100
AcDbLine
 10
444.2578
 20
754.091
 30
0.0
 11
449.3358999999999
 21
748.0389999999999
 31
0.0
  0
LINE
  5
650
330
1E
100
AcDbEntity
  8
0
100
AcDbLine
 10
445.3453
 20
754.35
 30
0.0
 11
450.359
 21
748.375
 31
0.0
  0
LINE
  5
651
330
1E
100
AcDbEntity
  8
0
100
AcDbLine
 10
415.966839683904
 20
753.580575219513
 30
0.0
 11
416.4775
 21
752.972
 31
0.0
  0
LINE
  5
652
330
1E
100
AcDbEntity
  8
0
100
AcDbLine
 10
435.0659799999999
 20
765.0449999999999
 30
0.0
 11
439.4369
 21
759.836
 31
0.0
  0
LINE
  5
653
330
1E
100
AcDbEntity
  8
0
100
AcDbLine
 10
439.4369
 20
759.836
 30
0.0
 11
444.2578
 21
754.091
 31
0.0
  0
LINE
  5
654
330
1E
100
AcDbEntity
  8
0
100
AcDbLine
 10
423.7529199999999
 20
778.5269999999999
 30
0.0
 11
425.55272
 21
776.383
 31
0.0
  0
LINE
  5
655
330
1E
100
AcDbEntity
  8
0
100
AcDbLine
 10
422.5958999999999
 20
779.906
 30
0.0
 11
423.7529199999999
 21
778.5269999999999
 31
0.0
  0
LINE
  5
656
330
1E
100
AcDbEntity
  8
0
100
AcDbLine
 10
425.55272
 20
776.383
 30
0.0
 11
428.0596
 21
773.395
 31
0.0
  0
LINE
  5
657
330
1E
100
AcDbEntity
  8
0
100
AcDbLine
 10
431.2735299999999
 20
769.565
 30
0.0
 11
435.0659799999999
 21
765.0449999999999
 31
0.0
  0
LINE
  5
658
330
1E
100
AcDbEntity
  8
0
100
AcDbLine
 10
428.0596
 20
773.395
 30
0.0
 11
431.2735299999999
 21
769.565
 31
0.0
  0
LINE
  5
659
330
1E
100
AcDbEntity
  8
0
100
AcDbLine
 10
432.5538099999999
 20
769.595
 30
0.0
 11
436.2819799999999
 21
765.1519999999999
 31
0.0
  0
LINE
  5
65A
330
1E
100
AcDbEntity
  8
0
100
AcDbLine
 10
429.33987
 20
773.4249999999999
 30
0.0
 11
432.5538099999999
 21
769.595
 31
0.0
  0
LINE
  5
65B
330
1E
100
AcDbEntity
  8
0
100
AcDbLine
 10
426.9615579999999
 20
776.2589999999999
 30
0.0
 11
429.33987
 21
773.4249999999999
 31
0.0
  0
LINE
  5
65C
330
1E
100
AcDbEntity
  8
0
100
AcDbLine
 10
425.09747
 20
778.4810000000001
 30
0.0
 11
426.9615579999999
 21
776.2589999999999
 31
0.0
  0
LINE
  5
65D
330
1E
100
AcDbEntity
  8
0
100
AcDbLine
 10
424.0047299999999
 20
779.783
 30
0.0
 11
425.09747
 21
778.4810000000001
 31
0.0
  0
LINE
  5
65E
330
1E
100
AcDbEntity
  8
0
100
AcDbLine
 10
436.2819799999999
 20
765.1519999999999
 30
0.0
 11
440.5886999999999
 21
760.0189999999998
 31
0.0
  0
LINE
  5
65F
330
1E
100
AcDbEntity
  8
0
100
AcDbLine
 10
440.5886999999999
 20
760.0189999999998
 30
0.0
 11
445.3453
 21
754.35
 31
0.0
  0
LINE
  5
660
330
1E
100
AcDbEntity
  8
0
100
AcDbLine
 10
422.1459499999999
 20
780.4429999999999
 30
0.0
 11
423.5547799999999
 21
780.3189999999999
 31
0.0
  0
LINE
  5
661
330
1E
100
AcDbEntity
  8
0
100
AcDbLine
 10
422.1459499999999
 20
780.4429999999999
 30
0.0
 11
422.5958999999999
 21
779.906
 31
0.0
  0
LINE
  5
662
330
1E
100
AcDbEntity
  8
0
100
AcDbLine
 10
423.5547799999999
 20
780.3189999999999
 30
0.0
 11
468.475
 21
729.8969999999999
 31
0.0
  0
LINE
  5
663
330
1E
100
AcDbEntity
  8
0
100
AcDbLine
 10
423.5547799999999
 20
780.3189999999999
 30
0.0
 11
424.0047299999999
 21
779.783
 31
0.0
  0
LINE
  5
664
330
1E
100
AcDbEntity
  8
0
100
AcDbLine
 10
509.0091
 20
1172.835
 30
0.0
 11
510.0
 21
1172.835
 31
0.0
  0
LINE
  5
665
330
1E
100
AcDbEntity
  8
0
100
AcDbLine
 10
509.0091
 20
1172.835
 30
0.0
 11
511.0182
 21
1172.835
 31
0.0
  0
LINE
  5
666
330
1E
100
AcDbEntity
  8
0
100
AcDbLine
 10
507.7682
 20
1172.835
 30
0.0
 11
509.0091
 21
1172.835
 31
0.0
  0
LINE
  5
667
330
1E
100
AcDbEntity
  8
0
100
AcDbLine
 10
507.2955
 20
1172.835
 30
0.0
 11
507.7682
 21
1172.835
 31
0.0
  0
LINE
  5
668
330
1E
100
AcDbEntity
  8
0
100
AcDbLine
 10
508.7136
 20
1173.21
 30
0.0
 11
510.8408999999999
 21
1173.21
 31
0.0
  0
LINE
  5
669
330
1E
100
AcDbEntity
  8
0
100
AcDbLine
 10
507.4727
 20
1173.21
 30
0.0
 11
508.7136
 21
1173.21
 31
0.0
  0
LINE
  5
66A
330
1E
100
AcDbEntity
  8
0
100
AcDbLine
 10
507.0
 20
1202.46
 30
0.0
 11
507.2954
 21
1202.835
 31
0.0
  0
LINE
  5
66B
330
1E
100
AcDbEntity
  8
0
100
AcDbLine
 10
507.0
 20
1202.46
 30
0.0
 11
507.0
 21
1187.835
 31
0.0
  0
LINE
  5
66C
330
1E
100
AcDbEntity
  8
0
100
AcDbLine
 10
507.0
 20
1202.46
 30
0.0
 11
507.4727
 21
1202.46
 31
0.0
  0
LINE
  5
66F
330
1E
100
AcDbEntity
  8
0
100
AcDbLine
 10
508.7137
 20
1202.46
 30
0.0
 11
510.8408999999999
 21
1202.46
 31
0.0
  0
LINE
  5
670
330
1E
100
AcDbEntity
  8
0
100
AcDbLine
 10
507.4727
 20
1202.46
 30
0.0
 11
508.7137
 21
1202.46
 31
0.0
  0
LINE
  5
671
330
1E
100
AcDbEntity
  8
0
100
AcDbLine
 10
509.0091
 20
1202.835
 30
0.0
 11
511.0182
 21
1202.835
 31
0.0
  0
LINE
  5
672
330
1E
100
AcDbEntity
  8
0
100
AcDbLine
 10
507.7682
 20
1202.835
 30
0.0
 11
509.0091
 21
1202.835
 31
0.0
  0
LINE
  5
673
330
1E
100
AcDbEntity
  8
0
100
AcDbLine
 10
507.2954
 20
1202.835
 30
0.0
 11
507.7682
 21
1202.835
 31
0.0
  0
LINE
  5
676
330
1E
100
AcDbEntity
  8
0
100
AcDbLine
 10
507.0
 20
1187.835
 30
0.0
 11
507.0
 21
1173.21
 31
0.0
  0
LINE
  5
677
330
1E
100
AcDbEntity
  8
0
100
AcDbLine
 10
507.0
 20
1187.835
 30
0.0
 11
507.0
 21
1202.46
 31
0.0
  0
LINE
  5
678
330
1E
100
AcDbEntity
  8
0
100
AcDbLine
 10
507.0
 20
1173.21
 30
0.0
 11
507.2955
 21
1172.835
 31
0.0
  0
LINE
  5
679
330
1E
100
AcDbEntity
  8
0
100
AcDbLine
 10
507.0
 20
1173.21
 30
0.0
 11
507.4727
 21
1173.21
 31
0.0
  0
LINE
  5
67A
330
1E
100
AcDbEntity
  8
0
100
AcDbLine
 10
507.0
 20
1173.21
 30
0.0
 11
507.0
 21
1187.835
 31
0.0
  0
LINE
  5
67B
330
1E
100
AcDbEntity
  8
0
100
AcDbLine
 10
510.0
 20
1217.835
 30
0.0
 11
510.0
 21
1202.835
 31
0.0
  0
LINE
  5
67C
330
1E
100
AcDbEntity
  8
0
100
AcDbLine
 10
510.0
 20
1172.835
 30
0.0
 11
510.4
 21
1172.835
 31
0.0
  0
LINE
  5
67D
330
1E
100
AcDbEntity
  8
0
100
AcDbLine
 10
511.0182
 20
1172.835
 30
0.0
 11
513.6772999999999
 21
1172.835
 31
0.0
  0
LINE
  5
67E
330
1E
100
AcDbEntity
  8
0
100
AcDbLine
 10
510.4
 20
1172.835
 30
0.0
 11
511.3
 21
1172.835
 31
0.0
  0
LINE
  5
67F
330
1E
100
AcDbEntity
  8
0
100
AcDbLine
 10
513.6772999999999
 20
1172.835
 30
0.0
 11
516.75
 21
1172.835
 31
0.0
  0
LINE
  5
680
330
1E
100
AcDbEntity
  8
0
100
AcDbLine
 10
511.3
 20
1172.835
 30
0.0
 11
512.8999999999999
 21
1172.835
 31
0.0
  0
LINE
  5
681
330
1E
100
AcDbEntity
  8
0
100
AcDbLine
 10
512.8999999999999
 20
1172.835
 30
0.0
 11
515.0
 21
1172.835
 31
0.0
  0
LINE
  5
682
330
1E
100
AcDbEntity
  8
0
100
AcDbLine
 10
516.75
 20
1172.835
 30
0.0
 11
520.0
 21
1172.835
 31
0.0
  0
LINE
  5
683
330
1E
100
AcDbEntity
  8
0
100
AcDbLine
 10
515.0
 20
1172.835
 30
0.0
 11
517.3999999999999
 21
1172.835
 31
0.0
  0
LINE
  5
684
330
1E
100
AcDbEntity
  8
0
100
AcDbLine
 10
517.3999999999999
 20
1172.835
 30
0.0
 11
520.0
 21
1172.835
 31
0.0
  0
LINE
  5
685
330
1E
100
AcDbEntity
  8
0
100
AcDbLine
 10
523.2499999999999
 20
1172.835
 30
0.0
 11
526.3227
 21
1172.835
 31
0.0
  0
LINE
  5
686
330
1E
100
AcDbEntity
  8
0
100
AcDbLine
 10
520.0
 20
1172.835
 30
0.0
 11
522.5999999999999
 21
1172.835
 31
0.0
  0
LINE
  5
687
330
1E
100
AcDbEntity
  8
0
100
AcDbLine
 10
520.0
 20
1172.835
 30
0.0
 11
523.2499999999999
 21
1172.835
 31
0.0
  0
LINE
  5
688
330
1E
100
AcDbEntity
  8
0
100
AcDbLine
 10
522.5999999999999
 20
1172.835
 30
0.0
 11
525.0
 21
1172.835
 31
0.0
  0
LINE
  5
689
330
1E
100
AcDbEntity
  8
0
100
AcDbLine
 10
526.3227
 20
1172.835
 30
0.0
 11
528.9819999999999
 21
1172.835
 31
0.0
  0
LINE
  5
68A
330
1E
100
AcDbEntity
  8
0
100
AcDbLine
 10
525.0
 20
1172.835
 30
0.0
 11
527.0999999999999
 21
1172.835
 31
0.0
  0
LINE
  5
68B
330
1E
100
AcDbEntity
  8
0
100
AcDbLine
 10
520.0
 20
1173.21
 30
0.0
 11
523.3681999999999
 21
1173.21
 31
0.0
  0
LINE
  5
68C
330
1E
100
AcDbEntity
  8
0
100
AcDbLine
 10
523.3681999999999
 20
1173.21
 30
0.0
 11
526.4409
 21
1173.21
 31
0.0
  0
LINE
  5
68D
330
1E
100
AcDbEntity
  8
0
100
AcDbLine
 10
526.4409
 20
1173.21
 30
0.0
 11
529.159
 21
1173.21
 31
0.0
  0
LINE
  5
68E
330
1E
100
AcDbEntity
  8
0
100
AcDbLine
 10
516.6318
 20
1173.21
 30
0.0
 11
520.0
 21
1173.21
 31
0.0
  0
LINE
  5
68F
330
1E
100
AcDbEntity
  8
0
100
AcDbLine
 10
516.6318
 20
1202.46
 30
0.0
 11
520.0
 21
1202.46
 31
0.0
  0
LINE
  5
690
330
1E
100
AcDbEntity
  8
0
100
AcDbLine
 10
513.5590999999999
 20
1202.46
 30
0.0
 11
516.6318
 21
1202.46
 31
0.0
  0
LINE
  5
691
330
1E
100
AcDbEntity
  8
0
100
AcDbLine
 10
510.8408999999999
 20
1202.46
 30
0.0
 11
513.5590999999999
 21
1202.46
 31
0.0
  0
LINE
  5
692
330
1E
100
AcDbEntity
  8
0
100
AcDbLine
 10
516.75
 20
1202.835
 30
0.0
 11
520.0
 21
1202.835
 31
0.0
  0
LINE
  5
693
330
1E
100
AcDbEntity
  8
0
100
AcDbLine
 10
513.6772999999999
 20
1202.835
 30
0.0
 11
516.75
 21
1202.835
 31
0.0
  0
LINE
  5
694
330
1E
100
AcDbEntity
  8
0
100
AcDbLine
 10
511.0182
 20
1202.835
 30
0.0
 11
513.6772999999999
 21
1202.835
 31
0.0
  0
LINE
  5
695
330
1E
100
AcDbEntity
  8
0
100
AcDbLine
 10
520.0
 20
1202.46
 30
0.0
 11
523.3681999999999
 21
1202.46
 31
0.0
  0
LINE
  5
696
330
1E
100
AcDbEntity
  8
0
100
AcDbLine
 10
523.3681999999999
 20
1202.46
 30
0.0
 11
526.4409
 21
1202.46
 31
0.0
  0
LINE
  5
697
330
1E
100
AcDbEntity
  8
0
100
AcDbLine
 10
520.0
 20
1202.835
 30
0.0
 11
523.2499999999999
 21
1202.835
 31
0.0
  0
LINE
  5
698
330
1E
100
AcDbEntity
  8
0
100
AcDbLine
 10
523.2499999999999
 20
1202.835
 30
0.0
 11
526.3227
 21
1202.835
 31
0.0
  0
LINE
  5
699
330
1E
100
AcDbEntity
  8
0
100
AcDbLine
 10
526.4409
 20
1202.46
 30
0.0
 11
529.159
 21
1202.46
 31
0.0
  0
LINE
  5
69A
330
1E
100
AcDbEntity
  8
0
100
AcDbLine
 10
526.3227
 20
1202.835
 30
0.0
 11
528.9819999999999
 21
1202.835
 31
0.0
  0
LINE
  5
69B
330
1E
100
AcDbEntity
  8
0
100
AcDbLine
 10
513.5590999999999
 20
1173.21
 30
0.0
 11
516.6318
 21
1173.21
 31
0.0
  0
LINE
  5
69C
330
1E
100
AcDbEntity
  8
0
100
AcDbLine
 10
510.8408999999999
 20
1173.21
 30
0.0
 11
513.5590999999999
 21
1173.21
 31
0.0
  0
LINE
  5
69D
330
1E
100
AcDbEntity
  8
0
100
AcDbLine
 10
527.0999999999999
 20
1172.835
 30
0.0
 11
528.7
 21
1172.835
 31
0.0
  0
LINE
  5
69E
330
1E
100
AcDbEntity
  8
0
100
AcDbLine
 10
510.0
 20
1202.835
 30
0.0
 11
510.0
 21
1217.835
 31
0.0
  0
LINE
  5
69F
330
1E
100
AcDbEntity
  8
0
100
AcDbLine
 10
417.4766899999999
 20
1412.654999999999
 30
0.0
 11
442.0152999999999
 21
1396.325
 31
0.0
  0
LINE
  5
6A0
330
1E
100
AcDbEntity
  8
0
100
AcDbLine
 10
429.78432
 20
1380.415
 30
0.0
 11
449.939
 21
1362.81
 31
0.0
  0
LINE
  5
6A1
330
1E
100
AcDbEntity
  8
0
100
AcDbLine
 10
442.0152999999999
 20
1396.325
 30
0.0
 11
464.1186
 21
1376.915
 31
0.0
  0
LINE
  5
6A2
330
1E
100
AcDbEntity
  8
0
100
AcDbLine
 10
449.939
 20
1362.81
 30
0.0
 11
467.5792
 21
1342.619
 31
0.0
  0
LINE
  5
6A3
330
1E
100
AcDbEntity
  8
0
100
AcDbLine
 10
482.4964
 20
1320.344
 30
0.0
 11
494.3729
 21
1296.301
 31
0.0
  0
LINE
  5
6A4
330
1E
100
AcDbEntity
  8
0
100
AcDbLine
 10
499.8218
 20
1330.312
 30
0.0
 11
512.8999999999999
 21
1303.935
 31
0.0
  0
LINE
  5
6A5
330
1E
100
AcDbEntity
  8
0
100
AcDbLine
 10
467.5792
 20
1342.619
 30
0.0
 11
482.4964
 21
1320.344
 31
0.0
  0
LINE
  5
6A6
330
1E
100
AcDbEntity
  8
0
100
AcDbLine
 10
483.4906
 20
1354.849999999999
 30
0.0
 11
499.8218
 21
1330.312
 31
0.0
  0
LINE
  5
6A7
330
1E
100
AcDbEntity
  8
0
100
AcDbLine
 10
464.1186
 20
1376.915
 30
0.0
 11
483.4906
 21
1354.849999999999
 31
0.0
  0
LINE
  5
6A8
330
1E
100
AcDbEntity
  8
0
100
AcDbLine
 10
494.3729
 20
1296.301
 30
0.0
 11
503.0
 21
1270.835
 31
0.0
  0
LINE
  5
6A9
330
1E
100
AcDbEntity
  8
0
100
AcDbLine
 10
512.8999999999999
 20
1303.935
 30
0.0
 11
522.2999999999999
 21
1276.035
 31
0.0
  0
LINE
  5
6AA
330
1E
100
AcDbEntity
  8
0
100
AcDbLine
 10
503.0
 20
1270.835
 30
0.0
 11
508.1999999999999
 21
1244.535
 31
0.0
  0
LINE
  5
6AB
330
1E
100
AcDbEntity
  8
0
100
AcDbLine
 10
522.2999999999999
 20
1276.035
 30
0.0
 11
528.1
 21
1247.135
 31
0.0
  0
LINE
  5
6AC
330
1E
100
AcDbEntity
  8
0
100
AcDbLine
 10
508.1999999999999
 20
1244.535
 30
0.0
 11
510.0
 21
1217.835
 31
0.0
  0
LINE
  5
6AD
330
1E
100
AcDbEntity
  8
0
100
AcDbLine
 10
528.9819999999999
 20
1172.835
 30
0.0
 11
530.991
 21
1172.835
 31
0.0
  0
LINE
  5
6AE
330
1E
100
AcDbEntity
  8
0
100
AcDbLine
 10
529.159
 20
1202.46
 30
0.0
 11
531.2859999999999
 21
1202.46
 31
0.0
  0
LINE
  5
6AF
330
1E
100
AcDbEntity
  8
0
100
AcDbLine
 10
528.9819999999999
 20
1202.835
 30
0.0
 11
530.991
 21
1202.835
 31
0.0
  0
LINE
  5
6B0
330
1E
100
AcDbEntity
  8
0
100
AcDbLine
 10
529.159
 20
1173.21
 30
0.0
 11
531.2859999999999
 21
1173.21
 31
0.0
  0
LINE
  5
6B1
330
1E
100
AcDbEntity
  8
0
100
AcDbLine
 10
528.7
 20
1172.835
 30
0.0
 11
529.6
 21
1172.835
 31
0.0
  0
LINE
  5
6B2
330
1E
100
AcDbEntity
  8
0
100
AcDbLine
 10
551.0
 20
1158.517
 30
0.0
 11
551.0
 21
1159.607999999999
 31
0.0
  0
LINE
  5
6B3
330
1E
100
AcDbEntity
  8
0
100
AcDbLine
 10
551.0
 20
1158.517
 30
0.0
 11
551.105
 21
1157.835
 31
0.0
  0
LINE
  5
6B4
330
1E
100
AcDbEntity
  8
0
100
AcDbLine
 10
551.0
 20
1159.607999999999
 30
0.0
 11
551.0
 21
1162.471
 31
0.0
  0
LINE
  5
6B5
330
1E
100
AcDbEntity
  8
0
100
AcDbLine
 10
551.0
 20
1159.607999999999
 30
0.0
 11
551.0
 21
1158.517
 31
0.0
  0
LINE
  5
6B6
330
1E
100
AcDbEntity
  8
0
100
AcDbLine
 10
551.0
 20
1162.471
 30
0.0
 11
551.0
 21
1167.108
 31
0.0
  0
LINE
  5
6B7
330
1E
100
AcDbEntity
  8
0
100
AcDbLine
 10
551.0
 20
1162.471
 30
0.0
 11
551.0
 21
1159.607999999999
 31
0.0
  0
LINE
  5
6B8
330
1E
100
AcDbEntity
  8
0
100
AcDbLine
 10
530.0
 20
1172.835
 30
0.0
 11
530.991
 21
1172.835
 31
0.0
  0
LINE
  5
6B9
330
1E
100
AcDbEntity
  8
0
100
AcDbLine
 10
531.2859999999999
 20
1173.21
 30
0.0
 11
532.5269999999999
 21
1173.21
 31
0.0
  0
LINE
  5
6BA
330
1E
100
AcDbEntity
  8
0
100
AcDbLine
 10
530.991
 20
1172.835
 30
0.0
 11
532.2319999999999
 21
1172.835
 31
0.0
  0
LINE
  5
6BB
330
1E
100
AcDbEntity
  8
0
100
AcDbLine
 10
533.0
 20
1179.835
 30
0.0
 11
551.0
 21
1179.835
 31
0.0
  0
LINE
  5
6BC
330
1E
100
AcDbEntity
  8
0
100
AcDbLine
 10
533.0
 20
1195.835
 30
0.0
 11
551.0
 21
1195.835
 31
0.0
  0
LINE
  5
6BD
330
1E
100
AcDbEntity
  8
0
100
AcDbLine
 10
533.0
 20
1195.77173913043
 30
0.0
 11
533.0
 21
1202.46
 31
0.0
  0
LINE
  5
6BE
330
1E
100
AcDbEntity
  8
0
100
AcDbLine
 10
533.0
 20
1180.06273913043
 30
0.0
 11
533.0
 21
1173.21
 31
0.0
  0
LINE
  5
6BF
330
1E
100
AcDbEntity
  8
0
100
AcDbLine
 10
532.5269999999999
 20
1173.21
 30
0.0
 11
533.0
 21
1173.21
 31
0.0
  0
LINE
  5
6C0
330
1E
100
AcDbEntity
  8
0
100
AcDbLine
 10
551.0
 20
1180.126
 30
0.0
 11
551.0
 21
1179.835
 31
0.0
  0
LINE
  5
6C1
330
1E
100
AcDbEntity
  8
0
100
AcDbLine
 10
551.0
 20
1180.89
 30
0.0
 11
551.0
 21
1180.126
 31
0.0
  0
LINE
  5
6C2
330
1E
100
AcDbEntity
  8
0
100
AcDbLine
 10
551.0
 20
1182.198999999999
 30
0.0
 11
551.0
 21
1180.89
 31
0.0
  0
LINE
  5
6C3
330
1E
100
AcDbEntity
  8
0
100
AcDbLine
 10
551.0
 20
1183.871
 30
0.0
 11
551.0
 21
1182.198999999999
 31
0.0
  0
LINE
  5
6C4
330
1E
100
AcDbEntity
  8
0
100
AcDbLine
 10
551.0
 20
1185.761999999999
 30
0.0
 11
551.0
 21
1183.871
 31
0.0
  0
LINE
  5
6C5
330
1E
100
AcDbEntity
  8
0
100
AcDbLine
 10
551.0
 20
1195.543999999999
 30
0.0
 11
551.0
 21
1194.78
 31
0.0
  0
LINE
  5
6C6
330
1E
100
AcDbEntity
  8
0
100
AcDbLine
 10
551.0
 20
1194.78
 30
0.0
 11
551.0
 21
1193.471
 31
0.0
  0
LINE
  5
6C7
330
1E
100
AcDbEntity
  8
0
100
AcDbLine
 10
551.0
 20
1193.471
 30
0.0
 11
551.0
 21
1191.799
 31
0.0
  0
LINE
  5
6C8
330
1E
100
AcDbEntity
  8
0
100
AcDbLine
 10
551.0
 20
1191.799
 30
0.0
 11
551.0
 21
1189.908
 31
0.0
  0
LINE
  5
6C9
330
1E
100
AcDbEntity
  8
0
100
AcDbLine
 10
551.0
 20
1189.908
 30
0.0
 11
551.0
 21
1187.835
 31
0.0
  0
LINE
  5
6CA
330
1E
100
AcDbEntity
  8
0
100
AcDbLine
 10
551.0
 20
1187.835
 30
0.0
 11
551.0
 21
1185.761999999999
 31
0.0
  0
LINE
  5
6CB
330
1E
100
AcDbEntity
  8
0
100
AcDbLine
 10
533.0
 20
1173.21
 30
0.0
 11
533.0
 21
1180.06273913043
 31
0.0
  0
LINE
  5
6CC
330
1E
100
AcDbEntity
  8
0
100
AcDbLine
 10
532.705
 20
1172.835
 30
0.0
 11
533.0
 21
1173.21
 31
0.0
  0
LINE
  5
6CD
330
1E
100
AcDbEntity
  8
0
100
AcDbLine
 10
532.2319999999999
 20
1172.835
 30
0.0
 11
532.705
 21
1172.835
 31
0.0
  0
LINE
  5
6CE
330
1E
100
AcDbEntity
  8
0
100
AcDbLine
 10
531.2859999999999
 20
1202.46
 30
0.0
 11
532.5269999999999
 21
1202.46
 31
0.0
  0
LINE
  5
6CF
330
1E
100
AcDbEntity
  8
0
100
AcDbLine
 10
530.991
 20
1202.835
 30
0.0
 11
532.2319999999999
 21
1202.835
 31
0.0
  0
LINE
  5
6D0
330
1E
100
AcDbEntity
  8
0
100
AcDbLine
 10
533.0
 20
1202.46
 30
0.0
 11
533.0
 21
1195.77173913043
 31
0.0
  0
LINE
  5
6D1
330
1E
100
AcDbEntity
  8
0
100
AcDbLine
 10
532.5269999999999
 20
1202.46
 30
0.0
 11
533.0
 21
1202.46
 31
0.0
  0
LINE
  5
6D2
330
1E
100
AcDbEntity
  8
0
100
AcDbLine
 10
532.2319999999999
 20
1202.835
 30
0.0
 11
532.7040000000001
 21
1202.835
 31
0.0
  0
LINE
  5
6D3
330
1E
100
AcDbEntity
  8
0
100
AcDbLine
 10
532.7040000000001
 20
1202.835
 30
0.0
 11
533.0
 21
1202.46
 31
0.0
  0
LINE
  5
6D4
330
1E
100
AcDbEntity
  8
0
100
AcDbLine
 10
551.0
 20
1202.426
 30
0.0
 11
551.0
 21
1208.561999999999
 31
0.0
  0
LINE
  5
6D5
330
1E
100
AcDbEntity
  8
0
100
AcDbLine
 10
551.0
 20
1202.426
 30
0.0
 11
551.0
 21
1195.835
 31
0.0
  0
LINE
  5
6D6
330
1E
100
AcDbEntity
  8
0
100
AcDbLine
 10
551.0
 20
1195.835
 30
0.0
 11
551.0
 21
1202.426
 31
0.0
  0
LINE
  5
6D7
330
1E
100
AcDbEntity
  8
0
100
AcDbLine
 10
551.0
 20
1195.835
 30
0.0
 11
551.0
 21
1195.543999999999
 31
0.0
  0
LINE
  5
6D8
330
1E
100
AcDbEntity
  8
0
100
AcDbLine
 10
551.0
 20
1179.835
 30
0.0
 11
551.0
 21
1173.243999999999
 31
0.0
  0
LINE
  5
6D9
330
1E
100
AcDbEntity
  8
0
100
AcDbLine
 10
551.0
 20
1167.108
 30
0.0
 11
551.0
 21
1173.243999999999
 31
0.0
  0
LINE
  5
6DA
330
1E
100
AcDbEntity
  8
0
100
AcDbLine
 10
551.0
 20
1167.108
 30
0.0
 11
551.0
 21
1162.471
 31
0.0
  0
LINE
  5
6DB
330
1E
100
AcDbEntity
  8
0
100
AcDbLine
 10
551.105
 20
1158.926
 30
0.0
 11
551.105
 21
1157.835
 31
0.0
  0
LINE
  5
6DC
330
1E
100
AcDbEntity
  8
0
100
AcDbLine
 10
551.105
 20
1158.926
 30
0.0
 11
551.105
 21
1161.79
 31
0.0
  0
LINE
  5
6DD
330
1E
100
AcDbEntity
  8
0
100
AcDbLine
 10
551.105
 20
1161.79
 30
0.0
 11
551.105
 21
1158.926
 31
0.0
  0
LINE
  5
6DE
330
1E
100
AcDbEntity
  8
0
100
AcDbLine
 10
551.105
 20
1161.79
 30
0.0
 11
551.105
 21
1166.698999999999
 31
0.0
  0
LINE
  5
6DF
330
1E
100
AcDbEntity
  8
0
100
AcDbLine
 10
551.105
 20
1166.698999999999
 30
0.0
 11
551.105
 21
1161.79
 31
0.0
  0
LINE
  5
6E0
330
1E
100
AcDbEntity
  8
0
100
AcDbLine
 10
551.105
 20
1166.698999999999
 30
0.0
 11
551.105
 21
1172.971
 31
0.0
  0
LINE
  5
6E1
330
1E
100
AcDbEntity
  8
0
100
AcDbLine
 10
551.105
 20
1172.971
 30
0.0
 11
551.105
 21
1166.698999999999
 31
0.0
  0
LINE
  5
6E2
330
1E
100
AcDbEntity
  8
0
100
AcDbLine
 10
551.105
 20
1172.971
 30
0.0
 11
551.105
 21
1180.061999999999
 31
0.0
  0
LINE
  5
6E3
330
1E
100
AcDbEntity
  8
0
100
AcDbLine
 10
551.105
 20
1202.698999999999
 30
0.0
 11
551.105
 21
1195.608
 31
0.0
  0
LINE
  5
6E4
330
1E
100
AcDbEntity
  8
0
100
AcDbLine
 10
551.105
 20
1202.698999999999
 30
0.0
 11
551.105
 21
1208.971
 31
0.0
  0
LINE
  5
6E5
330
1E
100
AcDbEntity
  8
0
100
AcDbLine
 10
551.105
 20
1195.608
 30
0.0
 11
551.105
 21
1187.835
 31
0.0
  0
LINE
  5
6E6
330
1E
100
AcDbEntity
  8
0
100
AcDbLine
 10
551.105
 20
1195.608
 30
0.0
 11
551.105
 21
1202.698999999999
 31
0.0
  0
LINE
  5
6E7
330
1E
100
AcDbEntity
  8
0
100
AcDbLine
 10
551.105
 20
1180.061999999999
 30
0.0
 11
551.105
 21
1172.971
 31
0.0
  0
LINE
  5
6E8
330
1E
100
AcDbEntity
  8
0
100
AcDbLine
 10
551.105
 20
1180.061999999999
 30
0.0
 11
551.105
 21
1187.835
 31
0.0
  0
LINE
  5
6E9
330
1E
100
AcDbEntity
  8
0
100
AcDbLine
 10
559.0
 20
1158.926
 30
0.0
 11
559.0
 21
1157.835
 31
0.0
  0
LINE
  5
6EA
330
1E
100
AcDbEntity
  8
0
100
AcDbLine
 10
559.0
 20
1161.79
 30
0.0
 11
559.0
 21
1158.926
 31
0.0
  0
LINE
  5
6EB
330
1E
100
AcDbEntity
  8
0
100
AcDbLine
 10
559.0
 20
1166.698999999999
 30
0.0
 11
559.0
 21
1161.79
 31
0.0
  0
LINE
  5
6EC
330
1E
100
AcDbEntity
  8
0
100
AcDbLine
 10
559.0
 20
1172.971
 30
0.0
 11
559.0
 21
1166.698999999999
 31
0.0
  0
LINE
  5
6ED
330
1E
100
AcDbEntity
  8
0
100
AcDbLine
 10
559.0
 20
1180.061999999999
 30
0.0
 11
559.0
 21
1172.971
 31
0.0
  0
LINE
  5
6EE
330
1E
100
AcDbEntity
  8
0
100
AcDbLine
 10
559.0
 20
1202.698999999999
 30
0.0
 11
559.0
 21
1195.608
 31
0.0
  0
LINE
  5
6EF
330
1E
100
AcDbEntity
  8
0
100
AcDbLine
 10
559.0
 20
1195.608
 30
0.0
 11
559.0
 21
1187.835
 31
0.0
  0
LINE
  5
6F0
330
1E
100
AcDbEntity
  8
0
100
AcDbLine
 10
559.0
 20
1187.835
 30
0.0
 11
559.0
 21
1180.061999999999
 31
0.0
  0
LINE
  5
6F1
330
1E
100
AcDbEntity
  8
0
100
AcDbLine
 10
551.105
 20
1187.835
 30
0.0
 11
551.105
 21
1180.061999999999
 31
0.0
  0
LINE
  5
6F2
330
1E
100
AcDbEntity
  8
0
100
AcDbLine
 10
551.105
 20
1187.835
 30
0.0
 11
551.105
 21
1195.608
 31
0.0
  0
LINE
  5
6F3
330
1E
100
AcDbEntity
  8
0
100
AcDbLine
 10
551.105
 20
1157.835
 30
0.0
 11
559.0
 21
1157.835
 31
0.0
  0
LINE
  5
6F4
330
1E
100
AcDbEntity
  8
0
100
AcDbLine
 10
551.105
 20
1157.835
 30
0.0
 11
551.105
 21
1158.926
 31
0.0
  0
LINE
  5
6F5
330
1E
100
AcDbEntity
  8
0
100
AcDbLine
 10
551.0
 20
1173.243999999999
 30
0.0
 11
551.0
 21
1179.835
 31
0.0
  0
LINE
  5
6F6
330
1E
100
AcDbEntity
  8
0
100
AcDbLine
 10
551.0
 20
1173.243999999999
 30
0.0
 11
551.0
 21
1167.108
 31
0.0
  0
LINE
  5
6F7
330
1E
100
AcDbEntity
  8
0
100
AcDbLine
 10
551.0
 20
1217.153
 30
0.0
 11
551.0
 21
1216.061999999999
 31
0.0
  0
LINE
  5
6F8
330
1E
100
AcDbEntity
  8
0
100
AcDbLine
 10
551.0
 20
1217.153
 30
0.0
 11
551.105
 21
1217.835
 31
0.0
  0
LINE
  5
6F9
330
1E
100
AcDbEntity
  8
0
100
AcDbLine
 10
551.0
 20
1216.061999999999
 30
0.0
 11
551.0
 21
1217.153
 31
0.0
  0
LINE
  5
6FA
330
1E
100
AcDbEntity
  8
0
100
AcDbLine
 10
551.0
 20
1216.061999999999
 30
0.0
 11
551.0
 21
1213.198999999999
 31
0.0
  0
LINE
  5
6FB
330
1E
100
AcDbEntity
  8
0
100
AcDbLine
 10
551.0
 20
1213.198999999999
 30
0.0
 11
551.0
 21
1216.061999999999
 31
0.0
  0
LINE
  5
6FC
330
1E
100
AcDbEntity
  8
0
100
AcDbLine
 10
551.0
 20
1213.198999999999
 30
0.0
 11
551.0
 21
1208.561999999999
 31
0.0
  0
LINE
  5
6FD
330
1E
100
AcDbEntity
  8
0
100
AcDbLine
 10
551.105
 20
1216.744
 30
0.0
 11
551.105
 21
1213.88
 31
0.0
  0
LINE
  5
6FE
330
1E
100
AcDbEntity
  8
0
100
AcDbLine
 10
551.105
 20
1216.744
 30
0.0
 11
551.105
 21
1217.835
 31
0.0
  0
LINE
  5
6FF
330
1E
100
AcDbEntity
  8
0
100
AcDbLine
 10
551.105
 20
1213.88
 30
0.0
 11
551.105
 21
1208.971
 31
0.0
  0
LINE
  5
700
330
1E
100
AcDbEntity
  8
0
100
AcDbLine
 10
551.105
 20
1213.88
 30
0.0
 11
551.105
 21
1216.744
 31
0.0
  0
LINE
  5
701
330
1E
100
AcDbEntity
  8
0
100
AcDbLine
 10
559.0
 20
1217.835
 30
0.0
 11
559.0
 21
1216.744
 31
0.0
  0
LINE
  5
702
330
1E
100
AcDbEntity
  8
0
100
AcDbLine
 10
559.0
 20
1216.744
 30
0.0
 11
559.0
 21
1213.88
 31
0.0
  0
LINE
  5
703
330
1E
100
AcDbEntity
  8
0
100
AcDbLine
 10
559.0
 20
1213.88
 30
0.0
 11
559.0
 21
1208.971
 31
0.0
  0
LINE
  5
704
330
1E
100
AcDbEntity
  8
0
100
AcDbLine
 10
559.0
 20
1208.971
 30
0.0
 11
559.0
 21
1202.698999999999
 31
0.0
  0
LINE
  5
705
330
1E
100
AcDbEntity
  8
0
100
AcDbLine
 10
551.105
 20
1208.971
 30
0.0
 11
551.105
 21
1202.698999999999
 31
0.0
  0
LINE
  5
706
330
1E
100
AcDbEntity
  8
0
100
AcDbLine
 10
551.105
 20
1208.971
 30
0.0
 11
551.105
 21
1213.88
 31
0.0
  0
LINE
  5
707
330
1E
100
AcDbEntity
  8
0
100
AcDbLine
 10
551.105
 20
1217.835
 30
0.0
 11
559.0
 21
1217.835
 31
0.0
  0
LINE
  5
708
330
1E
100
AcDbEntity
  8
0
100
AcDbLine
 10
551.105
 20
1217.835
 30
0.0
 11
551.105
 21
1216.744
 31
0.0
  0
LINE
  5
709
330
1E
100
AcDbEntity
  8
0
100
AcDbLine
 10
551.0
 20
1208.561999999999
 30
0.0
 11
551.0
 21
1213.198999999999
 31
0.0
  0
LINE
  5
70A
330
1E
100
AcDbEntity
  8
0
100
AcDbLine
 10
551.0
 20
1208.561999999999
 30
0.0
 11
551.0
 21
1202.426
 31
0.0
  0
LINE
  5
70B
330
1E
100
AcDbEntity
  8
0
100
AcDbLine
 10
530.0
 20
1202.835
 30
0.0
 11
530.0
 21
1217.835
 31
0.0
  0
LINE
  5
70C
330
1E
100
AcDbEntity
  8
0
100
AcDbLine
 10
529.6
 20
1172.835
 30
0.0
 11
530.0
 21
1172.835
 31
0.0
  0
LINE
  5
70D
330
1E
100
AcDbEntity
  8
0
100
AcDbLine
 10
530.0
 20
1217.835
 30
0.0
 11
530.0
 21
1202.835
 31
0.0
  0
LINE
  5
70E
330
1E
100
AcDbEntity
  8
0
100
AcDbLine
 10
528.1
 20
1247.135
 30
0.0
 11
530.0
 21
1217.835
 31
0.0
  0
LINE
  5
70F
330
1E
100
AcDbEntity
  8
0
100
AcDbLine
 10
413.3920999999999
 20
756.6489999999999
 30
0.0
 11
414.2106498962449
 21
755.673499912979
 31
0.0
  0
LINE
  5
710
330
1E
100
AcDbEntity
  8
0
100
AcDbLine
 10
413.3920999999999
 20
756.6489999999999
 30
0.0
 11
416.4775
 21
752.972
 31
0.0
  0
LINE
  5
711
330
1E
100
AcDbEntity
  8
0
100
AcDbLine
 10
412.971012157853
 20
757.1508842993268
 30
0.0
 11
413.3920999999999
 21
756.6489999999999
 31
0.0
  0
LINE
  5
712
330
1E
100
AcDbEntity
  8
0
100
AcDbLine
 10
415.4583898745169
 20
753.154129161775
 30
0.0
 11
416.3901646924649
 21
751.9170200581039
 31
0.0
  0
LINE
  5
713
330
1E
100
AcDbEntity
  8
0
100
AcDbLine
 10
412.650630921987
 20
756.8819656456339
 30
0.0
 11
413.8124067854789
 21
755.339486208042
 31
0.0
  0
LINE
  5
714
330
1E
100
AcDbEntity
  8
0
100
AcDbLine
 10
419.1156768230229
 20
748.2983819451919
 30
0.0
 11
419.31104
 21
748.0389999999999
 31
0.0
  0
LINE
  5
715
330
1E
100
AcDbEntity
  8
0
100
AcDbLine
 10
407.8641
 20
763.2369999999999
 30
0.0
 11
408.2498
 21
762.7769999999999
 31
0.0
  0
LINE
  5
716
330
1E
100
AcDbEntity
  8
0
100
AcDbLine
 10
407.8641
 20
763.2369999999999
 30
0.0
 11
409.2050537651609
 21
761.456627662684
 31
0.0
  0
LINE
  5
71B
330
1E
100
AcDbEntity
  8
0
100
AcDbLine
 10
529.8
 20
530.518
 30
0.0
 11
522.193181534527
 21
560.7502272345709
 31
0.0
  0
LINE
  5
71C
330
1E
100
AcDbEntity
  8
0
100
AcDbLine
 10
558.0
 20
302.8349999999999
 30
0.0
 11
559.0
 21
303.8349999999999
 31
0.0
  0
LINE
  5
71D
330
1E
100
AcDbEntity
  8
0
100
AcDbLine
 10
558.0
 20
307.1524
 30
0.0
 11
557.8401914335154
 21
304.3128295478527
 31
0.0
  0
LINE
  5
71E
330
1E
100
AcDbEntity
  8
0
100
AcDbLine
 10
557.8401914335154
 20
304.3128295478527
 30
0.0
 11
557.6308598369341
 21
303.4760414841412
 31
0.0
  0
LINE
  5
71F
330
1E
100
AcDbEntity
  8
0
100
AcDbLine
 10
557.6308598369341
 20
303.4760414841412
 30
0.0
 11
547.4781736499998
 21
303.4760414841412
 31
0.0
  0
LINE
  5
720
330
1E
100
AcDbEntity
  8
0
100
AcDbLine
 10
531.4641335902916
 20
303.580640415199
 30
0.0
 11
516.8107696589122
 21
303.580640415199
 31
0.0
  0
LINE
  5
721
330
1E
100
AcDbEntity
  8
0
100
AcDbLine
 10
516.8107696589122
 20
303.580640415199
 30
0.0
 11
509.2281999999999
 21
310.1023
 31
0.0
  0
ENDSEC
  0
SECTION
  2
OBJECTS
  0
DICTIONARY
  5
C
330
0
100
AcDbDictionary
281
     1
  3
ACAD_GROUP
350
D
  3
ACAD_LAYOUT
350
19
  3
ACAD_MLINESTYLE
350
16
  3
ACAD_PLOTSETTINGS
350
18
  3
ACAD_PLOTSTYLENAME
350
E
  3
AcDbVariableDictionary
350
722
  0
DICTIONARY
  5
D
102
{ACAD_REACTORS
330
C
102
}
330
C
100
AcDbDictionary
281
     1
  0
DICTIONARY
  5
19
102
{ACAD_REACTORS
330
C
102
}
330
C
100
AcDbDictionary
281
     1
  3
Layout1
350
1D
  3
Model
350
21
  0
DICTIONARY
  5
16
102
{ACAD_REACTORS
330
C
102
}
330
C
100
AcDbDictionary
281
     1
  3
Standard
350
17
  0
DICTIONARY
  5
18
102
{ACAD_REACTORS
330
C
102
}
330
C
100
AcDbDictionary
281
     1
  0
ACDBDICTIONARYWDFLT
  5
E
102
{ACAD_REACTORS
330
C
102
}
330
C
100
AcDbDictionary
281
     1
  3
Normal
350
F
100
AcDbDictionaryWithDefault
340
F
  0
DICTIONARY
  5
722
102
{ACAD_REACTORS
330
C
102
}
330
C
100
AcDbDictionary
281
     1
  3
DIMASSOC
350
723
  0
LAYOUT
  5
1D
102
{ACAD_REACTORS
330
19
102
}
330
19
100
AcDbPlotSettings
  1

  2
hp deskjet 980c series
  4

  6

 40
0.0
 41
0.0
 42
0.0
 43
0.0
 44
0.0
 45
0.0
 46
0.0
 47
0.0
 48
0.0
 49
0.0
140
0.0
141
0.0
142
1.0
143
1.0
 70
   688
 72
     0
 73
     0
 74
     5
  7

 75
    16
147
1.0
148
0.0
149
0.0
100
AcDbLayout
  1
Layout1
 70
     1
 71
     1
 10
0.0
 20
0.0
 11
12.0
 21
9.0
 12
0.0
 22
0.0
 32
0.0
 14
1.000000000000000E+20
 24
1.000000000000000E+20
 34
1.000000000000000E+20
 15
-1.000000000000000E+20
 25
-1.000000000000000E+20
 35
-1.000000000000000E+20
146
0.0
 13
0.0
 23
0.0
 33
0.0
 16
1.0
 26
0.0
 36
0.0
 17
0.0
 27
1.0
 37
0.0
 76
     0
330
1A
  0
LAYOUT
  5
21
102
{ACAD_REACTORS
330
19
102
}
330
19
100
AcDbPlotSettings
  1

  2
hp deskjet 980c series
  4

  6

 40
0.0
 41
0.0
 42
0.0
 43
0.0
 44
0.0
 45
0.0
 46
0.0
 47
0.0
 48
0.0
 49
0.0
140
0.0
141
0.0
142
1.0
143
1.0
 70
  1712
 72
     0
 73
     0
 74
     0
  7

 75
     0
147
1.0
148
0.0
149
0.0
100
AcDbLayout
  1
Model
 70
     1
 71
     0
 10
0.0
 20
0.0
 11
12.0
 21
9.0
 12
0.0
 22
0.0
 32
0.0
 14
0.0
 24
0.0
 34
0.0
 15
0.0
 25
0.0
 35
0.0
146
0.0
 13
0.0
 23
0.0
 33
0.0
 16
1.0
 26
0.0
 36
0.0
 17
0.0
 27
1.0
 37
0.0
 76
     0
330
1E
  0
MLINESTYLE
  5
17
102
{ACAD_REACTORS
330
16
102
}
330
16
100
AcDbMlineStyle
  2
STANDARD
 70
     0
  3

 62
   256
 51
90.0
 52
90.0
 71
     2
 49
0.5
 62
   256
  6
BYLAYER
 49
-0.5
 62
   256
  6
BYLAYER
  0
ACDBPLACEHOLDER
  5
F
102
{ACAD_REACTORS
330
E
102
}
330
E
  0
DICTIONARYVAR
  5
723
102
{ACAD_REACTORS
330
722
102
}
330
722
100
DictionaryVariables
280
     0
  1
1
  0
ENDSEC
  0
EOF
