  0
SECTION
  2
HEADER
  9
$ACADVER
  1
AC1014
  9
$ACADMAINTVER
 70
     9
  9
$DWGCODEPAGE
  3
ANSI_1252
  9
$INSBASE
 10
0.0
 20
0.0
 30
0.0
  9
$EXTMIN
 10
0.0000000000000053
 20
-0.0000000000000033
 30
0.0
  9
$EXTMAX
 10
192.0
 20
85.0
 30
0.0
  9
$LIMMIN
 10
0.0
 20
0.0
  9
$LIMMAX
 10
12.0
 20
9.0
  9
$ORTHOMODE
 70
     0
  9
$REGENMODE
 70
     1
  9
$FILLMODE
 70
     1
  9
$QTEXTMODE
 70
     0
  9
$MIRRTEXT
 70
     1
  9
$DRAGMODE
 70
     2
  9
$LTSCALE
 40
1.0
  9
$OSMODE
 70
    37
  9
$ATTMODE
 70
     1
  9
$TEXTSIZE
 40
0.2
  9
$TRACEWID
 40
0.05
  9
$TEXTSTYLE
  7
STANDARD
  9
$CLAYER
  8
0
  9
$CELTYPE
  6
CONTINUOUS
  9
$CECOLOR
 62
   256
  9
$CELTSCALE
 40
1.0
  9
$DELOBJ
 70
     1
  9
$DISPSILH
 70
     0
  9
$DIMSCALE
 40
1.0
  9
$DIMASZ
 40
0.18
  9
$DIMEXO
 40
0.0625
  9
$DIMDLI
 40
0.38
  9
$DIMRND
 40
0.0
  9
$DIMDLE
 40
0.0
  9
$DIMEXE
 40
0.18
  9
$DIMTP
 40
0.0
  9
$DIMTM
 40
0.0
  9
$DIMTXT
 40
0.18
  9
$DIMCEN
 40
0.09
  9
$DIMTSZ
 40
0.0
  9
$DIMTOL
 70
     0
  9
$DIMLIM
 70
     0
  9
$DIMTIH
 70
     1
  9
$DIMTOH
 70
     1
  9
$DIMSE1
 70
     0
  9
$DIMSE2
 70
     0
  9
$DIMTAD
 70
     0
  9
$DIMZIN
 70
     0
  9
$DIMBLK
  1

  9
$DIMASO
 70
     1
  9
$DIMSHO
 70
     1
  9
$DIMPOST
  1

  9
$DIMAPOST
  1

  9
$DIMALT
 70
     0
  9
$DIMALTD
 70
     2
  9
$DIMALTF
 40
25.4
  9
$DIMLFAC
 40
1.0
  9
$DIMTOFL
 70
     0
  9
$DIMTVP
 40
0.0
  9
$DIMTIX
 70
     0
  9
$DIMSOXD
 70
     0
  9
$DIMSAH
 70
     0
  9
$DIMBLK1
  1

  9
$DIMBLK2
  1

  9
$DIMSTYLE
  2
STANDARD
  9
$DIMCLRD
 70
     0
  9
$DIMCLRE
 70
     0
  9
$DIMCLRT
 70
     0
  9
$DIMTFAC
 40
1.0
  9
$DIMGAP
 40
0.09
  9
$DIMJUST
 70
     0
  9
$DIMSD1
 70
     0
  9
$DIMSD2
 70
     0
  9
$DIMTOLJ
 70
     1
  9
$DIMTZIN
 70
     0
  9
$DIMALTZ
 70
     0
  9
$DIMALTTZ
 70
     0
  9
$DIMFIT
 70
     3
  9
$DIMUPT
 70
     0
  9
$DIMUNIT
 70
     2
  9
$DIMDEC
 70
     4
  9
$DIMTDEC
 70
     4
  9
$DIMALTU
 70
     2
  9
$DIMALTTD
 70
     2
  9
$DIMTXSTY
  7
STANDARD
  9
$DIMAUNIT
 70
     0
  9
$LUNITS
 70
     2
  9
$LUPREC
 70
     4
  9
$SKETCHINC
 40
0.1
  9
$FILLETRAD
 40
0.0
  9
$AUNITS
 70
     0
  9
$AUPREC
 70
     0
  9
$MENU
  1
.
  9
$ELEVATION
 40
0.0
  9
$PELEVATION
 40
0.0
  9
$THICKNESS
 40
0.0
  9
$LIMCHECK
 70
     0
  9
$BLIPMODE
 70
     0
  9
$CHAMFERA
 40
0.0
  9
$CHAMFERB
 40
0.0
  9
$CHAMFERC
 40
0.0
  9
$CHAMFERD
 40
0.0
  9
$SKPOLY
 70
     0
  9
$TDCREATE
 40
2454687.562202326
  9
$TDUPDATE
 40
2454687.562307037
  9
$TDINDWG
 40
0.0001048958
  9
$TDUSRTIMER
 40
0.0001048958
  9
$USRTIMER
 70
     1
  9
$ANGBASE
 50
0.0
  9
$ANGDIR
 70
     0
  9
$PDMODE
 70
     0
  9
$PDSIZE
 40
0.0
  9
$PLINEWID
 40
0.0
  9
$COORDS
 70
     1
  9
$SPLFRAME
 70
     0
  9
$SPLINETYPE
 70
     6
  9
$SPLINESEGS
 70
     8
  9
$ATTDIA
 70
     0
  9
$ATTREQ
 70
     1
  9
$HANDLING
 70
 22529
  9
$HANDSEED
  5
19E
  9
$SURFTAB1
 70
     6
  9
$SURFTAB2
 70
     6
  9
$SURFTYPE
 70
     6
  9
$SURFU
 70
     6
  9
$SURFV
 70
     6
  9
$UCSNAME
  2

  9
$UCSORG
 10
0.0
 20
0.0
 30
0.0
  9
$UCSXDIR
 10
1.0
 20
0.0
 30
0.0
  9
$UCSYDIR
 10
0.0
 20
1.0
 30
0.0
  9
$PUCSNAME
  2

  9
$PUCSORG
 10
0.0
 20
0.0
 30
0.0
  9
$PUCSXDIR
 10
1.0
 20
0.0
 30
0.0
  9
$PUCSYDIR
 10
0.0
 20
1.0
 30
0.0
  9
$USERI1
 70
     0
  9
$USERI2
 70
     0
  9
$USERI3
 70
     0
  9
$USERI4
 70
     0
  9
$USERI5
 70
     0
  9
$USERR1
 40
0.0
  9
$USERR2
 40
0.0
  9
$USERR3
 40
0.0
  9
$USERR4
 40
0.0
  9
$USERR5
 40
0.0
  9
$WORLDVIEW
 70
     1
  9
$SHADEDGE
 70
     3
  9
$SHADEDIF
 70
    70
  9
$TILEMODE
 70
     1
  9
$MAXACTVP
 70
    64
  9
$PINSBASE
 10
0.0
 20
0.0
 30
0.0
  9
$PLIMCHECK
 70
     0
  9
$PEXTMIN
 10
1.000000000000000E+20
 20
1.000000000000000E+20
 30
1.000000000000000E+20
  9
$PEXTMAX
 10
-1.000000000000000E+20
 20
-1.000000000000000E+20
 30
-1.000000000000000E+20
  9
$PLIMMIN
 10
0.0
 20
0.0
  9
$PLIMMAX
 10
12.0
 20
9.0
  9
$UNITMODE
 70
     0
  9
$VISRETAIN
 70
     1
  9
$PLINEGEN
 70
     0
  9
$PSLTSCALE
 70
     1
  9
$TREEDEPTH
 70
  3020
  9
$PICKSTYLE
 70
     1
  9
$CMLSTYLE
  2
STANDARD
  9
$CMLJUST
 70
     0
  9
$CMLSCALE
 40
1.0
  9
$PROXYGRAPHICS
 70
     1
  9
$MEASUREMENT
 70
     0
  0
ENDSEC
  0
SECTION
  2
CLASSES
  0
CLASS
  1
ACDBDICTIONARYWDFLT
  2
AcDbDictionaryWithDefault
  3
AutoCAD 2000
 90
        0
280
     0
281
     0
  0
CLASS
  1
ACDBPLACEHOLDER
  2
AcDbPlaceHolder
  3
AutoCAD 2000
 90
        0
280
     0
281
     0
  0
CLASS
  1
LAYOUT
  2
AcDbLayout
  3
AutoCAD 2000
 90
        0
280
     0
281
     0
  0
CLASS
  1
DICTIONARYVAR
  2
AcDbDictionaryVar
  3
AutoCAD 2000
 90
        0
280
     0
281
     0
  0
CLASS
  1
LONG_TRANSACTION
  2
AcDbLongTransaction
  3
AutoCAD 2000
 90
        0
280
     0
281
     0
  0
CLASS
  1
LWPOLYLINE
  2
AcDbPolyline
  3
AutoCAD 2000
 90
        0
280
     0
281
     1
  0
CLASS
  1
HATCH
  2
AcDbHatch
  3
AutoCAD 2000
 90
        0
280
     0
281
     1
  0
CLASS
  1
XRECORD
  2
AcDbXrecord
  3
AutoCAD 2000
 90
        0
280
     0
281
     0
  0
ENDSEC
  0
SECTION
  2
TABLES
  0
TABLE
  2
VPORT
  5
8
330
0
100
AcDbSymbolTable
 70
     2
  0
VPORT
  5
179
330
8
100
AcDbSymbolTableRecord
100
AcDbViewportTableRecord
  2
*ACTIVE
 70
     0
 10
0.0
 20
0.0
 11
1.0
 21
1.0
 12
96.0
 22
42.5
 13
0.0
 23
0.0
 14
1.0
 24
1.0
 15
0.0
 25
0.0
 16
0.0
 26
0.0
 36
1.0
 17
0.0
 27
0.0
 37
0.0
 40
94.30787990640345
 41
2.043533930857874
 42
50.0
 43
0.0
 44
0.0
 50
0.0
 51
0.0
 71
     0
 72
   100
 73
     1
 74
     3
 75
     0
 76
     0
 77
     0
 78
     0
  0
ENDTAB
  0
TABLE
  2
LTYPE
  5
5
330
0
100
AcDbSymbolTable
 70
     1
  0
LTYPE
  5
13
330
5
100
AcDbSymbolTableRecord
100
AcDbLinetypeTableRecord
  2
BYBLOCK
 70
     0
  3

 72
    65
 73
     0
 40
0.0
  0
LTYPE
  5
14
330
5
100
AcDbSymbolTableRecord
100
AcDbLinetypeTableRecord
  2
BYLAYER
 70
     0
  3

 72
    65
 73
     0
 40
0.0
  0
LTYPE
  5
15
330
5
100
AcDbSymbolTableRecord
100
AcDbLinetypeTableRecord
  2
CONTINUOUS
 70
     0
  3
Solid line
 72
    65
 73
     0
 40
0.0
  0
ENDTAB
  0
TABLE
  2
LAYER
  5
2
330
0
100
AcDbSymbolTable
 70
     1
  0
LAYER
  5
10
330
2
100
AcDbSymbolTableRecord
100
AcDbLayerTableRecord
  2
0
 70
     0
 62
     7
  6
CONTINUOUS
  0
ENDTAB
  0
TABLE
  2
STYLE
  5
3
330
0
100
AcDbSymbolTable
 70
     1
  0
STYLE
  5
11
330
3
100
AcDbSymbolTableRecord
100
AcDbTextStyleTableRecord
  2
STANDARD
 70
     0
 40
0.0
 41
1.0
 50
0.0
 71
     0
 42
0.2
  3
txt
  4

  0
ENDTAB
  0
TABLE
  2
VIEW
  5
6
330
0
100
AcDbSymbolTable
 70
     0
  0
ENDTAB
  0
TABLE
  2
UCS
  5
7
330
0
100
AcDbSymbolTable
 70
     0
  0
ENDTAB
  0
TABLE
  2
APPID
  5
9
330
0
100
AcDbSymbolTable
 70
     1
  0
APPID
  5
12
330
9
100
AcDbSymbolTableRecord
100
AcDbRegAppTableRecord
  2
ACAD
 70
     0
  0
ENDTAB
  0
TABLE
  2
DIMSTYLE
  5
A
330
0
100
AcDbSymbolTable
 70
     1
  0
DIMSTYLE
105
173
330
A
100
AcDbSymbolTableRecord
100
AcDbDimStyleTableRecord
  2
STANDARD
 70
     0
  3

  4

  5

  6

  7

 40
1.0
 41
0.18
 42
0.0625
 43
0.38
 44
0.18
 45
0.0
 46
0.0
 47
0.0
 48
0.0
140
0.18
141
0.09
142
0.0
143
25.4
144
1.0
145
0.0
146
1.0
147
0.09
 71
     0
 72
     0
 73
     1
 74
     1
 75
     0
 76
     0
 77
     0
 78
     0
170
     0
171
     2
172
     0
173
     0
174
     0
175
     0
176
     0
177
     0
178
     0
270
     2
271
     4
272
     4
273
     2
274
     2
340
11
275
     0
280
     0
281
     0
282
     0
283
     1
284
     0
285
     0
286
     0
287
     3
288
     0
  0
ENDTAB
  0
TABLE
  2
BLOCK_RECORD
  5
1
330
0
100
AcDbSymbolTable
 70
     0
  0
BLOCK_RECORD
  5
1E
102
{ACAD_XDICTIONARY
360
19C
102
}
330
1
100
AcDbSymbolTableRecord
100
AcDbBlockTableRecord
  2
*MODEL_SPACE
  0
BLOCK_RECORD
  5
1A
102
{ACAD_XDICTIONARY
360
19A
102
}
330
1
100
AcDbSymbolTableRecord
100
AcDbBlockTableRecord
  2
*PAPER_SPACE
  0
ENDTAB
  0
ENDSEC
  0
SECTION
  2
BLOCKS
  0
BLOCK
  5
1F
330
1E
100
AcDbEntity
  8
0
100
AcDbBlockBegin
  2
*MODEL_SPACE
 70
     0
 10
0.0
 20
0.0
 30
0.0
  3
*MODEL_SPACE
  1

  0
ENDBLK
  5
20
330
1E
100
AcDbEntity
  8
0
100
AcDbBlockEnd
  0
BLOCK
  5
1B
330
1A
100
AcDbEntity
 67
     1
  8
0
100
AcDbBlockBegin
  2
*PAPER_SPACE
 70
     0
 10
0.0
 20
0.0
 30
0.0
  3
*PAPER_SPACE
  1

  0
ENDBLK
  5
1C
330
1A
100
AcDbEntity
 67
     1
  8
0
100
AcDbBlockEnd
  0
ENDSEC
  0
SECTION
  2
ENTITIES
  0
LINE
  5
22
330
1E
100
AcDbEntity
  8
0
100
AcDbLine
 10
1.152000000000009
 20
-0.0000000000000009
 30
0.0
 11
4.224
 21
-0.0000000000000004
 31
0.0
  0
LINE
  5
23
330
1E
100
AcDbEntity
  8
0
100
AcDbLine
 10
0.0000000000000053
 20
-0.0000000000000014
 30
0.0
 11
1.152000000000009
 21
-0.0000000000000019
 31
0.0
  0
LINE
  5
24
330
1E
100
AcDbEntity
  8
0
100
AcDbLine
 10
0.0000000000000053
 20
-0.0000000000000014
 30
0.0
 11
0.0000000000000053
 21
11.27999999999999
 31
0.0
  0
LINE
  5
25
330
1E
100
AcDbEntity
  8
0
100
AcDbLine
 10
0.0000000000000053
 20
-0.0000000000000014
 30
0.0
 11
1.152000000000009
 21
-0.0000000000000009
 31
0.0
  0
LINE
  5
26
330
1E
100
AcDbEntity
  8
0
100
AcDbLine
 10
1.152000000000009
 20
-0.0000000000000009
 30
0.0
 11
4.224
 21
-0.0000000000000004
 31
0.0
  0
LINE
  5
27
330
1E
100
AcDbEntity
  8
0
100
AcDbLine
 10
9.343999999999999
 20
0.0
 30
0.0
 11
16.128
 21
0.0000000000000003
 31
0.0
  0
LINE
  5
28
330
1E
100
AcDbEntity
  8
0
100
AcDbLine
 10
4.224
 20
-0.0000000000000004
 30
0.0
 11
9.343999999999999
 21
0.0
 31
0.0
  0
LINE
  5
29
330
1E
100
AcDbEntity
  8
0
100
AcDbLine
 10
4.224
 20
-0.0000000000000004
 30
0.0
 11
9.343999999999999
 21
0.0
 31
0.0
  0
LINE
  5
2A
330
1E
100
AcDbEntity
  8
0
100
AcDbLine
 10
9.343999999999999
 20
0.0
 30
0.0
 11
16.128
 21
0.0000000000000003
 31
0.0
  0
LINE
  5
2B
330
1E
100
AcDbEntity
  8
0
100
AcDbLine
 10
1.152000000000009
 20
-0.0000000000000019
 30
0.0
 11
4.224
 21
-0.0000000000000023
 31
0.0
  0
LINE
  5
2C
330
1E
100
AcDbEntity
  8
0
100
AcDbLine
 10
1.152000000000009
 20
-0.0000000000000019
 30
0.0
 11
4.224
 21
-0.0000000000000023
 31
0.0
  0
LINE
  5
2D
330
1E
100
AcDbEntity
  8
0
100
AcDbLine
 10
4.224
 20
-0.0000000000000023
 30
0.0
 11
9.343999999999999
 21
-0.0000000000000028
 31
0.0
  0
LINE
  5
2E
330
1E
100
AcDbEntity
  8
0
100
AcDbLine
 10
16.128
 20
0.0000000000000003
 30
0.0
 11
23.808
 21
0.0000000000000005
 31
0.0
  0
LINE
  5
2F
330
1E
100
AcDbEntity
  8
0
100
AcDbLine
 10
23.808
 20
0.0000000000000005
 30
0.0
 11
32.0
 21
0.0000000000000006
 31
0.0
  0
LINE
  5
30
330
1E
100
AcDbEntity
  8
0
100
AcDbLine
 10
9.343999999999999
 20
-0.0000000000000028
 30
0.0
 11
16.128
 21
-0.0000000000000031
 31
0.0
  0
LINE
  5
31
330
1E
100
AcDbEntity
  8
0
100
AcDbLine
 10
16.128
 20
-0.0000000000000031
 30
0.0
 11
23.808
 21
-0.0000000000000033
 31
0.0
  0
LINE
  5
32
330
1E
100
AcDbEntity
  8
0
100
AcDbLine
 10
23.808
 20
-0.0000000000000033
 30
0.0
 11
32.0
 21
-0.0000000000000033
 31
0.0
  0
LINE
  5
33
330
1E
100
AcDbEntity
  8
0
100
AcDbLine
 10
1.152000000000009
 20
11.27999999999999
 30
0.0
 11
4.224
 21
11.27999999999999
 31
0.0
  0
LINE
  5
34
330
1E
100
AcDbEntity
  8
0
100
AcDbLine
 10
1.152000000000009
 20
11.27999999999999
 30
0.0
 11
4.224
 21
11.27999999999999
 31
0.0
  0
LINE
  5
35
330
1E
100
AcDbEntity
  8
0
100
AcDbLine
 10
4.224
 20
11.27999999999999
 30
0.0
 11
9.343999999999999
 21
11.27999999999999
 31
0.0
  0
LINE
  5
36
330
1E
100
AcDbEntity
  8
0
100
AcDbLine
 10
9.343999999999999
 20
11.27999999999999
 30
0.0
 11
16.128
 21
11.27999999999999
 31
0.0
  0
LINE
  5
37
330
1E
100
AcDbEntity
  8
0
100
AcDbLine
 10
16.128
 20
11.27999999999999
 30
0.0
 11
23.808
 21
11.27999999999999
 31
0.0
  0
LINE
  5
38
330
1E
100
AcDbEntity
  8
0
100
AcDbLine
 10
23.808
 20
11.27999999999999
 30
0.0
 11
32.0
 21
11.27999999999999
 31
0.0
  0
LINE
  5
39
330
1E
100
AcDbEntity
  8
0
100
AcDbLine
 10
0.0000000000000053
 20
11.27999999999999
 30
0.0
 11
0.7680000000000051
 21
12.0
 31
0.0
  0
LINE
  5
3A
330
1E
100
AcDbEntity
  8
0
100
AcDbLine
 10
0.0000000000000053
 20
11.27999999999999
 30
0.0
 11
0.0000000000000053
 21
-0.0000000000000024
 31
0.0
  0
LINE
  5
3B
330
1E
100
AcDbEntity
  8
0
100
AcDbLine
 10
0.0000000000000053
 20
11.27999999999999
 30
0.0
 11
1.152000000000009
 21
11.27999999999999
 31
0.0
  0
LINE
  5
3C
330
1E
100
AcDbEntity
  8
0
100
AcDbLine
 10
32.0
 20
-0.0000000000000033
 30
0.0
 11
40.192
 21
-0.0000000000000033
 31
0.0
  0
LINE
  5
3D
330
1E
100
AcDbEntity
  8
0
100
AcDbLine
 10
1.92000000000001
 20
12.0
 30
0.0
 11
4.992000000000009
 21
12.0
 31
0.0
  0
LINE
  5
3E
330
1E
100
AcDbEntity
  8
0
100
AcDbLine
 10
0.7680000000000051
 20
12.0
 30
0.0
 11
1.92000000000001
 21
12.0
 31
0.0
  0
LINE
  5
3F
330
1E
100
AcDbEntity
  8
0
100
AcDbLine
 10
1.92000000000001
 20
12.0
 30
0.0
 11
4.992000000000009
 21
12.0
 31
0.0
  0
LINE
  5
40
330
1E
100
AcDbEntity
  8
0
100
AcDbLine
 10
6.000000000000009
 20
12.0
 30
0.0
 11
6.000000000000009
 21
19.28
 31
0.0
  0
LINE
  5
41
330
1E
100
AcDbEntity
  8
0
100
AcDbLine
 10
4.992000000000009
 20
12.0
 30
0.0
 11
9.984000000000008
 21
12.0
 31
0.0
  0
LINE
  5
42
330
1E
100
AcDbEntity
  8
0
100
AcDbLine
 10
9.984000000000008
 20
12.0
 30
0.0
 11
16.512
 21
12.0
 31
0.0
  0
LINE
  5
43
330
1E
100
AcDbEntity
  8
0
100
AcDbLine
 10
16.512
 20
12.0
 30
0.0
 11
23.936
 21
12.0
 31
0.0
  0
LINE
  5
44
330
1E
100
AcDbEntity
  8
0
100
AcDbLine
 10
6.000000000000009
 20
19.28
 30
0.0
 11
6.623999999999999
 21
20.0
 31
0.0
  0
LINE
  5
45
330
1E
100
AcDbEntity
  8
0
100
AcDbLine
 10
6.000000000000009
 20
19.28
 30
0.0
 11
6.000000000000009
 21
12.0
 31
0.0
  0
LINE
  5
46
330
1E
100
AcDbEntity
  8
0
100
AcDbLine
 10
6.000000000000009
 20
19.28
 30
0.0
 11
6.936000000000009
 21
19.28
 31
0.0
  0
LINE
  5
47
330
1E
100
AcDbEntity
  8
0
100
AcDbLine
 10
6.936000000000009
 20
19.28
 30
0.0
 11
9.432000000000009
 21
19.28
 31
0.0
  0
LINE
  5
48
330
1E
100
AcDbEntity
  8
0
100
AcDbLine
 10
13.592
 20
19.28
 30
0.0
 11
19.104
 21
19.28
 31
0.0
  0
LINE
  5
49
330
1E
100
AcDbEntity
  8
0
100
AcDbLine
 10
6.623999999999999
 20
20.0
 30
0.0
 11
7.559999999999999
 21
20.0
 31
0.0
  0
LINE
  5
4A
330
1E
100
AcDbEntity
  8
0
100
AcDbLine
 10
9.432000000000009
 20
19.28
 30
0.0
 11
13.592
 21
19.28
 31
0.0
  0
LINE
  5
4B
330
1E
100
AcDbEntity
  8
0
100
AcDbLine
 10
25.344
 20
19.28
 30
0.0
 11
32.0
 21
19.28
 31
0.0
  0
LINE
  5
4C
330
1E
100
AcDbEntity
  8
0
100
AcDbLine
 10
32.0
 20
19.28
 30
0.0
 11
38.656
 21
19.28
 31
0.0
  0
LINE
  5
4D
330
1E
100
AcDbEntity
  8
0
100
AcDbLine
 10
19.104
 20
19.28
 30
0.0
 11
25.344
 21
19.28
 31
0.0
  0
LINE
  5
4E
330
1E
100
AcDbEntity
  8
0
100
AcDbLine
 10
7.559999999999999
 20
20.0
 30
0.0
 11
10.056
 21
20.0
 31
0.0
  0
LINE
  5
4F
330
1E
100
AcDbEntity
  8
0
100
AcDbLine
 10
10.056
 20
20.0
 30
0.0
 11
14.112
 21
20.0
 31
0.0
  0
LINE
  5
50
330
1E
100
AcDbEntity
  8
0
100
AcDbLine
 10
14.112
 20
20.0
 30
0.0
 11
19.416
 21
20.0
 31
0.0
  0
LINE
  5
51
330
1E
100
AcDbEntity
  8
0
100
AcDbLine
 10
14.432
 20
63.0
 30
0.0
 11
15.08
 21
63.0
 31
0.0
  0
LINE
  5
52
330
1E
100
AcDbEntity
  8
0
100
AcDbLine
 10
15.08
 20
63.0
 30
0.0
 11
16.808
 21
63.0
 31
0.0
  0
LINE
  5
53
330
1E
100
AcDbEntity
  8
0
100
AcDbLine
 10
19.416
 20
20.0
 30
0.0
 11
25.448
 21
20.0
 31
0.0
  0
LINE
  5
54
330
1E
100
AcDbEntity
  8
0
100
AcDbLine
 10
16.808
 20
63.0
 30
0.0
 11
19.61599999999999
 21
63.0
 31
0.0
  0
LINE
  5
55
330
1E
100
AcDbEntity
  8
0
100
AcDbLine
 10
19.61599999999999
 20
63.0
 30
0.0
 11
23.288
 21
63.0
 31
0.0
  0
LINE
  5
56
330
1E
100
AcDbEntity
  8
0
100
AcDbLine
 10
25.448
 20
20.0
 30
0.0
 11
32.0
 21
20.0
 31
0.0
  0
LINE
  5
57
330
1E
100
AcDbEntity
  8
0
100
AcDbLine
 10
32.0
 20
20.0
 30
0.0
 11
38.55199999999999
 21
20.0
 31
0.0
  0
LINE
  5
58
330
1E
100
AcDbEntity
  8
0
100
AcDbLine
 10
28.5
 20
63.0
 30
0.0
 11
28.5
 21
85.0
 31
0.0
  0
LINE
  5
59
330
1E
100
AcDbEntity
  8
0
100
AcDbLine
 10
28.0
 20
63.0
 30
0.0
 11
28.0
 21
68.7536
 31
0.0
  0
LINE
  5
5A
330
1E
100
AcDbEntity
  8
0
100
AcDbLine
 10
28.0
 20
63.0
 30
0.0
 11
28.0
 21
84.5725
 31
0.0
  0
LINE
  5
5B
330
1E
100
AcDbEntity
  8
0
100
AcDbLine
 10
23.288
 20
63.0
 30
0.0
 11
27.464
 21
63.0
 31
0.0
  0
LINE
  5
5C
330
1E
100
AcDbEntity
  8
0
100
AcDbLine
 10
28.0
 20
84.5725
 30
0.0
 11
28.5
 21
85.0
 31
0.0
  0
LINE
  5
5D
330
1E
100
AcDbEntity
  8
0
100
AcDbLine
 10
28.0
 20
84.5725
 30
0.0
 11
28.0
 21
63.0
 31
0.0
  0
LINE
  5
5E
330
1E
100
AcDbEntity
  8
0
100
AcDbLine
 10
28.0
 20
84.5725
 30
0.0
 11
28.0
 21
71.7464
 31
0.0
  0
LINE
  5
5F
330
1E
100
AcDbEntity
  8
0
100
AcDbLine
 10
28.0
 20
71.7464
 30
0.0
 11
28.0
 21
84.5725
 31
0.0
  0
LINE
  5
60
330
1E
100
AcDbEntity
  8
0
100
AcDbLine
 10
28.0
 20
71.7464
 30
0.0
 11
28.0
 21
71.48990000000001
 31
0.0
  0
LINE
  5
61
330
1E
100
AcDbEntity
  8
0
100
AcDbLine
 10
28.0
 20
71.48990000000001
 30
0.0
 11
28.0
 21
71.7464
 31
0.0
  0
LINE
  5
62
330
1E
100
AcDbEntity
  8
0
100
AcDbLine
 10
28.0
 20
71.48990000000001
 30
0.0
 11
28.0
 21
70.80580000000001
 31
0.0
  0
LINE
  5
63
330
1E
100
AcDbEntity
  8
0
100
AcDbLine
 10
28.0
 20
70.80580000000001
 30
0.0
 11
28.0
 21
71.48990000000001
 31
0.0
  0
LINE
  5
64
330
1E
100
AcDbEntity
  8
0
100
AcDbLine
 10
28.0
 20
70.80580000000001
 30
0.0
 11
28.0
 21
69.8652
 31
0.0
  0
LINE
  5
65
330
1E
100
AcDbEntity
  8
0
100
AcDbLine
 10
28.0
 20
69.8652
 30
0.0
 11
28.0
 21
70.80580000000001
 31
0.0
  0
LINE
  5
66
330
1E
100
AcDbEntity
  8
0
100
AcDbLine
 10
28.0
 20
69.8652
 30
0.0
 11
28.0
 21
68.7536
 31
0.0
  0
LINE
  5
67
330
1E
100
AcDbEntity
  8
0
100
AcDbLine
 10
28.0
 20
68.7536
 30
0.0
 11
28.0
 21
69.8652
 31
0.0
  0
LINE
  5
68
330
1E
100
AcDbEntity
  8
0
100
AcDbLine
 10
28.0
 20
68.7536
 30
0.0
 11
28.0
 21
63.0
 31
0.0
  0
LINE
  5
69
330
1E
100
AcDbEntity
  8
0
100
AcDbLine
 10
28.5
 20
85.0
 30
0.0
 11
35.5
 21
85.0
 31
0.0
  0
LINE
  5
6A
330
1E
100
AcDbEntity
  8
0
100
AcDbLine
 10
28.5
 20
85.0
 30
0.0
 11
28.5
 21
63.0
 31
0.0
  0
LINE
  5
6B
330
1E
100
AcDbEntity
  8
0
100
AcDbLine
 10
27.464
 20
63.0
 30
0.0
 11
32.0
 21
63.0
 31
0.0
  0
LINE
  5
6C
330
1E
100
AcDbEntity
  8
0
100
AcDbLine
 10
14.0
 20
62.28
 30
0.0
 11
14.432
 21
63.0
 31
0.0
  0
LINE
  5
6D
330
1E
100
AcDbEntity
  8
0
100
AcDbLine
 10
14.0
 20
62.28
 30
0.0
 11
14.0
 21
20.0
 31
0.0
  0
LINE
  5
6E
330
1E
100
AcDbEntity
  8
0
100
AcDbLine
 10
14.0
 20
20.0
 30
0.0
 11
14.0
 21
62.28
 31
0.0
  0
LINE
  5
6F
330
1E
100
AcDbEntity
  8
0
100
AcDbLine
 10
32.0
 20
63.0
 30
0.0
 11
36.536
 21
63.0
 31
0.0
  0
LINE
  5
70
330
1E
100
AcDbEntity
  8
0
100
AcDbLine
 10
23.936
 20
12.0
 30
0.0
 11
32.0
 21
12.0
 31
0.0
  0
LINE
  5
71
330
1E
100
AcDbEntity
  8
0
100
AcDbLine
 10
32.0
 20
12.0
 30
0.0
 11
40.064
 21
12.0
 31
0.0
  0
LINE
  5
72
330
1E
100
AcDbEntity
  8
0
100
AcDbLine
 10
32.0
 20
11.27999999999999
 30
0.0
 11
40.192
 21
11.27999999999999
 31
0.0
  0
LINE
  5
73
330
1E
100
AcDbEntity
  8
0
100
AcDbLine
 10
47.872
 20
-0.0000000000000031
 30
0.0
 11
54.65600000000001
 21
-0.0000000000000028
 31
0.0
  0
LINE
  5
74
330
1E
100
AcDbEntity
  8
0
100
AcDbLine
 10
40.192
 20
-0.0000000000000033
 30
0.0
 11
47.872
 21
-0.0000000000000031
 31
0.0
  0
LINE
  5
75
330
1E
100
AcDbEntity
  8
0
100
AcDbLine
 10
59.776
 20
-0.0000000000000023
 30
0.0
 11
62.848
 21
-0.0000000000000019
 31
0.0
  0
LINE
  5
76
330
1E
100
AcDbEntity
  8
0
100
AcDbLine
 10
54.65600000000001
 20
-0.0000000000000028
 30
0.0
 11
59.776
 21
-0.0000000000000023
 31
0.0
  0
LINE
  5
77
330
1E
100
AcDbEntity
  8
0
100
AcDbLine
 10
54.65600000000001
 20
0.0
 30
0.0
 11
59.776
 21
-0.0000000000000004
 31
0.0
  0
LINE
  5
78
330
1E
100
AcDbEntity
  8
0
100
AcDbLine
 10
62.848
 20
-0.0000000000000019
 30
0.0
 11
64.0
 21
-0.0000000000000014
 31
0.0
  0
LINE
  5
79
330
1E
100
AcDbEntity
  8
0
100
AcDbLine
 10
129.152
 20
-0.0000000000000009
 30
0.0
 11
132.2239999999999
 21
-0.0000000000000004
 31
0.0
  0
LINE
  5
7A
330
1E
100
AcDbEntity
  8
0
100
AcDbLine
 10
128.0
 20
-0.0000000000000014
 30
0.0
 11
129.152
 21
-0.0000000000000019
 31
0.0
  0
LINE
  5
7B
330
1E
100
AcDbEntity
  8
0
100
AcDbLine
 10
128.0
 20
-0.0000000000000014
 30
0.0
 11
128.0
 21
11.27999999999999
 31
0.0
  0
LINE
  5
7C
330
1E
100
AcDbEntity
  8
0
100
AcDbLine
 10
128.0
 20
-0.0000000000000014
 30
0.0
 11
129.152
 21
-0.0000000000000009
 31
0.0
  0
LINE
  5
7D
330
1E
100
AcDbEntity
  8
0
100
AcDbLine
 10
129.152
 20
-0.0000000000000019
 30
0.0
 11
132.2239999999999
 21
-0.0000000000000023
 31
0.0
  0
LINE
  5
7E
330
1E
100
AcDbEntity
  8
0
100
AcDbLine
 10
132.2239999999999
 20
-0.0000000000000023
 30
0.0
 11
137.3439999999999
 21
-0.0000000000000028
 31
0.0
  0
LINE
  5
7F
330
1E
100
AcDbEntity
  8
0
100
AcDbLine
 10
137.3439999999999
 20
-0.0000000000000028
 30
0.0
 11
144.1279999999999
 21
-0.0000000000000031
 31
0.0
  0
LINE
  5
80
330
1E
100
AcDbEntity
  8
0
100
AcDbLine
 10
144.1279999999999
 20
-0.0000000000000031
 30
0.0
 11
151.8079999999999
 21
-0.0000000000000033
 31
0.0
  0
LINE
  5
81
330
1E
100
AcDbEntity
  8
0
100
AcDbLine
 10
151.8079999999999
 20
-0.0000000000000033
 30
0.0
 11
160.0
 21
-0.0000000000000033
 31
0.0
  0
LINE
  5
82
330
1E
100
AcDbEntity
  8
0
100
AcDbLine
 10
190.8479999999999
 20
-0.0000000000000019
 30
0.0
 11
192.0
 21
-0.0000000000000014
 31
0.0
  0
LINE
  5
83
330
1E
100
AcDbEntity
  8
0
100
AcDbLine
 10
187.7759999999999
 20
-0.0000000000000023
 30
0.0
 11
190.8479999999999
 21
-0.0000000000000019
 31
0.0
  0
LINE
  5
84
330
1E
100
AcDbEntity
  8
0
100
AcDbLine
 10
182.6559999999999
 20
-0.0000000000000028
 30
0.0
 11
187.7759999999999
 21
-0.0000000000000023
 31
0.0
  0
LINE
  5
85
330
1E
100
AcDbEntity
  8
0
100
AcDbLine
 10
175.872
 20
-0.0000000000000031
 30
0.0
 11
182.6559999999999
 21
-0.0000000000000028
 31
0.0
  0
LINE
  5
86
330
1E
100
AcDbEntity
  8
0
100
AcDbLine
 10
168.192
 20
-0.0000000000000033
 30
0.0
 11
175.872
 21
-0.0000000000000031
 31
0.0
  0
LINE
  5
87
330
1E
100
AcDbEntity
  8
0
100
AcDbLine
 10
160.0
 20
-0.0000000000000033
 30
0.0
 11
168.192
 21
-0.0000000000000033
 31
0.0
  0
LINE
  5
88
330
1E
100
AcDbEntity
  8
0
100
AcDbLine
 10
192.0
 20
-0.0000000000000014
 30
0.0
 11
192.0
 21
11.27999999999999
 31
0.0
  0
LINE
  5
89
330
1E
100
AcDbEntity
  8
0
100
AcDbLine
 10
190.8479999999999
 20
-0.0000000000000009
 30
0.0
 11
192.0
 21
-0.0000000000000014
 31
0.0
  0
LINE
  5
8A
330
1E
100
AcDbEntity
  8
0
100
AcDbLine
 10
64.0
 20
-0.0000000000000014
 30
0.0
 11
64.0
 21
11.27999999999999
 31
0.0
  0
LINE
  5
8B
330
1E
100
AcDbEntity
  8
0
100
AcDbLine
 10
137.3439999999999
 20
0.0
 30
0.0
 11
144.1279999999999
 21
0.0000000000000003
 31
0.0
  0
LINE
  5
8C
330
1E
100
AcDbEntity
  8
0
100
AcDbLine
 10
132.2239999999999
 20
-0.0000000000000004
 30
0.0
 11
137.3439999999999
 21
0.0
 31
0.0
  0
LINE
  5
8D
330
1E
100
AcDbEntity
  8
0
100
AcDbLine
 10
132.2239999999999
 20
-0.0000000000000004
 30
0.0
 11
137.3439999999999
 21
0.0
 31
0.0
  0
LINE
  5
8E
330
1E
100
AcDbEntity
  8
0
100
AcDbLine
 10
137.3439999999999
 20
0.0
 30
0.0
 11
144.1279999999999
 21
0.0000000000000003
 31
0.0
  0
LINE
  5
8F
330
1E
100
AcDbEntity
  8
0
100
AcDbLine
 10
182.6559999999999
 20
0.0
 30
0.0
 11
187.7759999999999
 21
-0.0000000000000004
 31
0.0
  0
LINE
  5
90
330
1E
100
AcDbEntity
  8
0
100
AcDbLine
 10
187.7759999999999
 20
-0.0000000000000004
 30
0.0
 11
190.8479999999999
 21
-0.0000000000000009
 31
0.0
  0
LINE
  5
91
330
1E
100
AcDbEntity
  8
0
100
AcDbLine
 10
182.6559999999999
 20
0.0
 30
0.0
 11
187.7759999999999
 21
-0.0000000000000004
 31
0.0
  0
LINE
  5
92
330
1E
100
AcDbEntity
  8
0
100
AcDbLine
 10
62.848
 20
-0.0000000000000009
 30
0.0
 11
64.0
 21
-0.0000000000000014
 31
0.0
  0
LINE
  5
93
330
1E
100
AcDbEntity
  8
0
100
AcDbLine
 10
59.776
 20
-0.0000000000000004
 30
0.0
 11
62.848
 21
-0.0000000000000009
 31
0.0
  0
LINE
  5
94
330
1E
100
AcDbEntity
  8
0
100
AcDbLine
 10
144.1279999999999
 20
0.0000000000000003
 30
0.0
 11
151.8079999999999
 21
0.0000000000000005
 31
0.0
  0
LINE
  5
95
330
1E
100
AcDbEntity
  8
0
100
AcDbLine
 10
151.8079999999999
 20
0.0000000000000005
 30
0.0
 11
160.0
 21
0.0000000000000006
 31
0.0
  0
LINE
  5
96
330
1E
100
AcDbEntity
  8
0
100
AcDbLine
 10
175.872
 20
0.0000000000000003
 30
0.0
 11
182.6559999999999
 21
0.0
 31
0.0
  0
LINE
  5
97
330
1E
100
AcDbEntity
  8
0
100
AcDbLine
 10
175.872
 20
0.0000000000000003
 30
0.0
 11
182.6559999999999
 21
0.0
 31
0.0
  0
LINE
  5
98
330
1E
100
AcDbEntity
  8
0
100
AcDbLine
 10
168.192
 20
0.0000000000000005
 30
0.0
 11
175.872
 21
0.0000000000000003
 31
0.0
  0
LINE
  5
99
330
1E
100
AcDbEntity
  8
0
100
AcDbLine
 10
54.65600000000001
 20
0.0
 30
0.0
 11
59.776
 21
-0.0000000000000004
 31
0.0
  0
LINE
  5
9A
330
1E
100
AcDbEntity
  8
0
100
AcDbLine
 10
47.872
 20
0.0000000000000003
 30
0.0
 11
54.65600000000001
 21
0.0
 31
0.0
  0
LINE
  5
9B
330
1E
100
AcDbEntity
  8
0
100
AcDbLine
 10
47.872
 20
0.0000000000000003
 30
0.0
 11
54.65600000000001
 21
0.0
 31
0.0
  0
LINE
  5
9C
330
1E
100
AcDbEntity
  8
0
100
AcDbLine
 10
36.0
 20
84.5725
 30
0.0
 11
36.0
 21
63.0
 31
0.0
  0
LINE
  5
9D
330
1E
100
AcDbEntity
  8
0
100
AcDbLine
 10
35.5
 20
63.0
 30
0.0
 11
35.5
 21
85.0
 31
0.0
  0
LINE
  5
9E
330
1E
100
AcDbEntity
  8
0
100
AcDbLine
 10
36.0
 20
63.0
 30
0.0
 11
36.0
 21
84.5725
 31
0.0
  0
LINE
  5
9F
330
1E
100
AcDbEntity
  8
0
100
AcDbLine
 10
35.5
 20
85.0
 30
0.0
 11
36.0
 21
84.5725
 31
0.0
  0
LINE
  5
A0
330
1E
100
AcDbEntity
  8
0
100
AcDbLine
 10
35.5
 20
85.0
 30
0.0
 11
35.5
 21
63.0
 31
0.0
  0
LINE
  5
A1
330
1E
100
AcDbEntity
  8
0
100
AcDbLine
 10
38.55199999999999
 20
20.0
 30
0.0
 11
44.584
 21
20.0
 31
0.0
  0
LINE
  5
A2
330
1E
100
AcDbEntity
  8
0
100
AcDbLine
 10
38.656
 20
19.28
 30
0.0
 11
44.896
 21
19.28
 31
0.0
  0
LINE
  5
A3
330
1E
100
AcDbEntity
  8
0
100
AcDbLine
 10
36.536
 20
63.0
 30
0.0
 11
40.712
 21
63.0
 31
0.0
  0
LINE
  5
A4
330
1E
100
AcDbEntity
  8
0
100
AcDbLine
 10
40.064
 20
12.0
 30
0.0
 11
47.488
 21
12.0
 31
0.0
  0
LINE
  5
A5
330
1E
100
AcDbEntity
  8
0
100
AcDbLine
 10
129.152
 20
11.27999999999999
 30
0.0
 11
132.2239999999999
 21
11.27999999999999
 31
0.0
  0
LINE
  5
A6
330
1E
100
AcDbEntity
  8
0
100
AcDbLine
 10
128.0
 20
11.27999999999999
 30
0.0
 11
128.7679999999999
 21
12.0
 31
0.0
  0
LINE
  5
A7
330
1E
100
AcDbEntity
  8
0
100
AcDbLine
 10
128.0
 20
11.27999999999999
 30
0.0
 11
128.0
 21
-0.0000000000000024
 31
0.0
  0
LINE
  5
A8
330
1E
100
AcDbEntity
  8
0
100
AcDbLine
 10
128.0
 20
11.27999999999999
 30
0.0
 11
129.152
 21
11.27999999999999
 31
0.0
  0
LINE
  5
A9
330
1E
100
AcDbEntity
  8
0
100
AcDbLine
 10
192.0
 20
11.27999999999999
 30
0.0
 11
192.0
 21
-0.0000000000000024
 31
0.0
  0
LINE
  5
AA
330
1E
100
AcDbEntity
  8
0
100
AcDbLine
 10
190.8479999999999
 20
11.27999999999999
 30
0.0
 11
192.0
 21
11.27999999999999
 31
0.0
  0
LINE
  5
AB
330
1E
100
AcDbEntity
  8
0
100
AcDbLine
 10
160.0
 20
0.0000000000000006
 30
0.0
 11
168.192
 21
0.0000000000000005
 31
0.0
  0
LINE
  5
AC
330
1E
100
AcDbEntity
  8
0
100
AcDbLine
 10
132.2239999999999
 20
11.27999999999999
 30
0.0
 11
137.3439999999999
 21
11.27999999999999
 31
0.0
  0
LINE
  5
AD
330
1E
100
AcDbEntity
  8
0
100
AcDbLine
 10
137.3439999999999
 20
11.27999999999999
 30
0.0
 11
144.1279999999999
 21
11.27999999999999
 31
0.0
  0
LINE
  5
AE
330
1E
100
AcDbEntity
  8
0
100
AcDbLine
 10
144.1279999999999
 20
11.27999999999999
 30
0.0
 11
151.8079999999999
 21
11.27999999999999
 31
0.0
  0
LINE
  5
AF
330
1E
100
AcDbEntity
  8
0
100
AcDbLine
 10
151.8079999999999
 20
11.27999999999999
 30
0.0
 11
160.0
 21
11.27999999999999
 31
0.0
  0
LINE
  5
B0
330
1E
100
AcDbEntity
  8
0
100
AcDbLine
 10
187.7759999999999
 20
11.27999999999999
 30
0.0
 11
190.8479999999999
 21
11.27999999999999
 31
0.0
  0
LINE
  5
B1
330
1E
100
AcDbEntity
  8
0
100
AcDbLine
 10
182.6559999999999
 20
11.27999999999999
 30
0.0
 11
187.7759999999999
 21
11.27999999999999
 31
0.0
  0
LINE
  5
B2
330
1E
100
AcDbEntity
  8
0
100
AcDbLine
 10
175.872
 20
11.27999999999999
 30
0.0
 11
182.6559999999999
 21
11.27999999999999
 31
0.0
  0
LINE
  5
B3
330
1E
100
AcDbEntity
  8
0
100
AcDbLine
 10
168.192
 20
11.27999999999999
 30
0.0
 11
175.872
 21
11.27999999999999
 31
0.0
  0
LINE
  5
B4
330
1E
100
AcDbEntity
  8
0
100
AcDbLine
 10
160.0
 20
11.27999999999999
 30
0.0
 11
168.192
 21
11.27999999999999
 31
0.0
  0
LINE
  5
B5
330
1E
100
AcDbEntity
  8
0
100
AcDbLine
 10
64.0
 20
11.27999999999999
 30
0.0
 11
64.0
 21
-0.0000000000000024
 31
0.0
  0
LINE
  5
B6
330
1E
100
AcDbEntity
  8
0
100
AcDbLine
 10
62.848
 20
11.27999999999999
 30
0.0
 11
64.0
 21
11.27999999999999
 31
0.0
  0
LINE
  5
B7
330
1E
100
AcDbEntity
  8
0
100
AcDbLine
 10
59.776
 20
11.27999999999999
 30
0.0
 11
62.848
 21
11.27999999999999
 31
0.0
  0
LINE
  5
B8
330
1E
100
AcDbEntity
  8
0
100
AcDbLine
 10
54.65600000000001
 20
11.27999999999999
 30
0.0
 11
59.776
 21
11.27999999999999
 31
0.0
  0
LINE
  5
B9
330
1E
100
AcDbEntity
  8
0
100
AcDbLine
 10
44.584
 20
20.0
 30
0.0
 11
49.88800000000001
 21
20.0
 31
0.0
  0
LINE
  5
BA
330
1E
100
AcDbEntity
  8
0
100
AcDbLine
 10
44.896
 20
19.28
 30
0.0
 11
50.408
 21
19.28
 31
0.0
  0
LINE
  5
BB
330
1E
100
AcDbEntity
  8
0
100
AcDbLine
 10
47.19199999999999
 20
63.0
 30
0.0
 11
48.92
 21
63.0
 31
0.0
  0
LINE
  5
BC
330
1E
100
AcDbEntity
  8
0
100
AcDbLine
 10
44.38399999999999
 20
63.0
 30
0.0
 11
47.19199999999999
 21
63.0
 31
0.0
  0
LINE
  5
BD
330
1E
100
AcDbEntity
  8
0
100
AcDbLine
 10
40.712
 20
63.0
 30
0.0
 11
44.38399999999999
 21
63.0
 31
0.0
  0
LINE
  5
BE
330
1E
100
AcDbEntity
  8
0
100
AcDbLine
 10
58.0
 20
12.0
 30
0.0
 11
58.0
 21
19.28
 31
0.0
  0
LINE
  5
BF
330
1E
100
AcDbEntity
  8
0
100
AcDbLine
 10
128.7679999999999
 20
12.0
 30
0.0
 11
129.9199999999999
 21
12.0
 31
0.0
  0
LINE
  5
C0
330
1E
100
AcDbEntity
  8
0
100
AcDbLine
 10
191.232
 20
12.0
 30
0.0
 11
192.0
 21
11.27999999999999
 31
0.0
  0
LINE
  5
C1
330
1E
100
AcDbEntity
  8
0
100
AcDbLine
 10
129.9199999999999
 20
12.0
 30
0.0
 11
132.992
 21
12.0
 31
0.0
  0
LINE
  5
C2
330
1E
100
AcDbEntity
  8
0
100
AcDbLine
 10
134.0
 20
12.0
 30
0.0
 11
134.0
 21
19.28
 31
0.0
  0
LINE
  5
C3
330
1E
100
AcDbEntity
  8
0
100
AcDbLine
 10
132.992
 20
12.0
 30
0.0
 11
137.984
 21
12.0
 31
0.0
  0
LINE
  5
C4
330
1E
100
AcDbEntity
  8
0
100
AcDbLine
 10
137.984
 20
12.0
 30
0.0
 11
144.512
 21
12.0
 31
0.0
  0
LINE
  5
C5
330
1E
100
AcDbEntity
  8
0
100
AcDbLine
 10
144.512
 20
12.0
 30
0.0
 11
151.9359999999999
 21
12.0
 31
0.0
  0
LINE
  5
C6
330
1E
100
AcDbEntity
  8
0
100
AcDbLine
 10
151.9359999999999
 20
12.0
 30
0.0
 11
160.0
 21
12.0
 31
0.0
  0
LINE
  5
C7
330
1E
100
AcDbEntity
  8
0
100
AcDbLine
 10
186.0
 20
12.0
 30
0.0
 11
186.0
 21
19.28
 31
0.0
  0
LINE
  5
C8
330
1E
100
AcDbEntity
  8
0
100
AcDbLine
 10
190.08
 20
12.0
 30
0.0
 11
191.232
 21
12.0
 31
0.0
  0
LINE
  5
C9
330
1E
100
AcDbEntity
  8
0
100
AcDbLine
 10
187.0079999999999
 20
12.0
 30
0.0
 11
190.08
 21
12.0
 31
0.0
  0
LINE
  5
CA
330
1E
100
AcDbEntity
  8
0
100
AcDbLine
 10
182.0159999999999
 20
12.0
 30
0.0
 11
187.0079999999999
 21
12.0
 31
0.0
  0
LINE
  5
CB
330
1E
100
AcDbEntity
  8
0
100
AcDbLine
 10
175.4879999999999
 20
12.0
 30
0.0
 11
182.0159999999999
 21
12.0
 31
0.0
  0
LINE
  5
CC
330
1E
100
AcDbEntity
  8
0
100
AcDbLine
 10
168.064
 20
12.0
 30
0.0
 11
175.4879999999999
 21
12.0
 31
0.0
  0
LINE
  5
CD
330
1E
100
AcDbEntity
  8
0
100
AcDbLine
 10
160.0
 20
12.0
 30
0.0
 11
168.064
 21
12.0
 31
0.0
  0
LINE
  5
CE
330
1E
100
AcDbEntity
  8
0
100
AcDbLine
 10
62.08
 20
12.0
 30
0.0
 11
63.23199999999999
 21
12.0
 31
0.0
  0
LINE
  5
CF
330
1E
100
AcDbEntity
  8
0
100
AcDbLine
 10
63.23199999999999
 20
12.0
 30
0.0
 11
64.0
 21
11.27999999999999
 31
0.0
  0
LINE
  5
D0
330
1E
100
AcDbEntity
  8
0
100
AcDbLine
 10
59.008
 20
12.0
 30
0.0
 11
62.08
 21
12.0
 31
0.0
  0
LINE
  5
D1
330
1E
100
AcDbEntity
  8
0
100
AcDbLine
 10
49.88800000000001
 20
20.0
 30
0.0
 11
53.944
 21
20.0
 31
0.0
  0
LINE
  5
D2
330
1E
100
AcDbEntity
  8
0
100
AcDbLine
 10
50.0
 20
62.28
 30
0.0
 11
50.0
 21
20.0
 31
0.0
  0
LINE
  5
D3
330
1E
100
AcDbEntity
  8
0
100
AcDbLine
 10
48.92
 20
63.0
 30
0.0
 11
49.56800000000001
 21
63.0
 31
0.0
  0
LINE
  5
D4
330
1E
100
AcDbEntity
  8
0
100
AcDbLine
 10
49.56800000000001
 20
63.0
 30
0.0
 11
50.0
 21
62.28
 31
0.0
  0
LINE
  5
D5
330
1E
100
AcDbEntity
  8
0
100
AcDbLine
 10
186.0
 20
19.28
 30
0.0
 11
186.0
 21
12.0
 31
0.0
  0
LINE
  5
D6
330
1E
100
AcDbEntity
  8
0
100
AcDbLine
 10
134.0
 20
19.28
 30
0.0
 11
134.0
 21
12.0
 31
0.0
  0
LINE
  5
D7
330
1E
100
AcDbEntity
  8
0
100
AcDbLine
 10
134.0
 20
19.28
 30
0.0
 11
134.936
 21
19.28
 31
0.0
  0
LINE
  5
D8
330
1E
100
AcDbEntity
  8
0
100
AcDbLine
 10
134.0
 20
19.28
 30
0.0
 11
134.6239999999999
 21
20.0
 31
0.0
  0
LINE
  5
D9
330
1E
100
AcDbEntity
  8
0
100
AcDbLine
 10
57.06399999999999
 20
19.28
 30
0.0
 11
58.0
 21
19.28
 31
0.0
  0
LINE
  5
DA
330
1E
100
AcDbEntity
  8
0
100
AcDbLine
 10
54.56800000000001
 20
19.28
 30
0.0
 11
57.06399999999999
 21
19.28
 31
0.0
  0
LINE
  5
DB
330
1E
100
AcDbEntity
  8
0
100
AcDbLine
 10
56.44
 20
20.0
 30
0.0
 11
57.376
 21
20.0
 31
0.0
  0
LINE
  5
DC
330
1E
100
AcDbEntity
  8
0
100
AcDbLine
 10
53.944
 20
20.0
 30
0.0
 11
56.44
 21
20.0
 31
0.0
  0
LINE
  5
DD
330
1E
100
AcDbEntity
  8
0
100
AcDbLine
 10
50.408
 20
19.28
 30
0.0
 11
54.56800000000001
 21
19.28
 31
0.0
  0
LINE
  5
DE
330
1E
100
AcDbEntity
  8
0
100
AcDbLine
 10
134.936
 20
19.28
 30
0.0
 11
137.432
 21
19.28
 31
0.0
  0
LINE
  5
DF
330
1E
100
AcDbEntity
  8
0
100
AcDbLine
 10
141.592
 20
19.28
 30
0.0
 11
147.1039999999999
 21
19.28
 31
0.0
  0
LINE
  5
E0
330
1E
100
AcDbEntity
  8
0
100
AcDbLine
 10
134.6239999999999
 20
20.0
 30
0.0
 11
135.56
 21
20.0
 31
0.0
  0
LINE
  5
E1
330
1E
100
AcDbEntity
  8
0
100
AcDbLine
 10
137.432
 20
19.28
 30
0.0
 11
141.592
 21
19.28
 31
0.0
  0
LINE
  5
E2
330
1E
100
AcDbEntity
  8
0
100
AcDbLine
 10
147.1039999999999
 20
19.28
 30
0.0
 11
153.3439999999999
 21
19.28
 31
0.0
  0
LINE
  5
E3
330
1E
100
AcDbEntity
  8
0
100
AcDbLine
 10
153.3439999999999
 20
19.28
 30
0.0
 11
155.0679999999999
 21
19.28
 31
0.0
  0
LINE
  5
E4
330
1E
100
AcDbEntity
  8
0
100
AcDbLine
 10
155.0679999999999
 20
19.28
 30
0.0
 11
155.0679999999999
 21
28.0
 31
0.0
  0
LINE
  5
E5
330
1E
100
AcDbEntity
  8
0
100
AcDbLine
 10
166.6559999999999
 20
19.28
 30
0.0
 11
172.8959999999999
 21
19.28
 31
0.0
  0
LINE
  5
E6
330
1E
100
AcDbEntity
  8
0
100
AcDbLine
 10
164.932
 20
19.28
 30
0.0
 11
166.6559999999999
 21
19.28
 31
0.0
  0
LINE
  5
E7
330
1E
100
AcDbEntity
  8
0
100
AcDbLine
 10
164.932
 20
19.28
 30
0.0
 11
164.932
 21
28.0
 31
0.0
  0
LINE
  5
E8
330
1E
100
AcDbEntity
  8
0
100
AcDbLine
 10
164.932
 20
19.28
 30
0.0
 11
165.004
 21
20.0
 31
0.0
  0
LINE
  5
E9
330
1E
100
AcDbEntity
  8
0
100
AcDbLine
 10
142.0
 20
20.0
 30
0.0
 11
142.0
 21
62.28
 31
0.0
  0
LINE
  5
EA
330
1E
100
AcDbEntity
  8
0
100
AcDbLine
 10
172.8959999999999
 20
19.28
 30
0.0
 11
178.4079999999999
 21
19.28
 31
0.0
  0
LINE
  5
EB
330
1E
100
AcDbEntity
  8
0
100
AcDbLine
 10
185.064
 20
19.28
 30
0.0
 11
186.0
 21
19.28
 31
0.0
  0
LINE
  5
EC
330
1E
100
AcDbEntity
  8
0
100
AcDbLine
 10
182.568
 20
19.28
 30
0.0
 11
185.064
 21
19.28
 31
0.0
  0
LINE
  5
ED
330
1E
100
AcDbEntity
  8
0
100
AcDbLine
 10
185.3759999999999
 20
20.0
 30
0.0
 11
186.0
 21
19.28
 31
0.0
  0
LINE
  5
EE
330
1E
100
AcDbEntity
  8
0
100
AcDbLine
 10
178.4079999999999
 20
19.28
 30
0.0
 11
182.568
 21
19.28
 31
0.0
  0
LINE
  5
EF
330
1E
100
AcDbEntity
  8
0
100
AcDbLine
 10
135.56
 20
20.0
 30
0.0
 11
138.056
 21
20.0
 31
0.0
  0
LINE
  5
F0
330
1E
100
AcDbEntity
  8
0
100
AcDbLine
 10
142.1119999999999
 20
20.0
 30
0.0
 11
147.4159999999999
 21
20.0
 31
0.0
  0
LINE
  5
F1
330
1E
100
AcDbEntity
  8
0
100
AcDbLine
 10
154.996
 20
20.0
 30
0.0
 11
155.0679999999999
 21
19.28
 31
0.0
  0
LINE
  5
F2
330
1E
100
AcDbEntity
  8
0
100
AcDbLine
 10
154.996
 20
20.0
 30
0.0
 11
154.996
 21
28.0
 31
0.0
  0
LINE
  5
F3
330
1E
100
AcDbEntity
  8
0
100
AcDbLine
 10
153.4479999999999
 20
20.0
 30
0.0
 11
154.996
 21
20.0
 31
0.0
  0
LINE
  5
F4
330
1E
100
AcDbEntity
  8
0
100
AcDbLine
 10
160.0
 20
22.0
 30
0.0
 11
160.769
 21
22.10589999999999
 31
0.0
  0
LINE
  5
F5
330
1E
100
AcDbEntity
  8
0
100
AcDbLine
 10
160.0
 20
22.0
 30
0.0
 11
160.768
 21
22.108
 31
0.0
  0
LINE
  5
F6
330
1E
100
AcDbEntity
  8
0
100
AcDbLine
 10
157.876
 20
22.87599999999999
 30
0.0
 11
158.512
 21
22.396
 31
0.0
  0
LINE
  5
F7
330
1E
100
AcDbEntity
  8
0
100
AcDbLine
 10
157.396
 20
23.51199999999999
 30
0.0
 11
157.876
 21
22.87599999999999
 31
0.0
  0
LINE
  5
F8
330
1E
100
AcDbEntity
  8
0
100
AcDbLine
 10
157.108
 20
25.768
 30
0.0
 11
157.396
 21
26.488
 31
0.0
  0
LINE
  5
F9
330
1E
100
AcDbEntity
  8
0
100
AcDbLine
 10
157.396
 20
26.488
 30
0.0
 11
157.876
 21
27.124
 31
0.0
  0
LINE
  5
FA
330
1E
100
AcDbEntity
  8
0
100
AcDbLine
 10
157.108
 20
24.232
 30
0.0
 11
157.396
 21
23.51199999999999
 31
0.0
  0
LINE
  5
FB
330
1E
100
AcDbEntity
  8
0
100
AcDbLine
 10
157.1059999999999
 20
25.7694
 30
0.0
 11
157.402
 21
26.4894
 31
0.0
  0
LINE
  5
FC
330
1E
100
AcDbEntity
  8
0
100
AcDbLine
 10
157.402
 20
26.4894
 30
0.0
 11
157.882
 21
27.11759999999999
 31
0.0
  0
LINE
  5
FD
330
1E
100
AcDbEntity
  8
0
100
AcDbLine
 10
157.0
 20
25.0
 30
0.0
 11
157.1059999999999
 21
24.23059999999999
 31
0.0
  0
LINE
  5
FE
330
1E
100
AcDbEntity
  8
0
100
AcDbLine
 10
157.0
 20
25.0
 30
0.0
 11
157.1059999999999
 21
25.7694
 31
0.0
  0
LINE
  5
FF
330
1E
100
AcDbEntity
  8
0
100
AcDbLine
 10
157.0
 20
25.0
 30
0.0
 11
157.108
 21
24.232
 31
0.0
  0
LINE
  5
100
330
1E
100
AcDbEntity
  8
0
100
AcDbLine
 10
157.0
 20
25.0
 30
0.0
 11
157.108
 21
25.768
 31
0.0
  0
LINE
  5
101
330
1E
100
AcDbEntity
  8
0
100
AcDbLine
 10
157.1059999999999
 20
24.23059999999999
 30
0.0
 11
157.402
 21
23.51059999999999
 31
0.0
  0
LINE
  5
102
330
1E
100
AcDbEntity
  8
0
100
AcDbLine
 10
157.876
 20
27.124
 30
0.0
 11
158.512
 21
27.604
 31
0.0
  0
LINE
  5
103
330
1E
100
AcDbEntity
  8
0
100
AcDbLine
 10
157.882
 20
27.11759999999999
 30
0.0
 11
158.511
 21
27.5977
 31
0.0
  0
LINE
  5
104
330
1E
100
AcDbEntity
  8
0
100
AcDbLine
 10
158.511
 20
27.5977
 30
0.0
 11
159.2309999999999
 21
27.8941
 31
0.0
  0
LINE
  5
105
330
1E
100
AcDbEntity
  8
0
100
AcDbLine
 10
157.402
 20
23.51059999999999
 30
0.0
 11
157.882
 21
22.8824
 31
0.0
  0
LINE
  5
106
330
1E
100
AcDbEntity
  8
0
100
AcDbLine
 10
157.882
 20
22.8824
 30
0.0
 11
158.511
 21
22.4024
 31
0.0
  0
LINE
  5
107
330
1E
100
AcDbEntity
  8
0
100
AcDbLine
 10
158.512
 20
27.604
 30
0.0
 11
159.2319999999999
 21
27.892
 31
0.0
  0
LINE
  5
108
330
1E
100
AcDbEntity
  8
0
100
AcDbLine
 10
159.2319999999999
 20
27.892
 30
0.0
 11
160.0
 21
28.0
 31
0.0
  0
LINE
  5
109
330
1E
100
AcDbEntity
  8
0
100
AcDbLine
 10
158.512
 20
22.396
 30
0.0
 11
159.2319999999999
 21
22.108
 31
0.0
  0
LINE
  5
10A
330
1E
100
AcDbEntity
  8
0
100
AcDbLine
 10
159.2319999999999
 20
22.108
 30
0.0
 11
160.0
 21
22.0
 31
0.0
  0
LINE
  5
10B
330
1E
100
AcDbEntity
  8
0
100
AcDbLine
 10
160.0
 20
28.0
 30
0.0
 11
160.769
 21
27.8941
 31
0.0
  0
LINE
  5
10C
330
1E
100
AcDbEntity
  8
0
100
AcDbLine
 10
160.0
 20
28.0
 30
0.0
 11
160.768
 21
27.892
 31
0.0
  0
LINE
  5
10D
330
1E
100
AcDbEntity
  8
0
100
AcDbLine
 10
159.2309999999999
 20
27.8941
 30
0.0
 11
160.0
 21
28.0
 31
0.0
  0
LINE
  5
10E
330
1E
100
AcDbEntity
  8
0
100
AcDbLine
 10
158.511
 20
22.4024
 30
0.0
 11
159.2309999999999
 21
22.10589999999999
 31
0.0
  0
LINE
  5
10F
330
1E
100
AcDbEntity
  8
0
100
AcDbLine
 10
159.2309999999999
 20
22.10589999999999
 30
0.0
 11
160.0
 21
22.0
 31
0.0
  0
LINE
  5
110
330
1E
100
AcDbEntity
  8
0
100
AcDbLine
 10
154.996
 20
28.0
 30
0.0
 11
154.996
 21
20.0
 31
0.0
  0
LINE
  5
111
330
1E
100
AcDbEntity
  8
0
100
AcDbLine
 10
154.996
 20
28.0
 30
0.0
 11
155.1719999999999
 21
28.768
 31
0.0
  0
LINE
  5
112
330
1E
100
AcDbEntity
  8
0
100
AcDbLine
 10
155.2279999999999
 20
28.756
 30
0.0
 11
155.709
 21
29.45199999999999
 31
0.0
  0
LINE
  5
113
330
1E
100
AcDbEntity
  8
0
100
AcDbLine
 10
155.1719999999999
 20
28.768
 30
0.0
 11
155.661
 21
29.488
 31
0.0
  0
LINE
  5
114
330
1E
100
AcDbEntity
  8
0
100
AcDbLine
 10
155.709
 20
29.45199999999999
 30
0.0
 11
156.5099999999999
 21
30.064
 31
0.0
  0
LINE
  5
115
330
1E
100
AcDbEntity
  8
0
100
AcDbLine
 10
156.5099999999999
 20
30.064
 30
0.0
 11
157.551
 21
30.53199999999999
 31
0.0
  0
LINE
  5
116
330
1E
100
AcDbEntity
  8
0
100
AcDbLine
 10
157.551
 20
30.53199999999999
 30
0.0
 11
158.7289999999999
 21
30.82
 31
0.0
  0
LINE
  5
117
330
1E
100
AcDbEntity
  8
0
100
AcDbLine
 10
157.519
 20
30.604
 30
0.0
 11
158.7209999999999
 21
30.89199999999999
 31
0.0
  0
LINE
  5
118
330
1E
100
AcDbEntity
  8
0
100
AcDbLine
 10
158.7289999999999
 20
30.82
 30
0.0
 11
160.0
 21
30.928
 31
0.0
  0
LINE
  5
119
330
1E
100
AcDbEntity
  8
0
100
AcDbLine
 10
155.0679999999999
 20
28.0
 30
0.0
 11
155.0679999999999
 21
19.28
 31
0.0
  0
LINE
  5
11A
330
1E
100
AcDbEntity
  8
0
100
AcDbLine
 10
155.0679999999999
 20
28.0
 30
0.0
 11
155.2279999999999
 21
28.756
 31
0.0
  0
LINE
  5
11B
330
1E
100
AcDbEntity
  8
0
100
AcDbLine
 10
160.0
 20
30.928
 30
0.0
 11
161.271
 21
30.82
 31
0.0
  0
LINE
  5
11C
330
1E
100
AcDbEntity
  8
0
100
AcDbLine
 10
147.4159999999999
 20
20.0
 30
0.0
 11
153.4479999999999
 21
20.0
 31
0.0
  0
LINE
  5
11D
330
1E
100
AcDbEntity
  8
0
100
AcDbLine
 10
138.056
 20
20.0
 30
0.0
 11
142.1119999999999
 21
20.0
 31
0.0
  0
LINE
  5
11E
330
1E
100
AcDbEntity
  8
0
100
AcDbLine
 10
142.432
 20
63.0
 30
0.0
 11
143.08
 21
63.0
 31
0.0
  0
LINE
  5
11F
330
1E
100
AcDbEntity
  8
0
100
AcDbLine
 10
143.08
 20
63.0
 30
0.0
 11
144.808
 21
63.0
 31
0.0
  0
LINE
  5
120
330
1E
100
AcDbEntity
  8
0
100
AcDbLine
 10
144.808
 20
63.0
 30
0.0
 11
147.616
 21
63.0
 31
0.0
  0
LINE
  5
121
330
1E
100
AcDbEntity
  8
0
100
AcDbLine
 10
147.616
 20
63.0
 30
0.0
 11
151.2879999999999
 21
63.0
 31
0.0
  0
LINE
  5
122
330
1E
100
AcDbEntity
  8
0
100
AcDbLine
 10
156.4999999999999
 20
63.0
 30
0.0
 11
156.4999999999999
 21
85.0
 31
0.0
  0
LINE
  5
123
330
1E
100
AcDbEntity
  8
0
100
AcDbLine
 10
156.0
 20
63.0
 30
0.0
 11
156.0
 21
68.7536
 31
0.0
  0
LINE
  5
124
330
1E
100
AcDbEntity
  8
0
100
AcDbLine
 10
156.0
 20
63.0
 30
0.0
 11
156.0
 21
84.5725
 31
0.0
  0
LINE
  5
125
330
1E
100
AcDbEntity
  8
0
100
AcDbLine
 10
151.2879999999999
 20
63.0
 30
0.0
 11
155.464
 21
63.0
 31
0.0
  0
LINE
  5
126
330
1E
100
AcDbEntity
  8
0
100
AcDbLine
 10
156.0
 20
84.5725
 30
0.0
 11
156.4999999999999
 21
85.0
 31
0.0
  0
LINE
  5
127
330
1E
100
AcDbEntity
  8
0
100
AcDbLine
 10
156.0
 20
84.5725
 30
0.0
 11
156.0
 21
63.0
 31
0.0
  0
LINE
  5
128
330
1E
100
AcDbEntity
  8
0
100
AcDbLine
 10
156.0
 20
84.5725
 30
0.0
 11
156.0
 21
71.7464
 31
0.0
  0
LINE
  5
129
330
1E
100
AcDbEntity
  8
0
100
AcDbLine
 10
156.0
 20
71.7464
 30
0.0
 11
156.0
 21
84.5725
 31
0.0
  0
LINE
  5
12A
330
1E
100
AcDbEntity
  8
0
100
AcDbLine
 10
156.0
 20
71.7464
 30
0.0
 11
156.0
 21
71.48990000000001
 31
0.0
  0
LINE
  5
12B
330
1E
100
AcDbEntity
  8
0
100
AcDbLine
 10
156.0
 20
71.48990000000001
 30
0.0
 11
156.0
 21
71.7464
 31
0.0
  0
LINE
  5
12C
330
1E
100
AcDbEntity
  8
0
100
AcDbLine
 10
156.0
 20
71.48990000000001
 30
0.0
 11
156.0
 21
70.80580000000001
 31
0.0
  0
LINE
  5
12D
330
1E
100
AcDbEntity
  8
0
100
AcDbLine
 10
156.0
 20
70.80580000000001
 30
0.0
 11
156.0
 21
71.48990000000001
 31
0.0
  0
LINE
  5
12E
330
1E
100
AcDbEntity
  8
0
100
AcDbLine
 10
156.0
 20
70.80580000000001
 30
0.0
 11
156.0
 21
69.8652
 31
0.0
  0
LINE
  5
12F
330
1E
100
AcDbEntity
  8
0
100
AcDbLine
 10
156.0
 20
69.8652
 30
0.0
 11
156.0
 21
70.80580000000001
 31
0.0
  0
LINE
  5
130
330
1E
100
AcDbEntity
  8
0
100
AcDbLine
 10
156.0
 20
69.8652
 30
0.0
 11
156.0
 21
68.7536
 31
0.0
  0
LINE
  5
131
330
1E
100
AcDbEntity
  8
0
100
AcDbLine
 10
156.0
 20
68.7536
 30
0.0
 11
156.0
 21
69.8652
 31
0.0
  0
LINE
  5
132
330
1E
100
AcDbEntity
  8
0
100
AcDbLine
 10
156.0
 20
68.7536
 30
0.0
 11
156.0
 21
63.0
 31
0.0
  0
LINE
  5
133
330
1E
100
AcDbEntity
  8
0
100
AcDbLine
 10
156.4999999999999
 20
85.0
 30
0.0
 11
163.4999999999999
 21
85.0
 31
0.0
  0
LINE
  5
134
330
1E
100
AcDbEntity
  8
0
100
AcDbLine
 10
156.4999999999999
 20
85.0
 30
0.0
 11
156.4999999999999
 21
63.0
 31
0.0
  0
LINE
  5
135
330
1E
100
AcDbEntity
  8
0
100
AcDbLine
 10
155.464
 20
63.0
 30
0.0
 11
160.0
 21
63.0
 31
0.0
  0
LINE
  5
136
330
1E
100
AcDbEntity
  8
0
100
AcDbLine
 10
142.0
 20
62.28
 30
0.0
 11
142.432
 21
63.0
 31
0.0
  0
LINE
  5
137
330
1E
100
AcDbEntity
  8
0
100
AcDbLine
 10
142.0
 20
62.28
 30
0.0
 11
142.0
 21
20.0
 31
0.0
  0
LINE
  5
138
330
1E
100
AcDbEntity
  8
0
100
AcDbLine
 10
161.488
 20
22.396
 30
0.0
 11
162.124
 21
22.87599999999999
 31
0.0
  0
LINE
  5
139
330
1E
100
AcDbEntity
  8
0
100
AcDbLine
 10
160.768
 20
22.108
 30
0.0
 11
161.488
 21
22.396
 31
0.0
  0
LINE
  5
13A
330
1E
100
AcDbEntity
  8
0
100
AcDbLine
 10
161.488
 20
27.604
 30
0.0
 11
162.124
 21
27.124
 31
0.0
  0
LINE
  5
13B
330
1E
100
AcDbEntity
  8
0
100
AcDbLine
 10
160.768
 20
27.892
 30
0.0
 11
161.488
 21
27.604
 31
0.0
  0
LINE
  5
13C
330
1E
100
AcDbEntity
  8
0
100
AcDbLine
 10
161.489
 20
22.4024
 30
0.0
 11
162.118
 21
22.8824
 31
0.0
  0
LINE
  5
13D
330
1E
100
AcDbEntity
  8
0
100
AcDbLine
 10
160.769
 20
22.10589999999999
 30
0.0
 11
161.489
 21
22.4024
 31
0.0
  0
LINE
  5
13E
330
1E
100
AcDbEntity
  8
0
100
AcDbLine
 10
162.124
 20
22.87599999999999
 30
0.0
 11
162.6039999999999
 21
23.51199999999999
 31
0.0
  0
LINE
  5
13F
330
1E
100
AcDbEntity
  8
0
100
AcDbLine
 10
162.598
 20
23.51059999999999
 30
0.0
 11
162.894
 21
24.23059999999999
 31
0.0
  0
LINE
  5
140
330
1E
100
AcDbEntity
  8
0
100
AcDbLine
 10
162.118
 20
22.8824
 30
0.0
 11
162.598
 21
23.51059999999999
 31
0.0
  0
LINE
  5
141
330
1E
100
AcDbEntity
  8
0
100
AcDbLine
 10
162.8919999999999
 20
24.232
 30
0.0
 11
163.0
 21
25.0
 31
0.0
  0
LINE
  5
142
330
1E
100
AcDbEntity
  8
0
100
AcDbLine
 10
162.6039999999999
 20
23.51199999999999
 30
0.0
 11
162.8919999999999
 21
24.232
 31
0.0
  0
LINE
  5
143
330
1E
100
AcDbEntity
  8
0
100
AcDbLine
 10
162.8919999999999
 20
25.768
 30
0.0
 11
163.0
 21
25.0
 31
0.0
  0
LINE
  5
144
330
1E
100
AcDbEntity
  8
0
100
AcDbLine
 10
162.894
 20
24.23059999999999
 30
0.0
 11
163.0
 21
25.0
 31
0.0
  0
LINE
  5
145
330
1E
100
AcDbEntity
  8
0
100
AcDbLine
 10
162.6039999999999
 20
26.488
 30
0.0
 11
162.8919999999999
 21
25.768
 31
0.0
  0
LINE
  5
146
330
1E
100
AcDbEntity
  8
0
100
AcDbLine
 10
162.894
 20
25.7694
 30
0.0
 11
163.0
 21
25.0
 31
0.0
  0
LINE
  5
147
330
1E
100
AcDbEntity
  8
0
100
AcDbLine
 10
162.598
 20
26.4894
 30
0.0
 11
162.894
 21
25.7694
 31
0.0
  0
LINE
  5
148
330
1E
100
AcDbEntity
  8
0
100
AcDbLine
 10
162.124
 20
27.124
 30
0.0
 11
162.6039999999999
 21
26.488
 31
0.0
  0
LINE
  5
149
330
1E
100
AcDbEntity
  8
0
100
AcDbLine
 10
162.118
 20
27.11759999999999
 30
0.0
 11
162.598
 21
26.4894
 31
0.0
  0
LINE
  5
14A
330
1E
100
AcDbEntity
  8
0
100
AcDbLine
 10
161.489
 20
27.5977
 30
0.0
 11
162.118
 21
27.11759999999999
 31
0.0
  0
LINE
  5
14B
330
1E
100
AcDbEntity
  8
0
100
AcDbLine
 10
160.769
 20
27.8941
 30
0.0
 11
161.489
 21
27.5977
 31
0.0
  0
LINE
  5
14C
330
1E
100
AcDbEntity
  8
0
100
AcDbLine
 10
165.004
 20
20.0
 30
0.0
 11
165.004
 21
28.0
 31
0.0
  0
LINE
  5
14D
330
1E
100
AcDbEntity
  8
0
100
AcDbLine
 10
165.004
 20
20.0
 30
0.0
 11
166.552
 21
20.0
 31
0.0
  0
LINE
  5
14E
330
1E
100
AcDbEntity
  8
0
100
AcDbLine
 10
165.004
 20
28.0
 30
0.0
 11
165.004
 21
20.0
 31
0.0
  0
LINE
  5
14F
330
1E
100
AcDbEntity
  8
0
100
AcDbLine
 10
166.552
 20
20.0
 30
0.0
 11
172.5839999999999
 21
20.0
 31
0.0
  0
LINE
  5
150
330
1E
100
AcDbEntity
  8
0
100
AcDbLine
 10
164.291
 20
29.45199999999999
 30
0.0
 11
164.772
 21
28.756
 31
0.0
  0
LINE
  5
151
330
1E
100
AcDbEntity
  8
0
100
AcDbLine
 10
163.49
 20
30.064
 30
0.0
 11
164.291
 21
29.45199999999999
 31
0.0
  0
LINE
  5
152
330
1E
100
AcDbEntity
  8
0
100
AcDbLine
 10
162.4489999999999
 20
30.53199999999999
 30
0.0
 11
163.49
 21
30.064
 31
0.0
  0
LINE
  5
153
330
1E
100
AcDbEntity
  8
0
100
AcDbLine
 10
163.4999999999999
 20
63.0
 30
0.0
 11
163.4999999999999
 21
85.0
 31
0.0
  0
LINE
  5
154
330
1E
100
AcDbEntity
  8
0
100
AcDbLine
 10
164.0
 20
63.0
 30
0.0
 11
164.0
 21
84.5725
 31
0.0
  0
LINE
  5
155
330
1E
100
AcDbEntity
  8
0
100
AcDbLine
 10
161.271
 20
30.82
 30
0.0
 11
162.4489999999999
 21
30.53199999999999
 31
0.0
  0
LINE
  5
156
330
1E
100
AcDbEntity
  8
0
100
AcDbLine
 10
164.772
 20
28.756
 30
0.0
 11
164.932
 21
28.0
 31
0.0
  0
LINE
  5
157
330
1E
100
AcDbEntity
  8
0
100
AcDbLine
 10
164.8279999999999
 20
28.768
 30
0.0
 11
165.004
 21
28.0
 31
0.0
  0
LINE
  5
158
330
1E
100
AcDbEntity
  8
0
100
AcDbLine
 10
164.339
 20
29.488
 30
0.0
 11
164.8279999999999
 21
28.768
 31
0.0
  0
LINE
  5
159
330
1E
100
AcDbEntity
  8
0
100
AcDbLine
 10
164.932
 20
28.0
 30
0.0
 11
164.932
 21
19.28
 31
0.0
  0
LINE
  5
15A
330
1E
100
AcDbEntity
  8
0
100
AcDbLine
 10
172.5839999999999
 20
20.0
 30
0.0
 11
177.888
 21
20.0
 31
0.0
  0
LINE
  5
15B
330
1E
100
AcDbEntity
  8
0
100
AcDbLine
 10
177.888
 20
20.0
 30
0.0
 11
181.944
 21
20.0
 31
0.0
  0
LINE
  5
15C
330
1E
100
AcDbEntity
  8
0
100
AcDbLine
 10
184.44
 20
20.0
 30
0.0
 11
185.3759999999999
 21
20.0
 31
0.0
  0
LINE
  5
15D
330
1E
100
AcDbEntity
  8
0
100
AcDbLine
 10
181.944
 20
20.0
 30
0.0
 11
184.44
 21
20.0
 31
0.0
  0
LINE
  5
15E
330
1E
100
AcDbEntity
  8
0
100
AcDbLine
 10
178.0
 20
62.28
 30
0.0
 11
178.0
 21
20.0
 31
0.0
  0
LINE
  5
15F
330
1E
100
AcDbEntity
  8
0
100
AcDbLine
 10
176.9199999999999
 20
63.0
 30
0.0
 11
177.5679999999999
 21
63.0
 31
0.0
  0
LINE
  5
160
330
1E
100
AcDbEntity
  8
0
100
AcDbLine
 10
177.5679999999999
 20
63.0
 30
0.0
 11
178.0
 21
62.28
 31
0.0
  0
LINE
  5
161
330
1E
100
AcDbEntity
  8
0
100
AcDbLine
 10
175.192
 20
63.0
 30
0.0
 11
176.9199999999999
 21
63.0
 31
0.0
  0
LINE
  5
162
330
1E
100
AcDbEntity
  8
0
100
AcDbLine
 10
172.384
 20
63.0
 30
0.0
 11
175.192
 21
63.0
 31
0.0
  0
LINE
  5
163
330
1E
100
AcDbEntity
  8
0
100
AcDbLine
 10
168.712
 20
63.0
 30
0.0
 11
172.384
 21
63.0
 31
0.0
  0
LINE
  5
164
330
1E
100
AcDbEntity
  8
0
100
AcDbLine
 10
164.0
 20
84.5725
 30
0.0
 11
164.0
 21
63.0
 31
0.0
  0
LINE
  5
165
330
1E
100
AcDbEntity
  8
0
100
AcDbLine
 10
163.4999999999999
 20
85.0
 30
0.0
 11
164.0
 21
84.5725
 31
0.0
  0
LINE
  5
166
330
1E
100
AcDbEntity
  8
0
100
AcDbLine
 10
163.4999999999999
 20
85.0
 30
0.0
 11
163.4999999999999
 21
63.0
 31
0.0
  0
LINE
  5
167
330
1E
100
AcDbEntity
  8
0
100
AcDbLine
 10
164.5359999999999
 20
63.0
 30
0.0
 11
168.712
 21
63.0
 31
0.0
  0
LINE
  5
168
330
1E
100
AcDbEntity
  8
0
100
AcDbLine
 10
160.0
 20
63.0
 30
0.0
 11
164.5359999999999
 21
63.0
 31
0.0
  0
LINE
  5
169
330
1E
100
AcDbEntity
  8
0
100
AcDbLine
 10
178.0
 20
20.0
 30
0.0
 11
178.0
 21
62.28
 31
0.0
  0
LINE
  5
16A
330
1E
100
AcDbEntity
  8
0
100
AcDbLine
 10
57.376
 20
20.0
 30
0.0
 11
58.0
 21
19.28
 31
0.0
  0
LINE
  5
16B
330
1E
100
AcDbEntity
  8
0
100
AcDbLine
 10
58.0
 20
19.28
 30
0.0
 11
58.0
 21
12.0
 31
0.0
  0
LINE
  5
16C
330
1E
100
AcDbEntity
  8
0
100
AcDbLine
 10
50.0
 20
20.0
 30
0.0
 11
50.0
 21
62.28
 31
0.0
  0
LINE
  5
16D
330
1E
100
AcDbEntity
  8
0
100
AcDbLine
 10
54.01600000000001
 20
12.0
 30
0.0
 11
59.008
 21
12.0
 31
0.0
  0
LINE
  5
16E
330
1E
100
AcDbEntity
  8
0
100
AcDbLine
 10
47.488
 20
12.0
 30
0.0
 11
54.01600000000001
 21
12.0
 31
0.0
  0
LINE
  5
16F
330
1E
100
AcDbEntity
  8
0
100
AcDbLine
 10
47.872
 20
11.27999999999999
 30
0.0
 11
54.65600000000001
 21
11.27999999999999
 31
0.0
  0
LINE
  5
170
330
1E
100
AcDbEntity
  8
0
100
AcDbLine
 10
40.192
 20
11.27999999999999
 30
0.0
 11
47.872
 21
11.27999999999999
 31
0.0
  0
LINE
  5
171
330
1E
100
AcDbEntity
  8
0
100
AcDbLine
 10
40.192
 20
0.0000000000000005
 30
0.0
 11
47.872
 21
0.0000000000000003
 31
0.0
  0
LINE
  5
172
330
1E
100
AcDbEntity
  8
0
100
AcDbLine
 10
32.0
 20
0.0000000000000006
 30
0.0
 11
40.192
 21
0.0000000000000005
 31
0.0
  0
ENDSEC
  0
SECTION
  2
OBJECTS
  0
DICTIONARY
  5
C
330
0
100
AcDbDictionary
  3
ACAD_GROUP
350
D
  3
ACAD_LAYOUT
350
19
  3
ACAD_MLINESTYLE
350
16
  3
ACAD_PLOTSETTINGS
350
18
  3
ACAD_PLOTSTYLENAME
350
E
  3
ACDBHEADERROUNDTRIPXREC
350
17A
  3
ACDBVARIABLEDICTIONARY
350
177
  0
DICTIONARY
  5
19C
330
1E
100
AcDbDictionary
280
     1
  3
ACAD_LAYOUTSELFREF
360
19D
  0
DICTIONARY
  5
19A
330
1A
100
AcDbDictionary
280
     1
  3
ACAD_LAYOUTSELFREF
360
19B
  0
DICTIONARY
  5
D
102
{ACAD_REACTORS
330
C
102
}
330
C
100
AcDbDictionary
  0
DICTIONARY
  5
19
102
{ACAD_REACTORS
330
C
102
}
330
C
100
AcDbDictionary
  0
DICTIONARY
  5
16
102
{ACAD_REACTORS
330
C
102
}
330
C
100
AcDbDictionary
  3
STANDARD
350
17
  0
DICTIONARY
  5
18
102
{ACAD_REACTORS
330
C
102
}
330
C
100
AcDbDictionary
  0
ACDBDICTIONARYWDFLT
  5
E
102
{ACAD_REACTORS
330
C
102
}
330
C
100
AcDbDictionary
281
     1
  3
Normal
350
F
100
AcDbDictionaryWithDefault
340
F
  0
DICTIONARY
  5
17A
102
{ACAD_REACTORS
330
C
102
}
330
C
100
AcDbDictionary
  3
CEPSNTYPE
350
184
  3
FINGERPRINTGUID
350
185
  3
HYPERLINKBASE
350
17D
  3
INSUNITS
350
183
  3
LAYOUTDICT
350
17F
  3
LWETCUNION
350
182
  3
PLOTSETDICT
350
180
  3
PLOTSTYLNAMDICT
350
181
  3
PSVPSCALE
350
187
  3
PUCSBASE
350
18A
  3
PUCSORGBACK
350
190
  3
PUCSORGBOTTOM
350
18C
  3
PUCSORGFRONT
350
18F
  3
PUCSORGLEFT
350
18D
  3
PUCSORGRIGHT
350
18E
  3
PUCSORGTOP
350
18B
  3
PUCSORTHOREF
350
188
  3
PUCSORTHOVIEW
350
189
  3
STYLESHEET
350
17E
  3
TSTACKALIGN
350
17B
  3
TSTACKSIZE
350
17C
  3
UCSBASE
350
193
  3
UCSORGBACK
350
199
  3
UCSORGBOTTOM
350
195
  3
UCSORGFRONT
350
198
  3
UCSORGLEFT
350
196
  3
UCSORGRIGHT
350
197
  3
UCSORGTOP
350
194
  3
UCSORTHOREF
350
191
  3
UCSORTHOVIEW
350
192
  3
VERSIONGUID
350
186
  0
DICTIONARY
  5
177
102
{ACAD_REACTORS
330
C
102
}
330
C
100
AcDbDictionary
  3
DIMASSOC
350
178
  0
XRECORD
  5
19D
102
{ACAD_REACTORS
330
19C
102
}
330
19C
100
AcDbXrecord
340
1E
  0
XRECORD
  5
19B
102
{ACAD_REACTORS
330
19A
102
}
330
19A
100
AcDbXrecord
340
1A
  0
MLINESTYLE
  5
17
102
{ACAD_REACTORS
330
16
102
}
330
16
100
AcDbMlineStyle
  2
STANDARD
 70
     0
  3

 62
   256
 51
90.0
 52
90.0
 71
     2
 49
0.5
 62
   256
  6
BYLAYER
 49
-0.5
 62
   256
  6
BYLAYER
  0
ACDBPLACEHOLDER
  5
F
102
{ACAD_REACTORS
330
E
102
}
330
E
100
AcDbPlaceHolder
280
     0
  0
XRECORD
  5
184
102
{ACAD_REACTORS
330
17A
102
}
330
17A
100
AcDbXrecord
 90
        0
  0
XRECORD
  5
185
102
{ACAD_REACTORS
330
17A
102
}
330
17A
100
AcDbXrecord
  1
{1DA30421-51B3-471B-B39D-4035CE113F7E}
  0
XRECORD
  5
17D
102
{ACAD_REACTORS
330
17A
102
}
330
17A
100
AcDbXrecord
  1

  0
XRECORD
  5
183
102
{ACAD_REACTORS
330
17A
102
}
330
17A
100
AcDbXrecord
 90
        0
  0
XRECORD
  5
17F
102
{ACAD_REACTORS
330
17A
102
}
330
17A
100
AcDbXrecord
340
19
  0
XRECORD
  5
182
102
{ACAD_REACTORS
330
17A
102
}
330
17A
100
AcDbXrecord
 90
    10781
  0
XRECORD
  5
180
102
{ACAD_REACTORS
330
17A
102
}
330
17A
100
AcDbXrecord
340
18
  0
XRECORD
  5
181
102
{ACAD_REACTORS
330
17A
102
}
330
17A
100
AcDbXrecord
340
E
  0
XRECORD
  5
187
102
{ACAD_REACTORS
330
17A
102
}
330
17A
100
AcDbXrecord
 40
0.0
  0
XRECORD
  5
18A
102
{ACAD_REACTORS
330
17A
102
}
330
17A
100
AcDbXrecord
340
0
  0
XRECORD
  5
190
102
{ACAD_REACTORS
330
17A
102
}
330
17A
100
AcDbXrecord
 10
0.0
 20
0.0
 30
0.0
  0
XRECORD
  5
18C
102
{ACAD_REACTORS
330
17A
102
}
330
17A
100
AcDbXrecord
 10
0.0
 20
0.0
 30
0.0
  0
XRECORD
  5
18F
102
{ACAD_REACTORS
330
17A
102
}
330
17A
100
AcDbXrecord
 10
0.0
 20
0.0
 30
0.0
  0
XRECORD
  5
18D
102
{ACAD_REACTORS
330
17A
102
}
330
17A
100
AcDbXrecord
 10
0.0
 20
0.0
 30
0.0
  0
XRECORD
  5
18E
102
{ACAD_REACTORS
330
17A
102
}
330
17A
100
AcDbXrecord
 10
0.0
 20
0.0
 30
0.0
  0
XRECORD
  5
18B
102
{ACAD_REACTORS
330
17A
102
}
330
17A
100
AcDbXrecord
 10
0.0
 20
0.0
 30
0.0
  0
XRECORD
  5
188
102
{ACAD_REACTORS
330
17A
102
}
330
17A
100
AcDbXrecord
340
0
  0
XRECORD
  5
189
102
{ACAD_REACTORS
330
17A
102
}
330
17A
100
AcDbXrecord
 70
     0
  0
XRECORD
  5
17E
102
{ACAD_REACTORS
330
17A
102
}
330
17A
100
AcDbXrecord
  1

  0
XRECORD
  5
17B
102
{ACAD_REACTORS
330
17A
102
}
330
17A
100
AcDbXrecord
 90
        1
  0
XRECORD
  5
17C
102
{ACAD_REACTORS
330
17A
102
}
330
17A
100
AcDbXrecord
 90
       70
  0
XRECORD
  5
193
102
{ACAD_REACTORS
330
17A
102
}
330
17A
100
AcDbXrecord
340
0
  0
XRECORD
  5
199
102
{ACAD_REACTORS
330
17A
102
}
330
17A
100
AcDbXrecord
 10
0.0
 20
0.0
 30
0.0
  0
XRECORD
  5
195
102
{ACAD_REACTORS
330
17A
102
}
330
17A
100
AcDbXrecord
 10
0.0
 20
0.0
 30
0.0
  0
XRECORD
  5
198
102
{ACAD_REACTORS
330
17A
102
}
330
17A
100
AcDbXrecord
 10
0.0
 20
0.0
 30
0.0
  0
XRECORD
  5
196
102
{ACAD_REACTORS
330
17A
102
}
330
17A
100
AcDbXrecord
 10
0.0
 20
0.0
 30
0.0
  0
XRECORD
  5
197
102
{ACAD_REACTORS
330
17A
102
}
330
17A
100
AcDbXrecord
 10
0.0
 20
0.0
 30
0.0
  0
XRECORD
  5
194
102
{ACAD_REACTORS
330
17A
102
}
330
17A
100
AcDbXrecord
 10
0.0
 20
0.0
 30
0.0
  0
XRECORD
  5
191
102
{ACAD_REACTORS
330
17A
102
}
330
17A
100
AcDbXrecord
340
0
  0
XRECORD
  5
192
102
{ACAD_REACTORS
330
17A
102
}
330
17A
100
AcDbXrecord
 70
     1
  0
XRECORD
  5
186
102
{ACAD_REACTORS
330
17A
102
}
330
17A
100
AcDbXrecord
  1
{742F2AF7-7117-438A-8EC1-302EF678BCEB}
  0
DICTIONARYVAR
  5
178
102
{ACAD_REACTORS
330
177
102
}
330
177
100
DictionaryVariables
280
     0
  1
1
  0
ENDSEC
  0
EOF
