  0
SECTION
  2
HEADER
  9
$ACADVER
  1
AC1014
  9
$ACADMAINTVER
 70
     9
  9
$DWGCODEPAGE
  3
ANSI_1252
  9
$INSBASE
 10
0.0
 20
0.0
 30
0.0
  9
$EXTMIN
 10
-0.000000000000011
 20
-0.0000000000000033
 30
0.0
  9
$EXTMAX
 10
198.0
 20
85.0
 30
0.0
  9
$LIMMIN
 10
0.0
 20
0.0
  9
$LIMMAX
 10
12.0
 20
9.0
  9
$ORTHOMODE
 70
     0
  9
$REGENMODE
 70
     1
  9
$FILLMODE
 70
     1
  9
$QTEXTMODE
 70
     0
  9
$MIRRTEXT
 70
     1
  9
$DRAGMODE
 70
     2
  9
$LTSCALE
 40
1.0
  9
$OSMODE
 70
    37
  9
$ATTMODE
 70
     1
  9
$TEXTSIZE
 40
0.2
  9
$TRACEWID
 40
0.05
  9
$TEXTSTYLE
  7
STANDARD
  9
$CLAYER
  8
0
  9
$CELTYPE
  6
CONTINUOUS
  9
$CECOLOR
 62
   256
  9
$CELTSCALE
 40
1.0
  9
$DELOBJ
 70
     1
  9
$DISPSILH
 70
     0
  9
$DIMSCALE
 40
1.0
  9
$DIMASZ
 40
0.18
  9
$DIMEXO
 40
0.0625
  9
$DIMDLI
 40
0.38
  9
$DIMRND
 40
0.0
  9
$DIMDLE
 40
0.0
  9
$DIMEXE
 40
0.18
  9
$DIMTP
 40
0.0
  9
$DIMTM
 40
0.0
  9
$DIMTXT
 40
0.18
  9
$DIMCEN
 40
0.09
  9
$DIMTSZ
 40
0.0
  9
$DIMTOL
 70
     0
  9
$DIMLIM
 70
     0
  9
$DIMTIH
 70
     1
  9
$DIMTOH
 70
     1
  9
$DIMSE1
 70
     0
  9
$DIMSE2
 70
     0
  9
$DIMTAD
 70
     0
  9
$DIMZIN
 70
     0
  9
$DIMBLK
  1

  9
$DIMASO
 70
     1
  9
$DIMSHO
 70
     1
  9
$DIMPOST
  1

  9
$DIMAPOST
  1

  9
$DIMALT
 70
     0
  9
$DIMALTD
 70
     2
  9
$DIMALTF
 40
25.4
  9
$DIMLFAC
 40
1.0
  9
$DIMTOFL
 70
     0
  9
$DIMTVP
 40
0.0
  9
$DIMTIX
 70
     0
  9
$DIMSOXD
 70
     0
  9
$DIMSAH
 70
     0
  9
$DIMBLK1
  1

  9
$DIMBLK2
  1

  9
$DIMSTYLE
  2
STANDARD
  9
$DIMCLRD
 70
     0
  9
$DIMCLRE
 70
     0
  9
$DIMCLRT
 70
     0
  9
$DIMTFAC
 40
1.0
  9
$DIMGAP
 40
0.09
  9
$DIMJUST
 70
     0
  9
$DIMSD1
 70
     0
  9
$DIMSD2
 70
     0
  9
$DIMTOLJ
 70
     1
  9
$DIMTZIN
 70
     0
  9
$DIMALTZ
 70
     0
  9
$DIMALTTZ
 70
     0
  9
$DIMFIT
 70
     3
  9
$DIMUPT
 70
     0
  9
$DIMUNIT
 70
     2
  9
$DIMDEC
 70
     4
  9
$DIMTDEC
 70
     4
  9
$DIMALTU
 70
     2
  9
$DIMALTTD
 70
     2
  9
$DIMTXSTY
  7
STANDARD
  9
$DIMAUNIT
 70
     0
  9
$LUNITS
 70
     2
  9
$LUPREC
 70
     4
  9
$SKETCHINC
 40
0.1
  9
$FILLETRAD
 40
0.0
  9
$AUNITS
 70
     0
  9
$AUPREC
 70
     0
  9
$MENU
  1
.
  9
$ELEVATION
 40
0.0
  9
$PELEVATION
 40
0.0
  9
$THICKNESS
 40
0.0
  9
$LIMCHECK
 70
     0
  9
$BLIPMODE
 70
     0
  9
$CHAMFERA
 40
0.0
  9
$CHAMFERB
 40
0.0
  9
$CHAMFERC
 40
0.0
  9
$CHAMFERD
 40
0.0
  9
$SKPOLY
 70
     0
  9
$TDCREATE
 40
2454687.562194548
  9
$TDUPDATE
 40
2454687.562503611
  9
$TDINDWG
 40
0.0003092477
  9
$TDUSRTIMER
 40
0.0003092477
  9
$USRTIMER
 70
     1
  9
$ANGBASE
 50
0.0
  9
$ANGDIR
 70
     0
  9
$PDMODE
 70
     0
  9
$PDSIZE
 40
0.0
  9
$PLINEWID
 40
0.0
  9
$COORDS
 70
     1
  9
$SPLFRAME
 70
     0
  9
$SPLINETYPE
 70
     6
  9
$SPLINESEGS
 70
     8
  9
$ATTDIA
 70
     0
  9
$ATTREQ
 70
     1
  9
$HANDLING
 70
 22529
  9
$HANDSEED
  5
1FA
  9
$SURFTAB1
 70
     6
  9
$SURFTAB2
 70
     6
  9
$SURFTYPE
 70
     6
  9
$SURFU
 70
     6
  9
$SURFV
 70
     6
  9
$UCSNAME
  2

  9
$UCSORG
 10
0.0
 20
0.0
 30
0.0
  9
$UCSXDIR
 10
1.0
 20
0.0
 30
0.0
  9
$UCSYDIR
 10
0.0
 20
1.0
 30
0.0
  9
$PUCSNAME
  2

  9
$PUCSORG
 10
0.0
 20
0.0
 30
0.0
  9
$PUCSXDIR
 10
1.0
 20
0.0
 30
0.0
  9
$PUCSYDIR
 10
0.0
 20
1.0
 30
0.0
  9
$USERI1
 70
     0
  9
$USERI2
 70
     0
  9
$USERI3
 70
     0
  9
$USERI4
 70
     0
  9
$USERI5
 70
     0
  9
$USERR1
 40
0.0
  9
$USERR2
 40
0.0
  9
$USERR3
 40
0.0
  9
$USERR4
 40
0.0
  9
$USERR5
 40
0.0
  9
$WORLDVIEW
 70
     1
  9
$SHADEDGE
 70
     3
  9
$SHADEDIF
 70
    70
  9
$TILEMODE
 70
     1
  9
$MAXACTVP
 70
    64
  9
$PINSBASE
 10
0.0
 20
0.0
 30
0.0
  9
$PLIMCHECK
 70
     0
  9
$PEXTMIN
 10
1.000000000000000E+20
 20
1.000000000000000E+20
 30
1.000000000000000E+20
  9
$PEXTMAX
 10
-1.000000000000000E+20
 20
-1.000000000000000E+20
 30
-1.000000000000000E+20
  9
$PLIMMIN
 10
0.0
 20
0.0
  9
$PLIMMAX
 10
12.0
 20
9.0
  9
$UNITMODE
 70
     0
  9
$VISRETAIN
 70
     1
  9
$PLINEGEN
 70
     0
  9
$PSLTSCALE
 70
     1
  9
$TREEDEPTH
 70
  3020
  9
$PICKSTYLE
 70
     1
  9
$CMLSTYLE
  2
STANDARD
  9
$CMLJUST
 70
     0
  9
$CMLSCALE
 40
1.0
  9
$PROXYGRAPHICS
 70
     1
  9
$MEASUREMENT
 70
     0
  0
ENDSEC
  0
SECTION
  2
CLASSES
  0
CLASS
  1
ACDBDICTIONARYWDFLT
  2
AcDbDictionaryWithDefault
  3
AutoCAD 2000
 90
        0
280
     0
281
     0
  0
CLASS
  1
ACDBPLACEHOLDER
  2
AcDbPlaceHolder
  3
AutoCAD 2000
 90
        0
280
     0
281
     0
  0
CLASS
  1
LAYOUT
  2
AcDbLayout
  3
AutoCAD 2000
 90
        0
280
     0
281
     0
  0
CLASS
  1
DICTIONARYVAR
  2
AcDbDictionaryVar
  3
AutoCAD 2000
 90
        0
280
     0
281
     0
  0
CLASS
  1
LONG_TRANSACTION
  2
AcDbLongTransaction
  3
AutoCAD 2000
 90
        0
280
     0
281
     0
  0
CLASS
  1
LWPOLYLINE
  2
AcDbPolyline
  3
AutoCAD 2000
 90
        0
280
     0
281
     1
  0
CLASS
  1
HATCH
  2
AcDbHatch
  3
AutoCAD 2000
 90
        0
280
     0
281
     1
  0
CLASS
  1
XRECORD
  2
AcDbXrecord
  3
AutoCAD 2000
 90
        0
280
     0
281
     0
  0
ENDSEC
  0
SECTION
  2
TABLES
  0
TABLE
  2
VPORT
  5
8
330
0
100
AcDbSymbolTable
 70
     2
  0
VPORT
  5
1D5
330
8
100
AcDbSymbolTableRecord
100
AcDbViewportTableRecord
  2
*ACTIVE
 70
     0
 10
0.0
 20
0.0
 11
1.0
 21
1.0
 12
98.99999999999998
 22
42.5
 13
0.0
 23
0.0
 14
1.0
 24
1.0
 15
0.0
 25
0.0
 16
0.0
 26
0.0
 36
1.0
 17
0.0
 27
0.0
 37
0.0
 40
97.25500115347857
 41
2.043533930857874
 42
50.0
 43
0.0
 44
0.0
 50
0.0
 51
0.0
 71
     0
 72
   100
 73
     1
 74
     3
 75
     0
 76
     0
 77
     0
 78
     0
  0
ENDTAB
  0
TABLE
  2
LTYPE
  5
5
330
0
100
AcDbSymbolTable
 70
     1
  0
LTYPE
  5
13
330
5
100
AcDbSymbolTableRecord
100
AcDbLinetypeTableRecord
  2
BYBLOCK
 70
     0
  3

 72
    65
 73
     0
 40
0.0
  0
LTYPE
  5
14
330
5
100
AcDbSymbolTableRecord
100
AcDbLinetypeTableRecord
  2
BYLAYER
 70
     0
  3

 72
    65
 73
     0
 40
0.0
  0
LTYPE
  5
15
330
5
100
AcDbSymbolTableRecord
100
AcDbLinetypeTableRecord
  2
CONTINUOUS
 70
     0
  3
Solid line
 72
    65
 73
     0
 40
0.0
  0
ENDTAB
  0
TABLE
  2
LAYER
  5
2
330
0
100
AcDbSymbolTable
 70
     1
  0
LAYER
  5
10
330
2
100
AcDbSymbolTableRecord
100
AcDbLayerTableRecord
  2
0
 70
     0
 62
     7
  6
CONTINUOUS
  0
ENDTAB
  0
TABLE
  2
STYLE
  5
3
330
0
100
AcDbSymbolTable
 70
     1
  0
STYLE
  5
11
330
3
100
AcDbSymbolTableRecord
100
AcDbTextStyleTableRecord
  2
STANDARD
 70
     0
 40
0.0
 41
1.0
 50
0.0
 71
     0
 42
0.2
  3
txt
  4

  0
ENDTAB
  0
TABLE
  2
VIEW
  5
6
330
0
100
AcDbSymbolTable
 70
     0
  0
ENDTAB
  0
TABLE
  2
UCS
  5
7
330
0
100
AcDbSymbolTable
 70
     0
  0
ENDTAB
  0
TABLE
  2
APPID
  5
9
330
0
100
AcDbSymbolTable
 70
     1
  0
APPID
  5
12
330
9
100
AcDbSymbolTableRecord
100
AcDbRegAppTableRecord
  2
ACAD
 70
     0
  0
ENDTAB
  0
TABLE
  2
DIMSTYLE
  5
A
330
0
100
AcDbSymbolTable
 70
     1
  0
DIMSTYLE
105
1CF
330
A
100
AcDbSymbolTableRecord
100
AcDbDimStyleTableRecord
  2
STANDARD
 70
     0
  3

  4

  5

  6

  7

 40
1.0
 41
0.18
 42
0.0625
 43
0.38
 44
0.18
 45
0.0
 46
0.0
 47
0.0
 48
0.0
140
0.18
141
0.09
142
0.0
143
25.4
144
1.0
145
0.0
146
1.0
147
0.09
 71
     0
 72
     0
 73
     1
 74
     1
 75
     0
 76
     0
 77
     0
 78
     0
170
     0
171
     2
172
     0
173
     0
174
     0
175
     0
176
     0
177
     0
178
     0
270
     2
271
     4
272
     4
273
     2
274
     2
340
11
275
     0
280
     0
281
     0
282
     0
283
     1
284
     0
285
     0
286
     0
287
     3
288
     0
  0
ENDTAB
  0
TABLE
  2
BLOCK_RECORD
  5
1
330
0
100
AcDbSymbolTable
 70
     0
  0
BLOCK_RECORD
  5
1E
102
{ACAD_XDICTIONARY
360
1F8
102
}
330
1
100
AcDbSymbolTableRecord
100
AcDbBlockTableRecord
  2
*MODEL_SPACE
  0
BLOCK_RECORD
  5
1A
102
{ACAD_XDICTIONARY
360
1F6
102
}
330
1
100
AcDbSymbolTableRecord
100
AcDbBlockTableRecord
  2
*PAPER_SPACE
  0
ENDTAB
  0
ENDSEC
  0
SECTION
  2
BLOCKS
  0
BLOCK
  5
1F
330
1E
100
AcDbEntity
  8
0
100
AcDbBlockBegin
  2
*MODEL_SPACE
 70
     0
 10
0.0
 20
0.0
 30
0.0
  3
*MODEL_SPACE
  1

  0
ENDBLK
  5
20
330
1E
100
AcDbEntity
  8
0
100
AcDbBlockEnd
  0
BLOCK
  5
1B
330
1A
100
AcDbEntity
 67
     1
  8
0
100
AcDbBlockBegin
  2
*PAPER_SPACE
 70
     0
 10
0.0
 20
0.0
 30
0.0
  3
*PAPER_SPACE
  1

  0
ENDBLK
  5
1C
330
1A
100
AcDbEntity
 67
     1
  8
0
100
AcDbBlockEnd
  0
ENDSEC
  0
SECTION
  2
ENTITIES
  0
LINE
  5
22
330
1E
100
AcDbEntity
  8
0
100
AcDbLine
 10
4.15199999999999
 20
-0.0000000000000009
 30
0.0
 11
7.22399999999999
 21
-0.0000000000000004
 31
0.0
  0
LINE
  5
23
330
1E
100
AcDbEntity
  8
0
100
AcDbLine
 10
2.99999999999999
 20
-0.0000000000000014
 30
0.0
 11
4.15199999999999
 21
-0.0000000000000019
 31
0.0
  0
LINE
  5
24
330
1E
100
AcDbEntity
  8
0
100
AcDbLine
 10
2.99999999999999
 20
-0.0000000000000014
 30
0.0
 11
2.99999999999999
 21
11.27999999999999
 31
0.0
  0
LINE
  5
25
330
1E
100
AcDbEntity
  8
0
100
AcDbLine
 10
2.99999999999999
 20
-0.0000000000000014
 30
0.0
 11
4.15199999999999
 21
-0.0000000000000009
 31
0.0
  0
LINE
  5
26
330
1E
100
AcDbEntity
  8
0
100
AcDbLine
 10
12.344
 20
0.0
 30
0.0
 11
19.128
 21
0.0000000000000003
 31
0.0
  0
LINE
  5
27
330
1E
100
AcDbEntity
  8
0
100
AcDbLine
 10
7.22399999999999
 20
-0.0000000000000004
 30
0.0
 11
12.344
 21
0.0
 31
0.0
  0
LINE
  5
28
330
1E
100
AcDbEntity
  8
0
100
AcDbLine
 10
7.22399999999999
 20
-0.0000000000000004
 30
0.0
 11
12.344
 21
0.0
 31
0.0
  0
LINE
  5
29
330
1E
100
AcDbEntity
  8
0
100
AcDbLine
 10
12.344
 20
0.0
 30
0.0
 11
19.128
 21
0.0000000000000003
 31
0.0
  0
LINE
  5
2A
330
1E
100
AcDbEntity
  8
0
100
AcDbLine
 10
4.15199999999999
 20
-0.0000000000000019
 30
0.0
 11
7.22399999999999
 21
-0.0000000000000023
 31
0.0
  0
LINE
  5
2B
330
1E
100
AcDbEntity
  8
0
100
AcDbLine
 10
7.22399999999999
 20
-0.0000000000000023
 30
0.0
 11
12.344
 21
-0.0000000000000028
 31
0.0
  0
LINE
  5
2C
330
1E
100
AcDbEntity
  8
0
100
AcDbLine
 10
19.128
 20
0.0000000000000003
 30
0.0
 11
26.808
 21
0.0000000000000005
 31
0.0
  0
LINE
  5
2D
330
1E
100
AcDbEntity
  8
0
100
AcDbLine
 10
26.808
 20
0.0000000000000005
 30
0.0
 11
35.0
 21
0.0000000000000006
 31
0.0
  0
LINE
  5
2E
330
1E
100
AcDbEntity
  8
0
100
AcDbLine
 10
12.344
 20
-0.0000000000000028
 30
0.0
 11
19.128
 21
-0.0000000000000031
 31
0.0
  0
LINE
  5
2F
330
1E
100
AcDbEntity
  8
0
100
AcDbLine
 10
19.128
 20
-0.0000000000000031
 30
0.0
 11
26.808
 21
-0.0000000000000033
 31
0.0
  0
LINE
  5
30
330
1E
100
AcDbEntity
  8
0
100
AcDbLine
 10
26.808
 20
-0.0000000000000033
 30
0.0
 11
35.0
 21
-0.0000000000000033
 31
0.0
  0
LINE
  5
31
330
1E
100
AcDbEntity
  8
0
100
AcDbLine
 10
4.15199999999999
 20
11.27999999999999
 30
0.0
 11
7.22399999999999
 21
11.27999999999999
 31
0.0
  0
LINE
  5
32
330
1E
100
AcDbEntity
  8
0
100
AcDbLine
 10
7.22399999999999
 20
11.27999999999999
 30
0.0
 11
12.344
 21
11.27999999999999
 31
0.0
  0
LINE
  5
33
330
1E
100
AcDbEntity
  8
0
100
AcDbLine
 10
12.344
 20
11.27999999999999
 30
0.0
 11
19.128
 21
11.27999999999999
 31
0.0
  0
LINE
  5
34
330
1E
100
AcDbEntity
  8
0
100
AcDbLine
 10
19.128
 20
11.27999999999999
 30
0.0
 11
26.808
 21
11.27999999999999
 31
0.0
  0
LINE
  5
35
330
1E
100
AcDbEntity
  8
0
100
AcDbLine
 10
26.808
 20
11.27999999999999
 30
0.0
 11
35.0
 21
11.27999999999999
 31
0.0
  0
LINE
  5
36
330
1E
100
AcDbEntity
  8
0
100
AcDbLine
 10
2.99999999999999
 20
11.27999999999999
 30
0.0
 11
3.76799999999999
 21
12.0
 31
0.0
  0
LINE
  5
37
330
1E
100
AcDbEntity
  8
0
100
AcDbLine
 10
2.99999999999999
 20
11.27999999999999
 30
0.0
 11
2.99999999999999
 21
-0.0000000000000024
 31
0.0
  0
LINE
  5
38
330
1E
100
AcDbEntity
  8
0
100
AcDbLine
 10
2.99999999999999
 20
11.27999999999999
 30
0.0
 11
4.15199999999999
 21
11.27999999999999
 31
0.0
  0
LINE
  5
39
330
1E
100
AcDbEntity
  8
0
100
AcDbLine
 10
35.0
 20
-0.0000000000000033
 30
0.0
 11
43.192
 21
-0.0000000000000033
 31
0.0
  0
LINE
  5
3A
330
1E
100
AcDbEntity
  8
0
100
AcDbLine
 10
3.76799999999999
 20
12.0
 30
0.0
 11
4.91999999999999
 21
12.0
 31
0.0
  0
LINE
  5
3B
330
1E
100
AcDbEntity
  8
0
100
AcDbLine
 10
4.91999999999999
 20
12.0
 30
0.0
 11
7.99199999999999
 21
12.0
 31
0.0
  0
LINE
  5
3C
330
1E
100
AcDbEntity
  8
0
100
AcDbLine
 10
8.999999999999991
 20
12.0
 30
0.0
 11
8.999999999999991
 21
19.28
 31
0.0
  0
LINE
  5
3D
330
1E
100
AcDbEntity
  8
0
100
AcDbLine
 10
7.99199999999999
 20
12.0
 30
0.0
 11
12.984
 21
12.0
 31
0.0
  0
LINE
  5
3E
330
1E
100
AcDbEntity
  8
0
100
AcDbLine
 10
12.984
 20
12.0
 30
0.0
 11
19.512
 21
12.0
 31
0.0
  0
LINE
  5
3F
330
1E
100
AcDbEntity
  8
0
100
AcDbLine
 10
19.512
 20
12.0
 30
0.0
 11
26.93599999999999
 21
12.0
 31
0.0
  0
LINE
  5
40
330
1E
100
AcDbEntity
  8
0
100
AcDbLine
 10
8.999999999999991
 20
19.28
 30
0.0
 11
9.623999999999989
 21
20.0
 31
0.0
  0
LINE
  5
41
330
1E
100
AcDbEntity
  8
0
100
AcDbLine
 10
8.999999999999991
 20
19.28
 30
0.0
 11
8.999999999999991
 21
12.0
 31
0.0
  0
LINE
  5
42
330
1E
100
AcDbEntity
  8
0
100
AcDbLine
 10
8.999999999999991
 20
19.28
 30
0.0
 11
9.935999999999991
 21
19.28
 31
0.0
  0
LINE
  5
43
330
1E
100
AcDbEntity
  8
0
100
AcDbLine
 10
9.935999999999991
 20
19.28
 30
0.0
 11
12.432
 21
19.28
 31
0.0
  0
LINE
  5
44
330
1E
100
AcDbEntity
  8
0
100
AcDbLine
 10
16.592
 20
19.28
 30
0.0
 11
22.10399999999999
 21
19.28
 31
0.0
  0
LINE
  5
45
330
1E
100
AcDbEntity
  8
0
100
AcDbLine
 10
9.623999999999989
 20
20.0
 30
0.0
 11
10.56
 21
20.0
 31
0.0
  0
LINE
  5
46
330
1E
100
AcDbEntity
  8
0
100
AcDbLine
 10
12.432
 20
19.28
 30
0.0
 11
16.592
 21
19.28
 31
0.0
  0
LINE
  5
47
330
1E
100
AcDbEntity
  8
0
100
AcDbLine
 10
28.344
 20
19.28
 30
0.0
 11
35.0
 21
19.28
 31
0.0
  0
LINE
  5
48
330
1E
100
AcDbEntity
  8
0
100
AcDbLine
 10
35.0
 20
19.28
 30
0.0
 11
41.656
 21
19.28
 31
0.0
  0
LINE
  5
49
330
1E
100
AcDbEntity
  8
0
100
AcDbLine
 10
22.10399999999999
 20
19.28
 30
0.0
 11
28.344
 21
19.28
 31
0.0
  0
LINE
  5
4A
330
1E
100
AcDbEntity
  8
0
100
AcDbLine
 10
10.56
 20
20.0
 30
0.0
 11
13.056
 21
20.0
 31
0.0
  0
LINE
  5
4B
330
1E
100
AcDbEntity
  8
0
100
AcDbLine
 10
-0.000000000000011
 20
72.84310000000001
 30
0.0
 11
30.6
 21
72.84310000000001
 31
0.0
  0
LINE
  5
4C
330
1E
100
AcDbEntity
  8
0
100
AcDbLine
 10
-0.000000000000011
 20
84.60779999999999
 30
0.0
 11
30.6
 21
84.60779999999999
 31
0.0
  0
LINE
  5
4D
330
1E
100
AcDbEntity
  8
0
100
AcDbLine
 10
0.499999999999992
 20
85.0
 30
0.0
 11
31.2
 21
85.0
 31
0.0
  0
LINE
  5
4E
330
1E
100
AcDbEntity
  8
0
100
AcDbLine
 10
-0.0000000000000084
 20
84.60779999999999
 30
0.0
 11
-0.0000000000000084
 21
72.84310000000001
 31
0.0
  0
LINE
  5
4F
330
1E
100
AcDbEntity
  8
0
100
AcDbLine
 10
-0.0000000000000084
 20
84.60779999999999
 30
0.0
 11
0.499999999999992
 21
85.0
 31
0.0
  0
LINE
  5
50
330
1E
100
AcDbEntity
  8
0
100
AcDbLine
 10
-0.0000000000000084
 20
84.60779999999999
 30
0.0
 11
30.6
 21
84.60779999999999
 31
0.0
  0
LINE
  5
51
330
1E
100
AcDbEntity
  8
0
100
AcDbLine
 10
-0.0000000000000084
 20
72.84310000000001
 30
0.0
 11
0.499999999999992
 21
72.451
 31
0.0
  0
LINE
  5
52
330
1E
100
AcDbEntity
  8
0
100
AcDbLine
 10
-0.0000000000000084
 20
72.84310000000001
 30
0.0
 11
-0.0000000000000084
 21
84.60779999999999
 31
0.0
  0
LINE
  5
53
330
1E
100
AcDbEntity
  8
0
100
AcDbLine
 10
-0.0000000000000084
 20
72.84310000000001
 30
0.0
 11
30.6
 21
72.84310000000001
 31
0.0
  0
LINE
  5
54
330
1E
100
AcDbEntity
  8
0
100
AcDbLine
 10
0.499999999999992
 20
85.0
 30
0.0
 11
31.2
 21
85.0
 31
0.0
  0
LINE
  5
55
330
1E
100
AcDbEntity
  8
0
100
AcDbLine
 10
0.499999999999992
 20
72.451
 30
0.0
 11
31.2
 21
72.451
 31
0.0
  0
LINE
  5
56
330
1E
100
AcDbEntity
  8
0
100
AcDbLine
 10
0.499999999999992
 20
72.451
 30
0.0
 11
30.0
 21
72.451
 31
0.0
  0
LINE
  5
57
330
1E
100
AcDbEntity
  8
0
100
AcDbLine
 10
0.499999999999992
 20
72.451
 30
0.0
 11
31.2
 21
72.451
 31
0.0
  0
LINE
  5
58
330
1E
100
AcDbEntity
  8
0
100
AcDbLine
 10
0.499999999999992
 20
72.451
 30
0.0
 11
30.0
 21
72.451
 31
0.0
  0
LINE
  5
59
330
1E
100
AcDbEntity
  8
0
100
AcDbLine
 10
13.056
 20
20.0
 30
0.0
 11
17.112
 21
20.0
 31
0.0
  0
LINE
  5
5A
330
1E
100
AcDbEntity
  8
0
100
AcDbLine
 10
17.112
 20
20.0
 30
0.0
 11
22.416
 21
20.0
 31
0.0
  0
LINE
  5
5B
330
1E
100
AcDbEntity
  8
0
100
AcDbLine
 10
17.432
 20
63.0
 30
0.0
 11
18.07999999999999
 21
63.0
 31
0.0
  0
LINE
  5
5C
330
1E
100
AcDbEntity
  8
0
100
AcDbLine
 10
18.07999999999999
 20
63.0
 30
0.0
 11
19.808
 21
63.0
 31
0.0
  0
LINE
  5
5D
330
1E
100
AcDbEntity
  8
0
100
AcDbLine
 10
22.416
 20
20.0
 30
0.0
 11
28.448
 21
20.0
 31
0.0
  0
LINE
  5
5E
330
1E
100
AcDbEntity
  8
0
100
AcDbLine
 10
19.808
 20
63.0
 30
0.0
 11
22.616
 21
63.0
 31
0.0
  0
LINE
  5
5F
330
1E
100
AcDbEntity
  8
0
100
AcDbLine
 10
22.616
 20
63.0
 30
0.0
 11
26.288
 21
63.0
 31
0.0
  0
LINE
  5
60
330
1E
100
AcDbEntity
  8
0
100
AcDbLine
 10
28.448
 20
20.0
 30
0.0
 11
35.0
 21
20.0
 31
0.0
  0
LINE
  5
61
330
1E
100
AcDbEntity
  8
0
100
AcDbLine
 10
30.0
 20
63.0
 30
0.0
 11
30.0
 21
72.451
 31
0.0
  0
LINE
  5
62
330
1E
100
AcDbEntity
  8
0
100
AcDbLine
 10
35.0
 20
20.0
 30
0.0
 11
41.55199999999999
 21
20.0
 31
0.0
  0
LINE
  5
63
330
1E
100
AcDbEntity
  8
0
100
AcDbLine
 10
26.288
 20
63.0
 30
0.0
 11
30.464
 21
63.0
 31
0.0
  0
LINE
  5
64
330
1E
100
AcDbEntity
  8
0
100
AcDbLine
 10
30.7
 20
72.451
 30
0.0
 11
31.5
 21
72.451
 31
0.0
  0
LINE
  5
65
330
1E
100
AcDbEntity
  8
0
100
AcDbLine
 10
30.2
 20
72.451
 30
0.0
 11
30.7
 21
72.451
 31
0.0
  0
LINE
  5
66
330
1E
100
AcDbEntity
  8
0
100
AcDbLine
 10
30.0
 20
72.451
 30
0.0
 11
30.0
 21
63.0
 31
0.0
  0
LINE
  5
67
330
1E
100
AcDbEntity
  8
0
100
AcDbLine
 10
30.0
 20
72.451
 30
0.0
 11
30.2
 21
72.451
 31
0.0
  0
LINE
  5
68
330
1E
100
AcDbEntity
  8
0
100
AcDbLine
 10
30.8
 20
72.84310000000001
 30
0.0
 11
31.0
 21
72.84310000000001
 31
0.0
  0
LINE
  5
69
330
1E
100
AcDbEntity
  8
0
100
AcDbLine
 10
31.0
 20
72.84310000000001
 30
0.0
 11
31.5
 21
72.451
 31
0.0
  0
LINE
  5
6A
330
1E
100
AcDbEntity
  8
0
100
AcDbLine
 10
31.0
 20
72.84310000000001
 30
0.0
 11
35.0
 21
72.84310000000001
 31
0.0
  0
LINE
  5
6B
330
1E
100
AcDbEntity
  8
0
100
AcDbLine
 10
31.0
 20
72.84310000000001
 30
0.0
 11
31.0
 21
84.60779999999999
 31
0.0
  0
LINE
  5
6C
330
1E
100
AcDbEntity
  8
0
100
AcDbLine
 10
30.8
 20
84.60779999999999
 30
0.0
 11
31.0
 21
84.60779999999999
 31
0.0
  0
LINE
  5
6D
330
1E
100
AcDbEntity
  8
0
100
AcDbLine
 10
31.0
 20
84.60779999999999
 30
0.0
 11
31.0
 21
72.84310000000001
 31
0.0
  0
LINE
  5
6E
330
1E
100
AcDbEntity
  8
0
100
AcDbLine
 10
31.0
 20
84.60779999999999
 30
0.0
 11
35.0
 21
84.60779999999999
 31
0.0
  0
LINE
  5
6F
330
1E
100
AcDbEntity
  8
0
100
AcDbLine
 10
31.0
 20
84.60779999999999
 30
0.0
 11
31.5
 21
85.0
 31
0.0
  0
LINE
  5
70
330
1E
100
AcDbEntity
  8
0
100
AcDbLine
 10
31.2
 20
85.0
 30
0.0
 11
31.3
 21
85.0
 31
0.0
  0
LINE
  5
71
330
1E
100
AcDbEntity
  8
0
100
AcDbLine
 10
30.6
 20
84.60779999999999
 30
0.0
 11
30.6
 21
72.84310000000001
 31
0.0
  0
LINE
  5
72
330
1E
100
AcDbEntity
  8
0
100
AcDbLine
 10
30.6
 20
84.60779999999999
 30
0.0
 11
30.8
 21
84.60779999999999
 31
0.0
  0
LINE
  5
73
330
1E
100
AcDbEntity
  8
0
100
AcDbLine
 10
30.6
 20
72.84310000000001
 30
0.0
 11
30.8
 21
72.84310000000001
 31
0.0
  0
LINE
  5
74
330
1E
100
AcDbEntity
  8
0
100
AcDbLine
 10
30.6
 20
72.84310000000001
 30
0.0
 11
30.6
 21
84.60779999999999
 31
0.0
  0
LINE
  5
75
330
1E
100
AcDbEntity
  8
0
100
AcDbLine
 10
33.7
 20
72.451
 30
0.0
 11
35.0
 21
72.451
 31
0.0
  0
LINE
  5
76
330
1E
100
AcDbEntity
  8
0
100
AcDbLine
 10
32.5
 20
72.451
 30
0.0
 11
33.7
 21
72.451
 31
0.0
  0
LINE
  5
77
330
1E
100
AcDbEntity
  8
0
100
AcDbLine
 10
35.0
 20
72.451
 30
0.0
 11
38.5
 21
72.451
 31
0.0
  0
LINE
  5
78
330
1E
100
AcDbEntity
  8
0
100
AcDbLine
 10
35.0
 20
72.451
 30
0.0
 11
36.29999999999999
 21
72.451
 31
0.0
  0
LINE
  5
79
330
1E
100
AcDbEntity
  8
0
100
AcDbLine
 10
31.3
 20
72.451
 30
0.0
 11
31.5
 21
72.451
 31
0.0
  0
LINE
  5
7A
330
1E
100
AcDbEntity
  8
0
100
AcDbLine
 10
31.3
 20
85.0
 30
0.0
 11
31.5
 21
85.0
 31
0.0
  0
LINE
  5
7B
330
1E
100
AcDbEntity
  8
0
100
AcDbLine
 10
35.0
 20
85.0
 30
0.0
 11
38.5
 21
85.0
 31
0.0
  0
LINE
  5
7C
330
1E
100
AcDbEntity
  8
0
100
AcDbLine
 10
35.0
 20
84.60779999999999
 30
0.0
 11
39.0
 21
84.60779999999999
 31
0.0
  0
LINE
  5
7D
330
1E
100
AcDbEntity
  8
0
100
AcDbLine
 10
35.0
 20
72.84310000000001
 30
0.0
 11
39.0
 21
72.84310000000001
 31
0.0
  0
LINE
  5
7E
330
1E
100
AcDbEntity
  8
0
100
AcDbLine
 10
31.5
 20
85.0
 30
0.0
 11
35.0
 21
85.0
 31
0.0
  0
LINE
  5
7F
330
1E
100
AcDbEntity
  8
0
100
AcDbLine
 10
31.5
 20
72.451
 30
0.0
 11
35.0
 21
72.451
 31
0.0
  0
LINE
  5
80
330
1E
100
AcDbEntity
  8
0
100
AcDbLine
 10
31.5
 20
72.451
 30
0.0
 11
32.5
 21
72.451
 31
0.0
  0
LINE
  5
81
330
1E
100
AcDbEntity
  8
0
100
AcDbLine
 10
31.2
 20
72.451
 30
0.0
 11
31.3
 21
72.451
 31
0.0
  0
LINE
  5
82
330
1E
100
AcDbEntity
  8
0
100
AcDbLine
 10
30.464
 20
63.0
 30
0.0
 11
35.0
 21
63.0
 31
0.0
  0
LINE
  5
83
330
1E
100
AcDbEntity
  8
0
100
AcDbLine
 10
17.0
 20
62.28
 30
0.0
 11
17.432
 21
63.0
 31
0.0
  0
LINE
  5
84
330
1E
100
AcDbEntity
  8
0
100
AcDbLine
 10
17.0
 20
62.28
 30
0.0
 11
17.0
 21
20.0
 31
0.0
  0
LINE
  5
85
330
1E
100
AcDbEntity
  8
0
100
AcDbLine
 10
17.0
 20
20.0
 30
0.0
 11
17.0
 21
62.28
 31
0.0
  0
LINE
  5
86
330
1E
100
AcDbEntity
  8
0
100
AcDbLine
 10
35.0
 20
63.0
 30
0.0
 11
39.536
 21
63.0
 31
0.0
  0
LINE
  5
87
330
1E
100
AcDbEntity
  8
0
100
AcDbLine
 10
26.93599999999999
 20
12.0
 30
0.0
 11
35.0
 21
12.0
 31
0.0
  0
LINE
  5
88
330
1E
100
AcDbEntity
  8
0
100
AcDbLine
 10
35.0
 20
12.0
 30
0.0
 11
43.06399999999999
 21
12.0
 31
0.0
  0
LINE
  5
89
330
1E
100
AcDbEntity
  8
0
100
AcDbLine
 10
35.0
 20
11.27999999999999
 30
0.0
 11
43.192
 21
11.27999999999999
 31
0.0
  0
LINE
  5
8A
330
1E
100
AcDbEntity
  8
0
100
AcDbLine
 10
50.872
 20
-0.0000000000000031
 30
0.0
 11
57.656
 21
-0.0000000000000028
 31
0.0
  0
LINE
  5
8B
330
1E
100
AcDbEntity
  8
0
100
AcDbLine
 10
43.192
 20
-0.0000000000000033
 30
0.0
 11
50.872
 21
-0.0000000000000031
 31
0.0
  0
LINE
  5
8C
330
1E
100
AcDbEntity
  8
0
100
AcDbLine
 10
62.776
 20
-0.0000000000000023
 30
0.0
 11
65.848
 21
-0.0000000000000019
 31
0.0
  0
LINE
  5
8D
330
1E
100
AcDbEntity
  8
0
100
AcDbLine
 10
57.656
 20
-0.0000000000000028
 30
0.0
 11
62.776
 21
-0.0000000000000023
 31
0.0
  0
LINE
  5
8E
330
1E
100
AcDbEntity
  8
0
100
AcDbLine
 10
57.656
 20
0.0
 30
0.0
 11
62.776
 21
-0.0000000000000004
 31
0.0
  0
LINE
  5
8F
330
1E
100
AcDbEntity
  8
0
100
AcDbLine
 10
65.848
 20
-0.0000000000000019
 30
0.0
 11
67.0
 21
-0.0000000000000014
 31
0.0
  0
LINE
  5
90
330
1E
100
AcDbEntity
  8
0
100
AcDbLine
 10
132.152
 20
-0.0000000000000009
 30
0.0
 11
135.2239999999999
 21
-0.0000000000000004
 31
0.0
  0
LINE
  5
91
330
1E
100
AcDbEntity
  8
0
100
AcDbLine
 10
131.0
 20
-0.0000000000000014
 30
0.0
 11
132.152
 21
-0.0000000000000019
 31
0.0
  0
LINE
  5
92
330
1E
100
AcDbEntity
  8
0
100
AcDbLine
 10
131.0
 20
-0.0000000000000014
 30
0.0
 11
131.0
 21
11.27999999999999
 31
0.0
  0
LINE
  5
93
330
1E
100
AcDbEntity
  8
0
100
AcDbLine
 10
131.0
 20
-0.0000000000000014
 30
0.0
 11
132.152
 21
-0.0000000000000009
 31
0.0
  0
LINE
  5
94
330
1E
100
AcDbEntity
  8
0
100
AcDbLine
 10
132.152
 20
-0.0000000000000019
 30
0.0
 11
135.2239999999999
 21
-0.0000000000000023
 31
0.0
  0
LINE
  5
95
330
1E
100
AcDbEntity
  8
0
100
AcDbLine
 10
135.2239999999999
 20
-0.0000000000000023
 30
0.0
 11
140.3439999999999
 21
-0.0000000000000028
 31
0.0
  0
LINE
  5
96
330
1E
100
AcDbEntity
  8
0
100
AcDbLine
 10
140.3439999999999
 20
-0.0000000000000028
 30
0.0
 11
147.1279999999999
 21
-0.0000000000000031
 31
0.0
  0
LINE
  5
97
330
1E
100
AcDbEntity
  8
0
100
AcDbLine
 10
147.1279999999999
 20
-0.0000000000000031
 30
0.0
 11
154.8079999999999
 21
-0.0000000000000033
 31
0.0
  0
LINE
  5
98
330
1E
100
AcDbEntity
  8
0
100
AcDbLine
 10
154.8079999999999
 20
-0.0000000000000033
 30
0.0
 11
163.0
 21
-0.0000000000000033
 31
0.0
  0
LINE
  5
99
330
1E
100
AcDbEntity
  8
0
100
AcDbLine
 10
193.848
 20
-0.0000000000000019
 30
0.0
 11
195.0
 21
-0.0000000000000014
 31
0.0
  0
LINE
  5
9A
330
1E
100
AcDbEntity
  8
0
100
AcDbLine
 10
190.7759999999999
 20
-0.0000000000000023
 30
0.0
 11
193.848
 21
-0.0000000000000019
 31
0.0
  0
LINE
  5
9B
330
1E
100
AcDbEntity
  8
0
100
AcDbLine
 10
185.6559999999999
 20
-0.0000000000000028
 30
0.0
 11
190.7759999999999
 21
-0.0000000000000023
 31
0.0
  0
LINE
  5
9C
330
1E
100
AcDbEntity
  8
0
100
AcDbLine
 10
178.872
 20
-0.0000000000000031
 30
0.0
 11
185.6559999999999
 21
-0.0000000000000028
 31
0.0
  0
LINE
  5
9D
330
1E
100
AcDbEntity
  8
0
100
AcDbLine
 10
171.192
 20
-0.0000000000000033
 30
0.0
 11
178.872
 21
-0.0000000000000031
 31
0.0
  0
LINE
  5
9E
330
1E
100
AcDbEntity
  8
0
100
AcDbLine
 10
163.0
 20
-0.0000000000000033
 30
0.0
 11
171.192
 21
-0.0000000000000033
 31
0.0
  0
LINE
  5
9F
330
1E
100
AcDbEntity
  8
0
100
AcDbLine
 10
195.0
 20
-0.0000000000000014
 30
0.0
 11
195.0
 21
11.27999999999999
 31
0.0
  0
LINE
  5
A0
330
1E
100
AcDbEntity
  8
0
100
AcDbLine
 10
193.848
 20
-0.0000000000000009
 30
0.0
 11
195.0
 21
-0.0000000000000014
 31
0.0
  0
LINE
  5
A1
330
1E
100
AcDbEntity
  8
0
100
AcDbLine
 10
67.0
 20
-0.0000000000000014
 30
0.0
 11
67.0
 21
11.27999999999999
 31
0.0
  0
LINE
  5
A2
330
1E
100
AcDbEntity
  8
0
100
AcDbLine
 10
140.3439999999999
 20
0.0
 30
0.0
 11
147.1279999999999
 21
0.0000000000000003
 31
0.0
  0
LINE
  5
A3
330
1E
100
AcDbEntity
  8
0
100
AcDbLine
 10
135.2239999999999
 20
-0.0000000000000004
 30
0.0
 11
140.3439999999999
 21
0.0
 31
0.0
  0
LINE
  5
A4
330
1E
100
AcDbEntity
  8
0
100
AcDbLine
 10
135.2239999999999
 20
-0.0000000000000004
 30
0.0
 11
140.3439999999999
 21
0.0
 31
0.0
  0
LINE
  5
A5
330
1E
100
AcDbEntity
  8
0
100
AcDbLine
 10
140.3439999999999
 20
0.0
 30
0.0
 11
147.1279999999999
 21
0.0000000000000003
 31
0.0
  0
LINE
  5
A6
330
1E
100
AcDbEntity
  8
0
100
AcDbLine
 10
185.6559999999999
 20
0.0
 30
0.0
 11
190.7759999999999
 21
-0.0000000000000004
 31
0.0
  0
LINE
  5
A7
330
1E
100
AcDbEntity
  8
0
100
AcDbLine
 10
190.7759999999999
 20
-0.0000000000000004
 30
0.0
 11
193.848
 21
-0.0000000000000009
 31
0.0
  0
LINE
  5
A8
330
1E
100
AcDbEntity
  8
0
100
AcDbLine
 10
185.6559999999999
 20
0.0
 30
0.0
 11
190.7759999999999
 21
-0.0000000000000004
 31
0.0
  0
LINE
  5
A9
330
1E
100
AcDbEntity
  8
0
100
AcDbLine
 10
65.848
 20
-0.0000000000000009
 30
0.0
 11
67.0
 21
-0.0000000000000014
 31
0.0
  0
LINE
  5
AA
330
1E
100
AcDbEntity
  8
0
100
AcDbLine
 10
62.776
 20
-0.0000000000000004
 30
0.0
 11
65.848
 21
-0.0000000000000009
 31
0.0
  0
LINE
  5
AB
330
1E
100
AcDbEntity
  8
0
100
AcDbLine
 10
147.1279999999999
 20
0.0000000000000003
 30
0.0
 11
154.8079999999999
 21
0.0000000000000005
 31
0.0
  0
LINE
  5
AC
330
1E
100
AcDbEntity
  8
0
100
AcDbLine
 10
154.8079999999999
 20
0.0000000000000005
 30
0.0
 11
163.0
 21
0.0000000000000006
 31
0.0
  0
LINE
  5
AD
330
1E
100
AcDbEntity
  8
0
100
AcDbLine
 10
178.872
 20
0.0000000000000003
 30
0.0
 11
185.6559999999999
 21
0.0
 31
0.0
  0
LINE
  5
AE
330
1E
100
AcDbEntity
  8
0
100
AcDbLine
 10
178.872
 20
0.0000000000000003
 30
0.0
 11
185.6559999999999
 21
0.0
 31
0.0
  0
LINE
  5
AF
330
1E
100
AcDbEntity
  8
0
100
AcDbLine
 10
171.192
 20
0.0000000000000005
 30
0.0
 11
178.872
 21
0.0000000000000003
 31
0.0
  0
LINE
  5
B0
330
1E
100
AcDbEntity
  8
0
100
AcDbLine
 10
57.656
 20
0.0
 30
0.0
 11
62.776
 21
-0.0000000000000004
 31
0.0
  0
LINE
  5
B1
330
1E
100
AcDbEntity
  8
0
100
AcDbLine
 10
50.872
 20
0.0000000000000003
 30
0.0
 11
57.656
 21
0.0
 31
0.0
  0
LINE
  5
B2
330
1E
100
AcDbEntity
  8
0
100
AcDbLine
 10
50.872
 20
0.0000000000000003
 30
0.0
 11
57.656
 21
0.0
 31
0.0
  0
LINE
  5
B3
330
1E
100
AcDbEntity
  8
0
100
AcDbLine
 10
36.29999999999999
 20
72.451
 30
0.0
 11
37.5
 21
72.451
 31
0.0
  0
LINE
  5
B4
330
1E
100
AcDbEntity
  8
0
100
AcDbLine
 10
37.5
 20
72.451
 30
0.0
 11
38.5
 21
72.451
 31
0.0
  0
LINE
  5
B5
330
1E
100
AcDbEntity
  8
0
100
AcDbLine
 10
38.7
 20
72.451
 30
0.0
 11
38.79999999999999
 21
72.451
 31
0.0
  0
LINE
  5
B6
330
1E
100
AcDbEntity
  8
0
100
AcDbLine
 10
39.29999999999999
 20
72.451
 30
0.0
 11
39.8
 21
72.451
 31
0.0
  0
LINE
  5
B7
330
1E
100
AcDbEntity
  8
0
100
AcDbLine
 10
38.79999999999999
 20
72.451
 30
0.0
 11
69.5
 21
72.451
 31
0.0
  0
LINE
  5
B8
330
1E
100
AcDbEntity
  8
0
100
AcDbLine
 10
38.7
 20
85.0
 30
0.0
 11
38.79999999999999
 21
85.0
 31
0.0
  0
LINE
  5
B9
330
1E
100
AcDbEntity
  8
0
100
AcDbLine
 10
38.79999999999999
 20
85.0
 30
0.0
 11
69.5
 21
85.0
 31
0.0
  0
LINE
  5
BA
330
1E
100
AcDbEntity
  8
0
100
AcDbLine
 10
38.5
 20
85.0
 30
0.0
 11
39.0
 21
84.60779999999999
 31
0.0
  0
LINE
  5
BB
330
1E
100
AcDbEntity
  8
0
100
AcDbLine
 10
38.5
 20
85.0
 30
0.0
 11
38.7
 21
85.0
 31
0.0
  0
LINE
  5
BC
330
1E
100
AcDbEntity
  8
0
100
AcDbLine
 10
39.0
 20
84.60779999999999
 30
0.0
 11
39.0
 21
72.84310000000001
 31
0.0
  0
LINE
  5
BD
330
1E
100
AcDbEntity
  8
0
100
AcDbLine
 10
39.0
 20
84.60779999999999
 30
0.0
 11
39.2
 21
84.60779999999999
 31
0.0
  0
LINE
  5
BE
330
1E
100
AcDbEntity
  8
0
100
AcDbLine
 10
39.2
 20
72.84310000000001
 30
0.0
 11
39.39999999999999
 21
72.84310000000001
 31
0.0
  0
LINE
  5
BF
330
1E
100
AcDbEntity
  8
0
100
AcDbLine
 10
39.2
 20
84.60779999999999
 30
0.0
 11
39.39999999999999
 21
84.60779999999999
 31
0.0
  0
LINE
  5
C0
330
1E
100
AcDbEntity
  8
0
100
AcDbLine
 10
39.39999999999999
 20
84.60779999999999
 30
0.0
 11
39.39999999999999
 21
72.84310000000001
 31
0.0
  0
LINE
  5
C1
330
1E
100
AcDbEntity
  8
0
100
AcDbLine
 10
39.39999999999999
 20
84.60779999999999
 30
0.0
 11
70.0
 21
84.60779999999999
 31
0.0
  0
LINE
  5
C2
330
1E
100
AcDbEntity
  8
0
100
AcDbLine
 10
39.39999999999999
 20
72.84310000000001
 30
0.0
 11
70.0
 21
72.84310000000001
 31
0.0
  0
LINE
  5
C3
330
1E
100
AcDbEntity
  8
0
100
AcDbLine
 10
39.39999999999999
 20
72.84310000000001
 30
0.0
 11
39.39999999999999
 21
84.60779999999999
 31
0.0
  0
LINE
  5
C4
330
1E
100
AcDbEntity
  8
0
100
AcDbLine
 10
39.0
 20
72.84310000000001
 30
0.0
 11
39.2
 21
72.84310000000001
 31
0.0
  0
LINE
  5
C5
330
1E
100
AcDbEntity
  8
0
100
AcDbLine
 10
39.0
 20
72.84310000000001
 30
0.0
 11
39.0
 21
84.60779999999999
 31
0.0
  0
LINE
  5
C6
330
1E
100
AcDbEntity
  8
0
100
AcDbLine
 10
38.5
 20
72.451
 30
0.0
 11
39.0
 21
72.84310000000001
 31
0.0
  0
LINE
  5
C7
330
1E
100
AcDbEntity
  8
0
100
AcDbLine
 10
38.5
 20
72.451
 30
0.0
 11
39.29999999999999
 21
72.451
 31
0.0
  0
LINE
  5
C8
330
1E
100
AcDbEntity
  8
0
100
AcDbLine
 10
39.8
 20
72.451
 30
0.0
 11
40.0
 21
72.451
 31
0.0
  0
LINE
  5
C9
330
1E
100
AcDbEntity
  8
0
100
AcDbLine
 10
40.0
 20
63.0
 30
0.0
 11
40.0
 21
72.451
 31
0.0
  0
LINE
  5
CA
330
1E
100
AcDbEntity
  8
0
100
AcDbLine
 10
40.0
 20
72.451
 30
0.0
 11
69.5
 21
72.451
 31
0.0
  0
LINE
  5
CB
330
1E
100
AcDbEntity
  8
0
100
AcDbLine
 10
40.0
 20
72.451
 30
0.0
 11
40.0
 21
63.0
 31
0.0
  0
LINE
  5
CC
330
1E
100
AcDbEntity
  8
0
100
AcDbLine
 10
41.55199999999999
 20
20.0
 30
0.0
 11
47.58399999999999
 21
20.0
 31
0.0
  0
LINE
  5
CD
330
1E
100
AcDbEntity
  8
0
100
AcDbLine
 10
41.656
 20
19.28
 30
0.0
 11
47.896
 21
19.28
 31
0.0
  0
LINE
  5
CE
330
1E
100
AcDbEntity
  8
0
100
AcDbLine
 10
39.536
 20
63.0
 30
0.0
 11
43.71199999999999
 21
63.0
 31
0.0
  0
LINE
  5
CF
330
1E
100
AcDbEntity
  8
0
100
AcDbLine
 10
43.06399999999999
 20
12.0
 30
0.0
 11
50.48799999999999
 21
12.0
 31
0.0
  0
LINE
  5
D0
330
1E
100
AcDbEntity
  8
0
100
AcDbLine
 10
132.152
 20
11.27999999999999
 30
0.0
 11
135.2239999999999
 21
11.27999999999999
 31
0.0
  0
LINE
  5
D1
330
1E
100
AcDbEntity
  8
0
100
AcDbLine
 10
131.0
 20
11.27999999999999
 30
0.0
 11
131.7679999999999
 21
12.0
 31
0.0
  0
LINE
  5
D2
330
1E
100
AcDbEntity
  8
0
100
AcDbLine
 10
131.0
 20
11.27999999999999
 30
0.0
 11
131.0
 21
-0.0000000000000024
 31
0.0
  0
LINE
  5
D3
330
1E
100
AcDbEntity
  8
0
100
AcDbLine
 10
131.0
 20
11.27999999999999
 30
0.0
 11
132.152
 21
11.27999999999999
 31
0.0
  0
LINE
  5
D4
330
1E
100
AcDbEntity
  8
0
100
AcDbLine
 10
195.0
 20
11.27999999999999
 30
0.0
 11
195.0
 21
-0.0000000000000024
 31
0.0
  0
LINE
  5
D5
330
1E
100
AcDbEntity
  8
0
100
AcDbLine
 10
193.848
 20
11.27999999999999
 30
0.0
 11
195.0
 21
11.27999999999999
 31
0.0
  0
LINE
  5
D6
330
1E
100
AcDbEntity
  8
0
100
AcDbLine
 10
163.0
 20
0.0000000000000006
 30
0.0
 11
171.192
 21
0.0000000000000005
 31
0.0
  0
LINE
  5
D7
330
1E
100
AcDbEntity
  8
0
100
AcDbLine
 10
135.2239999999999
 20
11.27999999999999
 30
0.0
 11
140.3439999999999
 21
11.27999999999999
 31
0.0
  0
LINE
  5
D8
330
1E
100
AcDbEntity
  8
0
100
AcDbLine
 10
140.3439999999999
 20
11.27999999999999
 30
0.0
 11
147.1279999999999
 21
11.27999999999999
 31
0.0
  0
LINE
  5
D9
330
1E
100
AcDbEntity
  8
0
100
AcDbLine
 10
147.1279999999999
 20
11.27999999999999
 30
0.0
 11
154.8079999999999
 21
11.27999999999999
 31
0.0
  0
LINE
  5
DA
330
1E
100
AcDbEntity
  8
0
100
AcDbLine
 10
154.8079999999999
 20
11.27999999999999
 30
0.0
 11
163.0
 21
11.27999999999999
 31
0.0
  0
LINE
  5
DB
330
1E
100
AcDbEntity
  8
0
100
AcDbLine
 10
190.7759999999999
 20
11.27999999999999
 30
0.0
 11
193.848
 21
11.27999999999999
 31
0.0
  0
LINE
  5
DC
330
1E
100
AcDbEntity
  8
0
100
AcDbLine
 10
185.6559999999999
 20
11.27999999999999
 30
0.0
 11
190.7759999999999
 21
11.27999999999999
 31
0.0
  0
LINE
  5
DD
330
1E
100
AcDbEntity
  8
0
100
AcDbLine
 10
178.872
 20
11.27999999999999
 30
0.0
 11
185.6559999999999
 21
11.27999999999999
 31
0.0
  0
LINE
  5
DE
330
1E
100
AcDbEntity
  8
0
100
AcDbLine
 10
171.192
 20
11.27999999999999
 30
0.0
 11
178.872
 21
11.27999999999999
 31
0.0
  0
LINE
  5
DF
330
1E
100
AcDbEntity
  8
0
100
AcDbLine
 10
163.0
 20
11.27999999999999
 30
0.0
 11
171.192
 21
11.27999999999999
 31
0.0
  0
LINE
  5
E0
330
1E
100
AcDbEntity
  8
0
100
AcDbLine
 10
67.0
 20
11.27999999999999
 30
0.0
 11
67.0
 21
-0.0000000000000024
 31
0.0
  0
LINE
  5
E1
330
1E
100
AcDbEntity
  8
0
100
AcDbLine
 10
65.848
 20
11.27999999999999
 30
0.0
 11
67.0
 21
11.27999999999999
 31
0.0
  0
LINE
  5
E2
330
1E
100
AcDbEntity
  8
0
100
AcDbLine
 10
62.776
 20
11.27999999999999
 30
0.0
 11
65.848
 21
11.27999999999999
 31
0.0
  0
LINE
  5
E3
330
1E
100
AcDbEntity
  8
0
100
AcDbLine
 10
57.656
 20
11.27999999999999
 30
0.0
 11
62.776
 21
11.27999999999999
 31
0.0
  0
LINE
  5
E4
330
1E
100
AcDbEntity
  8
0
100
AcDbLine
 10
47.58399999999999
 20
20.0
 30
0.0
 11
52.88800000000001
 21
20.0
 31
0.0
  0
LINE
  5
E5
330
1E
100
AcDbEntity
  8
0
100
AcDbLine
 10
47.896
 20
19.28
 30
0.0
 11
53.408
 21
19.28
 31
0.0
  0
LINE
  5
E6
330
1E
100
AcDbEntity
  8
0
100
AcDbLine
 10
50.192
 20
63.0
 30
0.0
 11
51.92
 21
63.0
 31
0.0
  0
LINE
  5
E7
330
1E
100
AcDbEntity
  8
0
100
AcDbLine
 10
47.38399999999999
 20
63.0
 30
0.0
 11
50.192
 21
63.0
 31
0.0
  0
LINE
  5
E8
330
1E
100
AcDbEntity
  8
0
100
AcDbLine
 10
43.71199999999999
 20
63.0
 30
0.0
 11
47.38399999999999
 21
63.0
 31
0.0
  0
LINE
  5
E9
330
1E
100
AcDbEntity
  8
0
100
AcDbLine
 10
61.0
 20
12.0
 30
0.0
 11
61.0
 21
19.28
 31
0.0
  0
LINE
  5
EA
330
1E
100
AcDbEntity
  8
0
100
AcDbLine
 10
131.7679999999999
 20
12.0
 30
0.0
 11
132.9199999999999
 21
12.0
 31
0.0
  0
LINE
  5
EB
330
1E
100
AcDbEntity
  8
0
100
AcDbLine
 10
194.232
 20
12.0
 30
0.0
 11
195.0
 21
11.27999999999999
 31
0.0
  0
LINE
  5
EC
330
1E
100
AcDbEntity
  8
0
100
AcDbLine
 10
132.9199999999999
 20
12.0
 30
0.0
 11
135.992
 21
12.0
 31
0.0
  0
LINE
  5
ED
330
1E
100
AcDbEntity
  8
0
100
AcDbLine
 10
137.0
 20
12.0
 30
0.0
 11
137.0
 21
19.28
 31
0.0
  0
LINE
  5
EE
330
1E
100
AcDbEntity
  8
0
100
AcDbLine
 10
135.992
 20
12.0
 30
0.0
 11
140.984
 21
12.0
 31
0.0
  0
LINE
  5
EF
330
1E
100
AcDbEntity
  8
0
100
AcDbLine
 10
140.984
 20
12.0
 30
0.0
 11
147.5119999999999
 21
12.0
 31
0.0
  0
LINE
  5
F0
330
1E
100
AcDbEntity
  8
0
100
AcDbLine
 10
147.5119999999999
 20
12.0
 30
0.0
 11
154.936
 21
12.0
 31
0.0
  0
LINE
  5
F1
330
1E
100
AcDbEntity
  8
0
100
AcDbLine
 10
154.936
 20
12.0
 30
0.0
 11
163.0
 21
12.0
 31
0.0
  0
LINE
  5
F2
330
1E
100
AcDbEntity
  8
0
100
AcDbLine
 10
189.0
 20
12.0
 30
0.0
 11
189.0
 21
19.28
 31
0.0
  0
LINE
  5
F3
330
1E
100
AcDbEntity
  8
0
100
AcDbLine
 10
193.0799999999999
 20
12.0
 30
0.0
 11
194.232
 21
12.0
 31
0.0
  0
LINE
  5
F4
330
1E
100
AcDbEntity
  8
0
100
AcDbLine
 10
190.0079999999999
 20
12.0
 30
0.0
 11
193.0799999999999
 21
12.0
 31
0.0
  0
LINE
  5
F5
330
1E
100
AcDbEntity
  8
0
100
AcDbLine
 10
185.0159999999999
 20
12.0
 30
0.0
 11
190.0079999999999
 21
12.0
 31
0.0
  0
LINE
  5
F6
330
1E
100
AcDbEntity
  8
0
100
AcDbLine
 10
178.488
 20
12.0
 30
0.0
 11
185.0159999999999
 21
12.0
 31
0.0
  0
LINE
  5
F7
330
1E
100
AcDbEntity
  8
0
100
AcDbLine
 10
171.064
 20
12.0
 30
0.0
 11
178.488
 21
12.0
 31
0.0
  0
LINE
  5
F8
330
1E
100
AcDbEntity
  8
0
100
AcDbLine
 10
163.0
 20
12.0
 30
0.0
 11
171.064
 21
12.0
 31
0.0
  0
LINE
  5
F9
330
1E
100
AcDbEntity
  8
0
100
AcDbLine
 10
65.08
 20
12.0
 30
0.0
 11
66.232
 21
12.0
 31
0.0
  0
LINE
  5
FA
330
1E
100
AcDbEntity
  8
0
100
AcDbLine
 10
66.232
 20
12.0
 30
0.0
 11
67.0
 21
11.27999999999999
 31
0.0
  0
LINE
  5
FB
330
1E
100
AcDbEntity
  8
0
100
AcDbLine
 10
62.008
 20
12.0
 30
0.0
 11
65.08
 21
12.0
 31
0.0
  0
LINE
  5
FC
330
1E
100
AcDbEntity
  8
0
100
AcDbLine
 10
52.88800000000001
 20
20.0
 30
0.0
 11
56.94399999999999
 21
20.0
 31
0.0
  0
LINE
  5
FD
330
1E
100
AcDbEntity
  8
0
100
AcDbLine
 10
53.0
 20
62.28
 30
0.0
 11
53.0
 21
20.0
 31
0.0
  0
LINE
  5
FE
330
1E
100
AcDbEntity
  8
0
100
AcDbLine
 10
51.92
 20
63.0
 30
0.0
 11
52.56800000000001
 21
63.0
 31
0.0
  0
LINE
  5
FF
330
1E
100
AcDbEntity
  8
0
100
AcDbLine
 10
52.56800000000001
 20
63.0
 30
0.0
 11
53.0
 21
62.28
 31
0.0
  0
LINE
  5
100
330
1E
100
AcDbEntity
  8
0
100
AcDbLine
 10
137.0
 20
19.28
 30
0.0
 11
137.0
 21
12.0
 31
0.0
  0
LINE
  5
101
330
1E
100
AcDbEntity
  8
0
100
AcDbLine
 10
137.0
 20
19.28
 30
0.0
 11
137.936
 21
19.28
 31
0.0
  0
LINE
  5
102
330
1E
100
AcDbEntity
  8
0
100
AcDbLine
 10
137.0
 20
19.28
 30
0.0
 11
137.6239999999999
 21
20.0
 31
0.0
  0
LINE
  5
103
330
1E
100
AcDbEntity
  8
0
100
AcDbLine
 10
189.0
 20
19.28
 30
0.0
 11
189.0
 21
12.0
 31
0.0
  0
LINE
  5
104
330
1E
100
AcDbEntity
  8
0
100
AcDbLine
 10
60.06399999999999
 20
19.28
 30
0.0
 11
61.0
 21
19.28
 31
0.0
  0
LINE
  5
105
330
1E
100
AcDbEntity
  8
0
100
AcDbLine
 10
57.56800000000001
 20
19.28
 30
0.0
 11
60.06399999999999
 21
19.28
 31
0.0
  0
LINE
  5
106
330
1E
100
AcDbEntity
  8
0
100
AcDbLine
 10
59.43999999999999
 20
20.0
 30
0.0
 11
60.37600000000001
 21
20.0
 31
0.0
  0
LINE
  5
107
330
1E
100
AcDbEntity
  8
0
100
AcDbLine
 10
56.94399999999999
 20
20.0
 30
0.0
 11
59.43999999999999
 21
20.0
 31
0.0
  0
LINE
  5
108
330
1E
100
AcDbEntity
  8
0
100
AcDbLine
 10
53.408
 20
19.28
 30
0.0
 11
57.56800000000001
 21
19.28
 31
0.0
  0
LINE
  5
109
330
1E
100
AcDbEntity
  8
0
100
AcDbLine
 10
137.936
 20
19.28
 30
0.0
 11
140.432
 21
19.28
 31
0.0
  0
LINE
  5
10A
330
1E
100
AcDbEntity
  8
0
100
AcDbLine
 10
144.592
 20
19.28
 30
0.0
 11
150.1039999999999
 21
19.28
 31
0.0
  0
LINE
  5
10B
330
1E
100
AcDbEntity
  8
0
100
AcDbLine
 10
137.6239999999999
 20
20.0
 30
0.0
 11
138.5599999999999
 21
20.0
 31
0.0
  0
LINE
  5
10C
330
1E
100
AcDbEntity
  8
0
100
AcDbLine
 10
140.432
 20
19.28
 30
0.0
 11
144.592
 21
19.28
 31
0.0
  0
LINE
  5
10D
330
1E
100
AcDbEntity
  8
0
100
AcDbLine
 10
150.1039999999999
 20
19.28
 30
0.0
 11
156.3439999999999
 21
19.28
 31
0.0
  0
LINE
  5
10E
330
1E
100
AcDbEntity
  8
0
100
AcDbLine
 10
156.3439999999999
 20
19.28
 30
0.0
 11
158.0679999999999
 21
19.28
 31
0.0
  0
LINE
  5
10F
330
1E
100
AcDbEntity
  8
0
100
AcDbLine
 10
158.0679999999999
 20
19.28
 30
0.0
 11
158.0679999999999
 21
28.0
 31
0.0
  0
LINE
  5
110
330
1E
100
AcDbEntity
  8
0
100
AcDbLine
 10
169.6559999999999
 20
19.28
 30
0.0
 11
175.8959999999999
 21
19.28
 31
0.0
  0
LINE
  5
111
330
1E
100
AcDbEntity
  8
0
100
AcDbLine
 10
167.932
 20
19.28
 30
0.0
 11
169.6559999999999
 21
19.28
 31
0.0
  0
LINE
  5
112
330
1E
100
AcDbEntity
  8
0
100
AcDbLine
 10
167.932
 20
19.28
 30
0.0
 11
167.932
 21
28.0
 31
0.0
  0
LINE
  5
113
330
1E
100
AcDbEntity
  8
0
100
AcDbLine
 10
167.932
 20
19.28
 30
0.0
 11
168.004
 21
20.0
 31
0.0
  0
LINE
  5
114
330
1E
100
AcDbEntity
  8
0
100
AcDbLine
 10
145.0
 20
20.0
 30
0.0
 11
145.0
 21
62.28
 31
0.0
  0
LINE
  5
115
330
1E
100
AcDbEntity
  8
0
100
AcDbLine
 10
175.8959999999999
 20
19.28
 30
0.0
 11
181.4079999999999
 21
19.28
 31
0.0
  0
LINE
  5
116
330
1E
100
AcDbEntity
  8
0
100
AcDbLine
 10
188.064
 20
19.28
 30
0.0
 11
189.0
 21
19.28
 31
0.0
  0
LINE
  5
117
330
1E
100
AcDbEntity
  8
0
100
AcDbLine
 10
185.5679999999999
 20
19.28
 30
0.0
 11
188.064
 21
19.28
 31
0.0
  0
LINE
  5
118
330
1E
100
AcDbEntity
  8
0
100
AcDbLine
 10
188.3759999999999
 20
20.0
 30
0.0
 11
189.0
 21
19.28
 31
0.0
  0
LINE
  5
119
330
1E
100
AcDbEntity
  8
0
100
AcDbLine
 10
181.4079999999999
 20
19.28
 30
0.0
 11
185.5679999999999
 21
19.28
 31
0.0
  0
LINE
  5
11A
330
1E
100
AcDbEntity
  8
0
100
AcDbLine
 10
138.5599999999999
 20
20.0
 30
0.0
 11
141.056
 21
20.0
 31
0.0
  0
LINE
  5
11B
330
1E
100
AcDbEntity
  8
0
100
AcDbLine
 10
145.1119999999999
 20
20.0
 30
0.0
 11
150.4159999999999
 21
20.0
 31
0.0
  0
LINE
  5
11C
330
1E
100
AcDbEntity
  8
0
100
AcDbLine
 10
157.9959999999999
 20
20.0
 30
0.0
 11
158.0679999999999
 21
19.28
 31
0.0
  0
LINE
  5
11D
330
1E
100
AcDbEntity
  8
0
100
AcDbLine
 10
157.9959999999999
 20
20.0
 30
0.0
 11
157.9959999999999
 21
28.0
 31
0.0
  0
LINE
  5
11E
330
1E
100
AcDbEntity
  8
0
100
AcDbLine
 10
156.4479999999999
 20
20.0
 30
0.0
 11
157.9959999999999
 21
20.0
 31
0.0
  0
LINE
  5
11F
330
1E
100
AcDbEntity
  8
0
100
AcDbLine
 10
163.0
 20
22.0
 30
0.0
 11
163.769
 21
22.10589999999999
 31
0.0
  0
LINE
  5
120
330
1E
100
AcDbEntity
  8
0
100
AcDbLine
 10
163.0
 20
22.0
 30
0.0
 11
163.768
 21
22.108
 31
0.0
  0
LINE
  5
121
330
1E
100
AcDbEntity
  8
0
100
AcDbLine
 10
160.876
 20
22.87599999999999
 30
0.0
 11
161.512
 21
22.396
 31
0.0
  0
LINE
  5
122
330
1E
100
AcDbEntity
  8
0
100
AcDbLine
 10
160.396
 20
23.51199999999999
 30
0.0
 11
160.876
 21
22.87599999999999
 31
0.0
  0
LINE
  5
123
330
1E
100
AcDbEntity
  8
0
100
AcDbLine
 10
160.108
 20
25.768
 30
0.0
 11
160.396
 21
26.488
 31
0.0
  0
LINE
  5
124
330
1E
100
AcDbEntity
  8
0
100
AcDbLine
 10
160.396
 20
26.488
 30
0.0
 11
160.876
 21
27.124
 31
0.0
  0
LINE
  5
125
330
1E
100
AcDbEntity
  8
0
100
AcDbLine
 10
160.108
 20
24.232
 30
0.0
 11
160.396
 21
23.51199999999999
 31
0.0
  0
LINE
  5
126
330
1E
100
AcDbEntity
  8
0
100
AcDbLine
 10
160.1059999999999
 20
25.7694
 30
0.0
 11
160.402
 21
26.4894
 31
0.0
  0
LINE
  5
127
330
1E
100
AcDbEntity
  8
0
100
AcDbLine
 10
160.402
 20
26.4894
 30
0.0
 11
160.882
 21
27.11759999999999
 31
0.0
  0
LINE
  5
128
330
1E
100
AcDbEntity
  8
0
100
AcDbLine
 10
160.0
 20
25.0
 30
0.0
 11
160.1059999999999
 21
24.23059999999999
 31
0.0
  0
LINE
  5
129
330
1E
100
AcDbEntity
  8
0
100
AcDbLine
 10
160.0
 20
25.0
 30
0.0
 11
160.1059999999999
 21
25.7694
 31
0.0
  0
LINE
  5
12A
330
1E
100
AcDbEntity
  8
0
100
AcDbLine
 10
160.0
 20
25.0
 30
0.0
 11
160.108
 21
24.232
 31
0.0
  0
LINE
  5
12B
330
1E
100
AcDbEntity
  8
0
100
AcDbLine
 10
160.0
 20
25.0
 30
0.0
 11
160.108
 21
25.768
 31
0.0
  0
LINE
  5
12C
330
1E
100
AcDbEntity
  8
0
100
AcDbLine
 10
160.1059999999999
 20
24.23059999999999
 30
0.0
 11
160.402
 21
23.51059999999999
 31
0.0
  0
LINE
  5
12D
330
1E
100
AcDbEntity
  8
0
100
AcDbLine
 10
160.876
 20
27.124
 30
0.0
 11
161.512
 21
27.604
 31
0.0
  0
LINE
  5
12E
330
1E
100
AcDbEntity
  8
0
100
AcDbLine
 10
160.882
 20
27.11759999999999
 30
0.0
 11
161.511
 21
27.5977
 31
0.0
  0
LINE
  5
12F
330
1E
100
AcDbEntity
  8
0
100
AcDbLine
 10
161.511
 20
27.5977
 30
0.0
 11
162.2309999999999
 21
27.8941
 31
0.0
  0
LINE
  5
130
330
1E
100
AcDbEntity
  8
0
100
AcDbLine
 10
160.402
 20
23.51059999999999
 30
0.0
 11
160.882
 21
22.8824
 31
0.0
  0
LINE
  5
131
330
1E
100
AcDbEntity
  8
0
100
AcDbLine
 10
160.882
 20
22.8824
 30
0.0
 11
161.511
 21
22.4024
 31
0.0
  0
LINE
  5
132
330
1E
100
AcDbEntity
  8
0
100
AcDbLine
 10
161.512
 20
27.604
 30
0.0
 11
162.232
 21
27.892
 31
0.0
  0
LINE
  5
133
330
1E
100
AcDbEntity
  8
0
100
AcDbLine
 10
162.232
 20
27.892
 30
0.0
 11
163.0
 21
28.0
 31
0.0
  0
LINE
  5
134
330
1E
100
AcDbEntity
  8
0
100
AcDbLine
 10
161.512
 20
22.396
 30
0.0
 11
162.232
 21
22.108
 31
0.0
  0
LINE
  5
135
330
1E
100
AcDbEntity
  8
0
100
AcDbLine
 10
162.232
 20
22.108
 30
0.0
 11
163.0
 21
22.0
 31
0.0
  0
LINE
  5
136
330
1E
100
AcDbEntity
  8
0
100
AcDbLine
 10
163.0
 20
28.0
 30
0.0
 11
163.769
 21
27.8941
 31
0.0
  0
LINE
  5
137
330
1E
100
AcDbEntity
  8
0
100
AcDbLine
 10
163.0
 20
28.0
 30
0.0
 11
163.768
 21
27.892
 31
0.0
  0
LINE
  5
138
330
1E
100
AcDbEntity
  8
0
100
AcDbLine
 10
162.2309999999999
 20
27.8941
 30
0.0
 11
163.0
 21
28.0
 31
0.0
  0
LINE
  5
139
330
1E
100
AcDbEntity
  8
0
100
AcDbLine
 10
161.511
 20
22.4024
 30
0.0
 11
162.2309999999999
 21
22.10589999999999
 31
0.0
  0
LINE
  5
13A
330
1E
100
AcDbEntity
  8
0
100
AcDbLine
 10
162.2309999999999
 20
22.10589999999999
 30
0.0
 11
163.0
 21
22.0
 31
0.0
  0
LINE
  5
13B
330
1E
100
AcDbEntity
  8
0
100
AcDbLine
 10
157.9959999999999
 20
28.0
 30
0.0
 11
157.9959999999999
 21
20.0
 31
0.0
  0
LINE
  5
13C
330
1E
100
AcDbEntity
  8
0
100
AcDbLine
 10
157.9959999999999
 20
28.0
 30
0.0
 11
158.1719999999999
 21
28.768
 31
0.0
  0
LINE
  5
13D
330
1E
100
AcDbEntity
  8
0
100
AcDbLine
 10
158.2279999999999
 20
28.756
 30
0.0
 11
158.709
 21
29.45199999999999
 31
0.0
  0
LINE
  5
13E
330
1E
100
AcDbEntity
  8
0
100
AcDbLine
 10
158.1719999999999
 20
28.768
 30
0.0
 11
158.661
 21
29.488
 31
0.0
  0
LINE
  5
13F
330
1E
100
AcDbEntity
  8
0
100
AcDbLine
 10
158.709
 20
29.45199999999999
 30
0.0
 11
159.5099999999999
 21
30.064
 31
0.0
  0
LINE
  5
140
330
1E
100
AcDbEntity
  8
0
100
AcDbLine
 10
159.5099999999999
 20
30.064
 30
0.0
 11
160.551
 21
30.53199999999999
 31
0.0
  0
LINE
  5
141
330
1E
100
AcDbEntity
  8
0
100
AcDbLine
 10
160.551
 20
30.53199999999999
 30
0.0
 11
161.7289999999999
 21
30.82
 31
0.0
  0
LINE
  5
142
330
1E
100
AcDbEntity
  8
0
100
AcDbLine
 10
160.519
 20
30.604
 30
0.0
 11
161.721
 21
30.89199999999999
 31
0.0
  0
LINE
  5
143
330
1E
100
AcDbEntity
  8
0
100
AcDbLine
 10
161.7289999999999
 20
30.82
 30
0.0
 11
163.0
 21
30.928
 31
0.0
  0
LINE
  5
144
330
1E
100
AcDbEntity
  8
0
100
AcDbLine
 10
158.0679999999999
 20
28.0
 30
0.0
 11
158.0679999999999
 21
19.28
 31
0.0
  0
LINE
  5
145
330
1E
100
AcDbEntity
  8
0
100
AcDbLine
 10
158.0679999999999
 20
28.0
 30
0.0
 11
158.2279999999999
 21
28.756
 31
0.0
  0
LINE
  5
146
330
1E
100
AcDbEntity
  8
0
100
AcDbLine
 10
163.0
 20
30.928
 30
0.0
 11
164.2709999999999
 21
30.82
 31
0.0
  0
LINE
  5
147
330
1E
100
AcDbEntity
  8
0
100
AcDbLine
 10
150.4159999999999
 20
20.0
 30
0.0
 11
156.4479999999999
 21
20.0
 31
0.0
  0
LINE
  5
148
330
1E
100
AcDbEntity
  8
0
100
AcDbLine
 10
141.056
 20
20.0
 30
0.0
 11
145.1119999999999
 21
20.0
 31
0.0
  0
LINE
  5
149
330
1E
100
AcDbEntity
  8
0
100
AcDbLine
 10
69.5
 20
85.0
 30
0.0
 11
70.0
 21
84.60779999999999
 31
0.0
  0
LINE
  5
14A
330
1E
100
AcDbEntity
  8
0
100
AcDbLine
 10
128.0
 20
84.60779999999999
 30
0.0
 11
128.0
 21
72.84310000000001
 31
0.0
  0
LINE
  5
14B
330
1E
100
AcDbEntity
  8
0
100
AcDbLine
 10
128.0
 20
84.60779999999999
 30
0.0
 11
158.6
 21
84.60779999999999
 31
0.0
  0
LINE
  5
14C
330
1E
100
AcDbEntity
  8
0
100
AcDbLine
 10
128.0
 20
84.60779999999999
 30
0.0
 11
128.4999999999999
 21
85.0
 31
0.0
  0
LINE
  5
14D
330
1E
100
AcDbEntity
  8
0
100
AcDbLine
 10
128.0
 20
72.84310000000001
 30
0.0
 11
128.4999999999999
 21
72.451
 31
0.0
  0
LINE
  5
14E
330
1E
100
AcDbEntity
  8
0
100
AcDbLine
 10
128.0
 20
72.84310000000001
 30
0.0
 11
158.6
 21
72.84310000000001
 31
0.0
  0
LINE
  5
14F
330
1E
100
AcDbEntity
  8
0
100
AcDbLine
 10
128.0
 20
72.84310000000001
 30
0.0
 11
128.0
 21
84.60779999999999
 31
0.0
  0
LINE
  5
150
330
1E
100
AcDbEntity
  8
0
100
AcDbLine
 10
128.4999999999999
 20
72.451
 30
0.0
 11
159.1999999999999
 21
72.451
 31
0.0
  0
LINE
  5
151
330
1E
100
AcDbEntity
  8
0
100
AcDbLine
 10
128.4999999999999
 20
72.451
 30
0.0
 11
158.0
 21
72.451
 31
0.0
  0
LINE
  5
152
330
1E
100
AcDbEntity
  8
0
100
AcDbLine
 10
70.0
 20
72.84310000000001
 30
0.0
 11
70.0
 21
84.60779999999999
 31
0.0
  0
LINE
  5
153
330
1E
100
AcDbEntity
  8
0
100
AcDbLine
 10
128.4999999999999
 20
85.0
 30
0.0
 11
159.1999999999999
 21
85.0
 31
0.0
  0
LINE
  5
154
330
1E
100
AcDbEntity
  8
0
100
AcDbLine
 10
70.0
 20
84.60779999999999
 30
0.0
 11
70.0
 21
72.84310000000001
 31
0.0
  0
LINE
  5
155
330
1E
100
AcDbEntity
  8
0
100
AcDbLine
 10
69.5
 20
72.451
 30
0.0
 11
70.0
 21
72.84310000000001
 31
0.0
  0
LINE
  5
156
330
1E
100
AcDbEntity
  8
0
100
AcDbLine
 10
145.432
 20
63.0
 30
0.0
 11
146.08
 21
63.0
 31
0.0
  0
LINE
  5
157
330
1E
100
AcDbEntity
  8
0
100
AcDbLine
 10
146.08
 20
63.0
 30
0.0
 11
147.808
 21
63.0
 31
0.0
  0
LINE
  5
158
330
1E
100
AcDbEntity
  8
0
100
AcDbLine
 10
147.808
 20
63.0
 30
0.0
 11
150.616
 21
63.0
 31
0.0
  0
LINE
  5
159
330
1E
100
AcDbEntity
  8
0
100
AcDbLine
 10
150.616
 20
63.0
 30
0.0
 11
154.2879999999999
 21
63.0
 31
0.0
  0
LINE
  5
15A
330
1E
100
AcDbEntity
  8
0
100
AcDbLine
 10
158.0
 20
63.0
 30
0.0
 11
158.0
 21
72.451
 31
0.0
  0
LINE
  5
15B
330
1E
100
AcDbEntity
  8
0
100
AcDbLine
 10
154.2879999999999
 20
63.0
 30
0.0
 11
158.464
 21
63.0
 31
0.0
  0
LINE
  5
15C
330
1E
100
AcDbEntity
  8
0
100
AcDbLine
 10
158.6999999999999
 20
72.451
 30
0.0
 11
159.4999999999999
 21
72.451
 31
0.0
  0
LINE
  5
15D
330
1E
100
AcDbEntity
  8
0
100
AcDbLine
 10
158.1999999999999
 20
72.451
 30
0.0
 11
158.6999999999999
 21
72.451
 31
0.0
  0
LINE
  5
15E
330
1E
100
AcDbEntity
  8
0
100
AcDbLine
 10
158.0
 20
72.451
 30
0.0
 11
158.1999999999999
 21
72.451
 31
0.0
  0
LINE
  5
15F
330
1E
100
AcDbEntity
  8
0
100
AcDbLine
 10
158.0
 20
72.451
 30
0.0
 11
158.0
 21
63.0
 31
0.0
  0
LINE
  5
160
330
1E
100
AcDbEntity
  8
0
100
AcDbLine
 10
159.1999999999999
 20
72.451
 30
0.0
 11
159.3
 21
72.451
 31
0.0
  0
LINE
  5
161
330
1E
100
AcDbEntity
  8
0
100
AcDbLine
 10
158.6
 20
72.84310000000001
 30
0.0
 11
158.8
 21
72.84310000000001
 31
0.0
  0
LINE
  5
162
330
1E
100
AcDbEntity
  8
0
100
AcDbLine
 10
158.6
 20
72.84310000000001
 30
0.0
 11
158.6
 21
84.60779999999999
 31
0.0
  0
LINE
  5
163
330
1E
100
AcDbEntity
  8
0
100
AcDbLine
 10
158.8
 20
72.84310000000001
 30
0.0
 11
159.0
 21
72.84310000000001
 31
0.0
  0
LINE
  5
164
330
1E
100
AcDbEntity
  8
0
100
AcDbLine
 10
159.0
 20
72.84310000000001
 30
0.0
 11
163.0
 21
72.84310000000001
 31
0.0
  0
LINE
  5
165
330
1E
100
AcDbEntity
  8
0
100
AcDbLine
 10
159.0
 20
72.84310000000001
 30
0.0
 11
159.4999999999999
 21
72.451
 31
0.0
  0
LINE
  5
166
330
1E
100
AcDbEntity
  8
0
100
AcDbLine
 10
159.0
 20
72.84310000000001
 30
0.0
 11
159.0
 21
84.60779999999999
 31
0.0
  0
LINE
  5
167
330
1E
100
AcDbEntity
  8
0
100
AcDbLine
 10
159.3
 20
72.451
 30
0.0
 11
159.4999999999999
 21
72.451
 31
0.0
  0
LINE
  5
168
330
1E
100
AcDbEntity
  8
0
100
AcDbLine
 10
161.6999999999999
 20
72.451
 30
0.0
 11
163.0
 21
72.451
 31
0.0
  0
LINE
  5
169
330
1E
100
AcDbEntity
  8
0
100
AcDbLine
 10
160.4999999999999
 20
72.451
 30
0.0
 11
161.6999999999999
 21
72.451
 31
0.0
  0
LINE
  5
16A
330
1E
100
AcDbEntity
  8
0
100
AcDbLine
 10
159.4999999999999
 20
72.451
 30
0.0
 11
163.0
 21
72.451
 31
0.0
  0
LINE
  5
16B
330
1E
100
AcDbEntity
  8
0
100
AcDbLine
 10
159.4999999999999
 20
72.451
 30
0.0
 11
160.4999999999999
 21
72.451
 31
0.0
  0
LINE
  5
16C
330
1E
100
AcDbEntity
  8
0
100
AcDbLine
 10
158.6
 20
84.60779999999999
 30
0.0
 11
158.6
 21
72.84310000000001
 31
0.0
  0
LINE
  5
16D
330
1E
100
AcDbEntity
  8
0
100
AcDbLine
 10
158.6
 20
84.60779999999999
 30
0.0
 11
158.8
 21
84.60779999999999
 31
0.0
  0
LINE
  5
16E
330
1E
100
AcDbEntity
  8
0
100
AcDbLine
 10
158.8
 20
84.60779999999999
 30
0.0
 11
159.0
 21
84.60779999999999
 31
0.0
  0
LINE
  5
16F
330
1E
100
AcDbEntity
  8
0
100
AcDbLine
 10
159.1999999999999
 20
85.0
 30
0.0
 11
159.3
 21
85.0
 31
0.0
  0
LINE
  5
170
330
1E
100
AcDbEntity
  8
0
100
AcDbLine
 10
159.3
 20
85.0
 30
0.0
 11
159.4999999999999
 21
85.0
 31
0.0
  0
LINE
  5
171
330
1E
100
AcDbEntity
  8
0
100
AcDbLine
 10
159.4999999999999
 20
85.0
 30
0.0
 11
163.0
 21
85.0
 31
0.0
  0
LINE
  5
172
330
1E
100
AcDbEntity
  8
0
100
AcDbLine
 10
159.0
 20
84.60779999999999
 30
0.0
 11
163.0
 21
84.60779999999999
 31
0.0
  0
LINE
  5
173
330
1E
100
AcDbEntity
  8
0
100
AcDbLine
 10
159.0
 20
84.60779999999999
 30
0.0
 11
159.0
 21
72.84310000000001
 31
0.0
  0
LINE
  5
174
330
1E
100
AcDbEntity
  8
0
100
AcDbLine
 10
159.0
 20
84.60779999999999
 30
0.0
 11
159.4999999999999
 21
85.0
 31
0.0
  0
LINE
  5
175
330
1E
100
AcDbEntity
  8
0
100
AcDbLine
 10
163.0
 20
85.0
 30
0.0
 11
166.5
 21
85.0
 31
0.0
  0
LINE
  5
176
330
1E
100
AcDbEntity
  8
0
100
AcDbLine
 10
163.0
 20
84.60779999999999
 30
0.0
 11
167.0
 21
84.60779999999999
 31
0.0
  0
LINE
  5
177
330
1E
100
AcDbEntity
  8
0
100
AcDbLine
 10
163.0
 20
72.84310000000001
 30
0.0
 11
167.0
 21
72.84310000000001
 31
0.0
  0
LINE
  5
178
330
1E
100
AcDbEntity
  8
0
100
AcDbLine
 10
163.0
 20
72.451
 30
0.0
 11
166.5
 21
72.451
 31
0.0
  0
LINE
  5
179
330
1E
100
AcDbEntity
  8
0
100
AcDbLine
 10
163.0
 20
72.451
 30
0.0
 11
164.3
 21
72.451
 31
0.0
  0
LINE
  5
17A
330
1E
100
AcDbEntity
  8
0
100
AcDbLine
 10
158.464
 20
63.0
 30
0.0
 11
163.0
 21
63.0
 31
0.0
  0
LINE
  5
17B
330
1E
100
AcDbEntity
  8
0
100
AcDbLine
 10
145.0
 20
62.28
 30
0.0
 11
145.432
 21
63.0
 31
0.0
  0
LINE
  5
17C
330
1E
100
AcDbEntity
  8
0
100
AcDbLine
 10
145.0
 20
62.28
 30
0.0
 11
145.0
 21
20.0
 31
0.0
  0
LINE
  5
17D
330
1E
100
AcDbEntity
  8
0
100
AcDbLine
 10
164.488
 20
22.396
 30
0.0
 11
165.124
 21
22.87599999999999
 31
0.0
  0
LINE
  5
17E
330
1E
100
AcDbEntity
  8
0
100
AcDbLine
 10
163.768
 20
22.108
 30
0.0
 11
164.488
 21
22.396
 31
0.0
  0
LINE
  5
17F
330
1E
100
AcDbEntity
  8
0
100
AcDbLine
 10
164.488
 20
27.604
 30
0.0
 11
165.124
 21
27.124
 31
0.0
  0
LINE
  5
180
330
1E
100
AcDbEntity
  8
0
100
AcDbLine
 10
163.768
 20
27.892
 30
0.0
 11
164.488
 21
27.604
 31
0.0
  0
LINE
  5
181
330
1E
100
AcDbEntity
  8
0
100
AcDbLine
 10
164.489
 20
22.4024
 30
0.0
 11
165.118
 21
22.8824
 31
0.0
  0
LINE
  5
182
330
1E
100
AcDbEntity
  8
0
100
AcDbLine
 10
163.769
 20
22.10589999999999
 30
0.0
 11
164.489
 21
22.4024
 31
0.0
  0
LINE
  5
183
330
1E
100
AcDbEntity
  8
0
100
AcDbLine
 10
165.124
 20
22.87599999999999
 30
0.0
 11
165.604
 21
23.51199999999999
 31
0.0
  0
LINE
  5
184
330
1E
100
AcDbEntity
  8
0
100
AcDbLine
 10
165.5979999999999
 20
23.51059999999999
 30
0.0
 11
165.894
 21
24.23059999999999
 31
0.0
  0
LINE
  5
185
330
1E
100
AcDbEntity
  8
0
100
AcDbLine
 10
165.118
 20
22.8824
 30
0.0
 11
165.5979999999999
 21
23.51059999999999
 31
0.0
  0
LINE
  5
186
330
1E
100
AcDbEntity
  8
0
100
AcDbLine
 10
165.8919999999999
 20
24.232
 30
0.0
 11
166.0
 21
25.0
 31
0.0
  0
LINE
  5
187
330
1E
100
AcDbEntity
  8
0
100
AcDbLine
 10
165.604
 20
23.51199999999999
 30
0.0
 11
165.8919999999999
 21
24.232
 31
0.0
  0
LINE
  5
188
330
1E
100
AcDbEntity
  8
0
100
AcDbLine
 10
165.8919999999999
 20
25.768
 30
0.0
 11
166.0
 21
25.0
 31
0.0
  0
LINE
  5
189
330
1E
100
AcDbEntity
  8
0
100
AcDbLine
 10
165.894
 20
24.23059999999999
 30
0.0
 11
166.0
 21
25.0
 31
0.0
  0
LINE
  5
18A
330
1E
100
AcDbEntity
  8
0
100
AcDbLine
 10
165.604
 20
26.488
 30
0.0
 11
165.8919999999999
 21
25.768
 31
0.0
  0
LINE
  5
18B
330
1E
100
AcDbEntity
  8
0
100
AcDbLine
 10
165.894
 20
25.7694
 30
0.0
 11
166.0
 21
25.0
 31
0.0
  0
LINE
  5
18C
330
1E
100
AcDbEntity
  8
0
100
AcDbLine
 10
165.5979999999999
 20
26.4894
 30
0.0
 11
165.894
 21
25.7694
 31
0.0
  0
LINE
  5
18D
330
1E
100
AcDbEntity
  8
0
100
AcDbLine
 10
165.124
 20
27.124
 30
0.0
 11
165.604
 21
26.488
 31
0.0
  0
LINE
  5
18E
330
1E
100
AcDbEntity
  8
0
100
AcDbLine
 10
165.118
 20
27.11759999999999
 30
0.0
 11
165.5979999999999
 21
26.4894
 31
0.0
  0
LINE
  5
18F
330
1E
100
AcDbEntity
  8
0
100
AcDbLine
 10
164.489
 20
27.5977
 30
0.0
 11
165.118
 21
27.11759999999999
 31
0.0
  0
LINE
  5
190
330
1E
100
AcDbEntity
  8
0
100
AcDbLine
 10
163.769
 20
27.8941
 30
0.0
 11
164.489
 21
27.5977
 31
0.0
  0
LINE
  5
191
330
1E
100
AcDbEntity
  8
0
100
AcDbLine
 10
168.004
 20
20.0
 30
0.0
 11
168.004
 21
28.0
 31
0.0
  0
LINE
  5
192
330
1E
100
AcDbEntity
  8
0
100
AcDbLine
 10
168.004
 20
20.0
 30
0.0
 11
169.552
 21
20.0
 31
0.0
  0
LINE
  5
193
330
1E
100
AcDbEntity
  8
0
100
AcDbLine
 10
168.004
 20
28.0
 30
0.0
 11
168.004
 21
20.0
 31
0.0
  0
LINE
  5
194
330
1E
100
AcDbEntity
  8
0
100
AcDbLine
 10
169.552
 20
20.0
 30
0.0
 11
175.584
 21
20.0
 31
0.0
  0
LINE
  5
195
330
1E
100
AcDbEntity
  8
0
100
AcDbLine
 10
167.2909999999999
 20
29.45199999999999
 30
0.0
 11
167.772
 21
28.756
 31
0.0
  0
LINE
  5
196
330
1E
100
AcDbEntity
  8
0
100
AcDbLine
 10
166.49
 20
30.064
 30
0.0
 11
167.2909999999999
 21
29.45199999999999
 31
0.0
  0
LINE
  5
197
330
1E
100
AcDbEntity
  8
0
100
AcDbLine
 10
165.449
 20
30.53199999999999
 30
0.0
 11
166.49
 21
30.064
 31
0.0
  0
LINE
  5
198
330
1E
100
AcDbEntity
  8
0
100
AcDbLine
 10
164.2709999999999
 20
30.82
 30
0.0
 11
165.449
 21
30.53199999999999
 31
0.0
  0
LINE
  5
199
330
1E
100
AcDbEntity
  8
0
100
AcDbLine
 10
167.772
 20
28.756
 30
0.0
 11
167.932
 21
28.0
 31
0.0
  0
LINE
  5
19A
330
1E
100
AcDbEntity
  8
0
100
AcDbLine
 10
168.0
 20
63.0
 30
0.0
 11
168.0
 21
72.451
 31
0.0
  0
LINE
  5
19B
330
1E
100
AcDbEntity
  8
0
100
AcDbLine
 10
167.8279999999999
 20
28.768
 30
0.0
 11
168.004
 21
28.0
 31
0.0
  0
LINE
  5
19C
330
1E
100
AcDbEntity
  8
0
100
AcDbLine
 10
167.339
 20
29.488
 30
0.0
 11
167.8279999999999
 21
28.768
 31
0.0
  0
LINE
  5
19D
330
1E
100
AcDbEntity
  8
0
100
AcDbLine
 10
167.932
 20
28.0
 30
0.0
 11
167.932
 21
19.28
 31
0.0
  0
LINE
  5
19E
330
1E
100
AcDbEntity
  8
0
100
AcDbLine
 10
175.584
 20
20.0
 30
0.0
 11
180.888
 21
20.0
 31
0.0
  0
LINE
  5
19F
330
1E
100
AcDbEntity
  8
0
100
AcDbLine
 10
180.888
 20
20.0
 30
0.0
 11
184.944
 21
20.0
 31
0.0
  0
LINE
  5
1A0
330
1E
100
AcDbEntity
  8
0
100
AcDbLine
 10
187.4399999999999
 20
20.0
 30
0.0
 11
188.3759999999999
 21
20.0
 31
0.0
  0
LINE
  5
1A1
330
1E
100
AcDbEntity
  8
0
100
AcDbLine
 10
184.944
 20
20.0
 30
0.0
 11
187.4399999999999
 21
20.0
 31
0.0
  0
LINE
  5
1A2
330
1E
100
AcDbEntity
  8
0
100
AcDbLine
 10
181.0
 20
62.28
 30
0.0
 11
181.0
 21
20.0
 31
0.0
  0
LINE
  5
1A3
330
1E
100
AcDbEntity
  8
0
100
AcDbLine
 10
179.9199999999999
 20
63.0
 30
0.0
 11
180.5679999999999
 21
63.0
 31
0.0
  0
LINE
  5
1A4
330
1E
100
AcDbEntity
  8
0
100
AcDbLine
 10
180.5679999999999
 20
63.0
 30
0.0
 11
181.0
 21
62.28
 31
0.0
  0
LINE
  5
1A5
330
1E
100
AcDbEntity
  8
0
100
AcDbLine
 10
178.192
 20
63.0
 30
0.0
 11
179.9199999999999
 21
63.0
 31
0.0
  0
LINE
  5
1A6
330
1E
100
AcDbEntity
  8
0
100
AcDbLine
 10
175.384
 20
63.0
 30
0.0
 11
178.192
 21
63.0
 31
0.0
  0
LINE
  5
1A7
330
1E
100
AcDbEntity
  8
0
100
AcDbLine
 10
171.712
 20
63.0
 30
0.0
 11
175.384
 21
63.0
 31
0.0
  0
LINE
  5
1A8
330
1E
100
AcDbEntity
  8
0
100
AcDbLine
 10
164.3
 20
72.451
 30
0.0
 11
165.5
 21
72.451
 31
0.0
  0
LINE
  5
1A9
330
1E
100
AcDbEntity
  8
0
100
AcDbLine
 10
165.5
 20
72.451
 30
0.0
 11
166.5
 21
72.451
 31
0.0
  0
LINE
  5
1AA
330
1E
100
AcDbEntity
  8
0
100
AcDbLine
 10
167.3
 20
72.451
 30
0.0
 11
167.8
 21
72.451
 31
0.0
  0
LINE
  5
1AB
330
1E
100
AcDbEntity
  8
0
100
AcDbLine
 10
167.8
 20
72.451
 30
0.0
 11
168.0
 21
72.451
 31
0.0
  0
LINE
  5
1AC
330
1E
100
AcDbEntity
  8
0
100
AcDbLine
 10
168.0
 20
72.451
 30
0.0
 11
197.5
 21
72.451
 31
0.0
  0
LINE
  5
1AD
330
1E
100
AcDbEntity
  8
0
100
AcDbLine
 10
168.0
 20
72.451
 30
0.0
 11
168.0
 21
63.0
 31
0.0
  0
LINE
  5
1AE
330
1E
100
AcDbEntity
  8
0
100
AcDbLine
 10
166.5
 20
72.451
 30
0.0
 11
167.0
 21
72.84310000000001
 31
0.0
  0
LINE
  5
1AF
330
1E
100
AcDbEntity
  8
0
100
AcDbLine
 10
166.5
 20
72.451
 30
0.0
 11
167.3
 21
72.451
 31
0.0
  0
LINE
  5
1B0
330
1E
100
AcDbEntity
  8
0
100
AcDbLine
 10
167.0
 20
72.84310000000001
 30
0.0
 11
167.1999999999999
 21
72.84310000000001
 31
0.0
  0
LINE
  5
1B1
330
1E
100
AcDbEntity
  8
0
100
AcDbLine
 10
167.0
 20
72.84310000000001
 30
0.0
 11
167.0
 21
84.60779999999999
 31
0.0
  0
LINE
  5
1B2
330
1E
100
AcDbEntity
  8
0
100
AcDbLine
 10
167.0
 20
84.60779999999999
 30
0.0
 11
167.0
 21
72.84310000000001
 31
0.0
  0
LINE
  5
1B3
330
1E
100
AcDbEntity
  8
0
100
AcDbLine
 10
167.0
 20
84.60779999999999
 30
0.0
 11
167.1999999999999
 21
84.60779999999999
 31
0.0
  0
LINE
  5
1B4
330
1E
100
AcDbEntity
  8
0
100
AcDbLine
 10
166.5
 20
85.0
 30
0.0
 11
167.0
 21
84.60779999999999
 31
0.0
  0
LINE
  5
1B5
330
1E
100
AcDbEntity
  8
0
100
AcDbLine
 10
166.5
 20
85.0
 30
0.0
 11
166.6999999999999
 21
85.0
 31
0.0
  0
LINE
  5
1B6
330
1E
100
AcDbEntity
  8
0
100
AcDbLine
 10
166.6999999999999
 20
85.0
 30
0.0
 11
166.8
 21
85.0
 31
0.0
  0
LINE
  5
1B7
330
1E
100
AcDbEntity
  8
0
100
AcDbLine
 10
166.8
 20
85.0
 30
0.0
 11
197.5
 21
85.0
 31
0.0
  0
LINE
  5
1B8
330
1E
100
AcDbEntity
  8
0
100
AcDbLine
 10
167.1999999999999
 20
84.60779999999999
 30
0.0
 11
167.4
 21
84.60779999999999
 31
0.0
  0
LINE
  5
1B9
330
1E
100
AcDbEntity
  8
0
100
AcDbLine
 10
167.4
 20
84.60779999999999
 30
0.0
 11
198.0
 21
84.60779999999999
 31
0.0
  0
LINE
  5
1BA
330
1E
100
AcDbEntity
  8
0
100
AcDbLine
 10
167.4
 20
84.60779999999999
 30
0.0
 11
167.4
 21
72.84310000000001
 31
0.0
  0
LINE
  5
1BB
330
1E
100
AcDbEntity
  8
0
100
AcDbLine
 10
167.1999999999999
 20
72.84310000000001
 30
0.0
 11
167.4
 21
72.84310000000001
 31
0.0
  0
LINE
  5
1BC
330
1E
100
AcDbEntity
  8
0
100
AcDbLine
 10
197.5
 20
85.0
 30
0.0
 11
198.0
 21
84.60779999999999
 31
0.0
  0
LINE
  5
1BD
330
1E
100
AcDbEntity
  8
0
100
AcDbLine
 10
167.4
 20
72.84310000000001
 30
0.0
 11
198.0
 21
72.84310000000001
 31
0.0
  0
LINE
  5
1BE
330
1E
100
AcDbEntity
  8
0
100
AcDbLine
 10
167.4
 20
72.84310000000001
 30
0.0
 11
167.4
 21
84.60779999999999
 31
0.0
  0
LINE
  5
1BF
330
1E
100
AcDbEntity
  8
0
100
AcDbLine
 10
166.8
 20
72.451
 30
0.0
 11
197.5
 21
72.451
 31
0.0
  0
LINE
  5
1C0
330
1E
100
AcDbEntity
  8
0
100
AcDbLine
 10
198.0
 20
84.60779999999999
 30
0.0
 11
198.0
 21
72.84310000000001
 31
0.0
  0
LINE
  5
1C1
330
1E
100
AcDbEntity
  8
0
100
AcDbLine
 10
198.0
 20
72.84310000000001
 30
0.0
 11
198.0
 21
84.60779999999999
 31
0.0
  0
LINE
  5
1C2
330
1E
100
AcDbEntity
  8
0
100
AcDbLine
 10
197.5
 20
72.451
 30
0.0
 11
198.0
 21
72.84310000000001
 31
0.0
  0
LINE
  5
1C3
330
1E
100
AcDbEntity
  8
0
100
AcDbLine
 10
167.5359999999999
 20
63.0
 30
0.0
 11
171.712
 21
63.0
 31
0.0
  0
LINE
  5
1C4
330
1E
100
AcDbEntity
  8
0
100
AcDbLine
 10
163.0
 20
63.0
 30
0.0
 11
167.5359999999999
 21
63.0
 31
0.0
  0
LINE
  5
1C5
330
1E
100
AcDbEntity
  8
0
100
AcDbLine
 10
181.0
 20
20.0
 30
0.0
 11
181.0
 21
62.28
 31
0.0
  0
LINE
  5
1C6
330
1E
100
AcDbEntity
  8
0
100
AcDbLine
 10
60.37600000000001
 20
20.0
 30
0.0
 11
61.0
 21
19.28
 31
0.0
  0
LINE
  5
1C7
330
1E
100
AcDbEntity
  8
0
100
AcDbLine
 10
61.0
 20
19.28
 30
0.0
 11
61.0
 21
12.0
 31
0.0
  0
LINE
  5
1C8
330
1E
100
AcDbEntity
  8
0
100
AcDbLine
 10
53.0
 20
20.0
 30
0.0
 11
53.0
 21
62.28
 31
0.0
  0
LINE
  5
1C9
330
1E
100
AcDbEntity
  8
0
100
AcDbLine
 10
57.016
 20
12.0
 30
0.0
 11
62.008
 21
12.0
 31
0.0
  0
LINE
  5
1CA
330
1E
100
AcDbEntity
  8
0
100
AcDbLine
 10
50.48799999999999
 20
12.0
 30
0.0
 11
57.016
 21
12.0
 31
0.0
  0
LINE
  5
1CB
330
1E
100
AcDbEntity
  8
0
100
AcDbLine
 10
50.872
 20
11.27999999999999
 30
0.0
 11
57.656
 21
11.27999999999999
 31
0.0
  0
LINE
  5
1CC
330
1E
100
AcDbEntity
  8
0
100
AcDbLine
 10
43.192
 20
11.27999999999999
 30
0.0
 11
50.872
 21
11.27999999999999
 31
0.0
  0
LINE
  5
1CD
330
1E
100
AcDbEntity
  8
0
100
AcDbLine
 10
43.192
 20
0.0000000000000005
 30
0.0
 11
50.872
 21
0.0000000000000003
 31
0.0
  0
LINE
  5
1CE
330
1E
100
AcDbEntity
  8
0
100
AcDbLine
 10
35.0
 20
0.0000000000000006
 30
0.0
 11
43.192
 21
0.0000000000000005
 31
0.0
  0
ENDSEC
  0
SECTION
  2
OBJECTS
  0
DICTIONARY
  5
C
330
0
100
AcDbDictionary
  3
ACAD_GROUP
350
D
  3
ACAD_LAYOUT
350
19
  3
ACAD_MLINESTYLE
350
16
  3
ACAD_PLOTSETTINGS
350
18
  3
ACAD_PLOTSTYLENAME
350
E
  3
ACDBHEADERROUNDTRIPXREC
350
1D6
  3
ACDBVARIABLEDICTIONARY
350
1D3
  0
DICTIONARY
  5
1F8
330
1E
100
AcDbDictionary
280
     1
  3
ACAD_LAYOUTSELFREF
360
1F9
  0
DICTIONARY
  5
1F6
330
1A
100
AcDbDictionary
280
     1
  3
ACAD_LAYOUTSELFREF
360
1F7
  0
DICTIONARY
  5
D
102
{ACAD_REACTORS
330
C
102
}
330
C
100
AcDbDictionary
  0
DICTIONARY
  5
19
102
{ACAD_REACTORS
330
C
102
}
330
C
100
AcDbDictionary
  0
DICTIONARY
  5
16
102
{ACAD_REACTORS
330
C
102
}
330
C
100
AcDbDictionary
  3
STANDARD
350
17
  0
DICTIONARY
  5
18
102
{ACAD_REACTORS
330
C
102
}
330
C
100
AcDbDictionary
  0
ACDBDICTIONARYWDFLT
  5
E
102
{ACAD_REACTORS
330
C
102
}
330
C
100
AcDbDictionary
281
     1
  3
Normal
350
F
100
AcDbDictionaryWithDefault
340
F
  0
DICTIONARY
  5
1D6
102
{ACAD_REACTORS
330
C
102
}
330
C
100
AcDbDictionary
  3
CEPSNTYPE
350
1E0
  3
FINGERPRINTGUID
350
1E1
  3
HYPERLINKBASE
350
1D9
  3
INSUNITS
350
1DF
  3
LAYOUTDICT
350
1DB
  3
LWETCUNION
350
1DE
  3
PLOTSETDICT
350
1DC
  3
PLOTSTYLNAMDICT
350
1DD
  3
PSVPSCALE
350
1E3
  3
PUCSBASE
350
1E6
  3
PUCSORGBACK
350
1EC
  3
PUCSORGBOTTOM
350
1E8
  3
PUCSORGFRONT
350
1EB
  3
PUCSORGLEFT
350
1E9
  3
PUCSORGRIGHT
350
1EA
  3
PUCSORGTOP
350
1E7
  3
PUCSORTHOREF
350
1E4
  3
PUCSORTHOVIEW
350
1E5
  3
STYLESHEET
350
1DA
  3
TSTACKALIGN
350
1D7
  3
TSTACKSIZE
350
1D8
  3
UCSBASE
350
1EF
  3
UCSORGBACK
350
1F5
  3
UCSORGBOTTOM
350
1F1
  3
UCSORGFRONT
350
1F4
  3
UCSORGLEFT
350
1F2
  3
UCSORGRIGHT
350
1F3
  3
UCSORGTOP
350
1F0
  3
UCSORTHOREF
350
1ED
  3
UCSORTHOVIEW
350
1EE
  3
VERSIONGUID
350
1E2
  0
DICTIONARY
  5
1D3
102
{ACAD_REACTORS
330
C
102
}
330
C
100
AcDbDictionary
  3
DIMASSOC
350
1D4
  0
XRECORD
  5
1F9
102
{ACAD_REACTORS
330
1F8
102
}
330
1F8
100
AcDbXrecord
340
1E
  0
XRECORD
  5
1F7
102
{ACAD_REACTORS
330
1F6
102
}
330
1F6
100
AcDbXrecord
340
1A
  0
MLINESTYLE
  5
17
102
{ACAD_REACTORS
330
16
102
}
330
16
100
AcDbMlineStyle
  2
STANDARD
 70
     0
  3

 62
   256
 51
90.0
 52
90.0
 71
     2
 49
0.5
 62
   256
  6
BYLAYER
 49
-0.5
 62
   256
  6
BYLAYER
  0
ACDBPLACEHOLDER
  5
F
102
{ACAD_REACTORS
330
E
102
}
330
E
100
AcDbPlaceHolder
280
     0
  0
XRECORD
  5
1E0
102
{ACAD_REACTORS
330
1D6
102
}
330
1D6
100
AcDbXrecord
 90
        0
  0
XRECORD
  5
1E1
102
{ACAD_REACTORS
330
1D6
102
}
330
1D6
100
AcDbXrecord
  1
{8527DC0B-8C72-4D29-820D-3F1DB2AEE263}
  0
XRECORD
  5
1D9
102
{ACAD_REACTORS
330
1D6
102
}
330
1D6
100
AcDbXrecord
  1

  0
XRECORD
  5
1DF
102
{ACAD_REACTORS
330
1D6
102
}
330
1D6
100
AcDbXrecord
 90
        0
  0
XRECORD
  5
1DB
102
{ACAD_REACTORS
330
1D6
102
}
330
1D6
100
AcDbXrecord
340
19
  0
XRECORD
  5
1DE
102
{ACAD_REACTORS
330
1D6
102
}
330
1D6
100
AcDbXrecord
 90
    10781
  0
XRECORD
  5
1DC
102
{ACAD_REACTORS
330
1D6
102
}
330
1D6
100
AcDbXrecord
340
18
  0
XRECORD
  5
1DD
102
{ACAD_REACTORS
330
1D6
102
}
330
1D6
100
AcDbXrecord
340
E
  0
XRECORD
  5
1E3
102
{ACAD_REACTORS
330
1D6
102
}
330
1D6
100
AcDbXrecord
 40
0.0
  0
XRECORD
  5
1E6
102
{ACAD_REACTORS
330
1D6
102
}
330
1D6
100
AcDbXrecord
340
0
  0
XRECORD
  5
1EC
102
{ACAD_REACTORS
330
1D6
102
}
330
1D6
100
AcDbXrecord
 10
0.0
 20
0.0
 30
0.0
  0
XRECORD
  5
1E8
102
{ACAD_REACTORS
330
1D6
102
}
330
1D6
100
AcDbXrecord
 10
0.0
 20
0.0
 30
0.0
  0
XRECORD
  5
1EB
102
{ACAD_REACTORS
330
1D6
102
}
330
1D6
100
AcDbXrecord
 10
0.0
 20
0.0
 30
0.0
  0
XRECORD
  5
1E9
102
{ACAD_REACTORS
330
1D6
102
}
330
1D6
100
AcDbXrecord
 10
0.0
 20
0.0
 30
0.0
  0
XRECORD
  5
1EA
102
{ACAD_REACTORS
330
1D6
102
}
330
1D6
100
AcDbXrecord
 10
0.0
 20
0.0
 30
0.0
  0
XRECORD
  5
1E7
102
{ACAD_REACTORS
330
1D6
102
}
330
1D6
100
AcDbXrecord
 10
0.0
 20
0.0
 30
0.0
  0
XRECORD
  5
1E4
102
{ACAD_REACTORS
330
1D6
102
}
330
1D6
100
AcDbXrecord
340
0
  0
XRECORD
  5
1E5
102
{ACAD_REACTORS
330
1D6
102
}
330
1D6
100
AcDbXrecord
 70
     0
  0
XRECORD
  5
1DA
102
{ACAD_REACTORS
330
1D6
102
}
330
1D6
100
AcDbXrecord
  1

  0
XRECORD
  5
1D7
102
{ACAD_REACTORS
330
1D6
102
}
330
1D6
100
AcDbXrecord
 90
        1
  0
XRECORD
  5
1D8
102
{ACAD_REACTORS
330
1D6
102
}
330
1D6
100
AcDbXrecord
 90
       70
  0
XRECORD
  5
1EF
102
{ACAD_REACTORS
330
1D6
102
}
330
1D6
100
AcDbXrecord
340
0
  0
XRECORD
  5
1F5
102
{ACAD_REACTORS
330
1D6
102
}
330
1D6
100
AcDbXrecord
 10
0.0
 20
0.0
 30
0.0
  0
XRECORD
  5
1F1
102
{ACAD_REACTORS
330
1D6
102
}
330
1D6
100
AcDbXrecord
 10
0.0
 20
0.0
 30
0.0
  0
XRECORD
  5
1F4
102
{ACAD_REACTORS
330
1D6
102
}
330
1D6
100
AcDbXrecord
 10
0.0
 20
0.0
 30
0.0
  0
XRECORD
  5
1F2
102
{ACAD_REACTORS
330
1D6
102
}
330
1D6
100
AcDbXrecord
 10
0.0
 20
0.0
 30
0.0
  0
XRECORD
  5
1F3
102
{ACAD_REACTORS
330
1D6
102
}
330
1D6
100
AcDbXrecord
 10
0.0
 20
0.0
 30
0.0
  0
XRECORD
  5
1F0
102
{ACAD_REACTORS
330
1D6
102
}
330
1D6
100
AcDbXrecord
 10
0.0
 20
0.0
 30
0.0
  0
XRECORD
  5
1ED
102
{ACAD_REACTORS
330
1D6
102
}
330
1D6
100
AcDbXrecord
340
0
  0
XRECORD
  5
1EE
102
{ACAD_REACTORS
330
1D6
102
}
330
1D6
100
AcDbXrecord
 70
     1
  0
XRECORD
  5
1E2
102
{ACAD_REACTORS
330
1D6
102
}
330
1D6
100
AcDbXrecord
  1
{59F958DD-1C32-4848-A462-45434AD11B0F}
  0
DICTIONARYVAR
  5
1D4
102
{ACAD_REACTORS
330
1D3
102
}
330
1D3
100
DictionaryVariables
280
     0
  1
1
  0
ENDSEC
  0
EOF
