  0
SECTION
  2
HEADER
  9
$ACADVER
  1
AC1009
  9
$INSBASE
 10
0.0
 20
0.0
 30
0.0
  9
$EXTMIN
 10
0.0
 20
-0.0000000000000026
 30
0.0
  9
$EXTMAX
 10
84.0
 20
153.0
 30
0.0
  9
$LIMMIN
 10
0.0
 20
0.0
  9
$LIMMAX
 10
12.0
 20
9.0
  9
$ORTHOMODE
 70
     0
  9
$REGENMODE
 70
     1
  9
$FILLMODE
 70
     1
  9
$QTEXTMODE
 70
     0
  9
$MIRRTEXT
 70
     1
  9
$DRAGMODE
 70
     2
  9
$LTSCALE
 40
1.0
  9
$OSMODE
 70
    37
  9
$ATTMODE
 70
     1
  9
$TEXTSIZE
 40
0.2
  9
$TRACEWID
 40
0.05
  9
$TEXTSTYLE
  7
STANDARD
  9
$CLAYER
  8
0
  9
$CELTYPE
  6
CONTINUOUS
  9
$CECOLOR
 62
   256
  9
$DIMSCALE
 40
1.0
  9
$DIMASZ
 40
0.18
  9
$DIMEXO
 40
0.0625
  9
$DIMDLI
 40
0.38
  9
$DIMRND
 40
0.0
  9
$DIMDLE
 40
0.0
  9
$DIMEXE
 40
0.18
  9
$DIMTP
 40
0.0
  9
$DIMTM
 40
0.0
  9
$DIMTXT
 40
0.18
  9
$DIMCEN
 40
0.09
  9
$DIMTSZ
 40
0.0
  9
$DIMTOL
 70
     0
  9
$DIMLIM
 70
     0
  9
$DIMTIH
 70
     1
  9
$DIMTOH
 70
     1
  9
$DIMSE1
 70
     0
  9
$DIMSE2
 70
     0
  9
$DIMTAD
 70
     0
  9
$DIMZIN
 70
     0
  9
$DIMBLK
  1

  9
$DIMASO
 70
     1
  9
$DIMSHO
 70
     1
  9
$DIMPOST
  1

  9
$DIMAPOST
  1

  9
$DIMALT
 70
     0
  9
$DIMALTD
 70
     2
  9
$DIMALTF
 40
25.399999999999999
  9
$DIMLFAC
 40
1.0
  9
$DIMTOFL
 70
     0
  9
$DIMTVP
 40
0.0
  9
$DIMTIX
 70
     0
  9
$DIMSOXD
 70
     0
  9
$DIMSAH
 70
     0
  9
$DIMBLK1
  1

  9
$DIMBLK2
  1

  9
$DIMSTYLE
  2
STANDARD
  9
$DIMCLRD
 70
     0
  9
$DIMCLRE
 70
     0
  9
$DIMCLRT
 70
     0
  9
$DIMTFAC
 40
1.0
  9
$DIMGAP
 40
0.09
  9
$LUNITS
 70
     2
  9
$LUPREC
 70
     4
  9
$SKETCHINC
 40
0.1
  9
$FILLETRAD
 40
0.0
  9
$AUNITS
 70
     0
  9
$AUPREC
 70
     0
  9
$MENU
  1
.
  9
$ELEVATION
 40
0.0
  9
$PELEVATION
 40
0.0
  9
$THICKNESS
 40
0.0
  9
$LIMCHECK
 70
     0
  9
$BLIPMODE
 70
     0
  9
$CHAMFERA
 40
0.0
  9
$CHAMFERB
 40
0.0
  9
$SKPOLY
 70
     0
  9
$TDCREATE
 40
2454674.6246090038
  9
$TDUPDATE
 40
2454674.6263901498
  9
$TDINDWG
 40
0.001781331
  9
$TDUSRTIMER
 40
0.001781331
  9
$USRTIMER
 70
     1
  9
$ANGBASE
 50
0.0
  9
$ANGDIR
 70
     0
  9
$PDMODE
 70
     0
  9
$PDSIZE
 40
0.0
  9
$PLINEWID
 40
0.0
  9
$COORDS
 70
     1
  9
$SPLFRAME
 70
     0
  9
$SPLINETYPE
 70
     6
  9
$SPLINESEGS
 70
     8
  9
$ATTDIA
 70
     0
  9
$ATTREQ
 70
     1
  9
$HANDLING
 70
 22529
  9
$HANDSEED
  5
372
  9
$SURFTAB1
 70
     6
  9
$SURFTAB2
 70
     6
  9
$SURFTYPE
 70
     6
  9
$SURFU
 70
     6
  9
$SURFV
 70
     6
  9
$UCSNAME
  2

  9
$UCSORG
 10
0.0
 20
0.0
 30
0.0
  9
$UCSXDIR
 10
1.0
 20
0.0
 30
0.0
  9
$UCSYDIR
 10
0.0
 20
1.0
 30
0.0
  9
$PUCSNAME
  2

  9
$PUCSORG
 10
0.0
 20
0.0
 30
0.0
  9
$PUCSXDIR
 10
1.0
 20
0.0
 30
0.0
  9
$PUCSYDIR
 10
0.0
 20
1.0
 30
0.0
  9
$USERI1
 70
     0
  9
$USERI2
 70
     0
  9
$USERI3
 70
     0
  9
$USERI4
 70
     0
  9
$USERI5
 70
     0
  9
$USERR1
 40
0.0
  9
$USERR2
 40
0.0
  9
$USERR3
 40
0.0
  9
$USERR4
 40
0.0
  9
$USERR5
 40
0.0
  9
$WORLDVIEW
 70
     1
  9
$SHADEDGE
 70
     3
  9
$SHADEDIF
 70
    70
  9
$TILEMODE
 70
     1
  9
$MAXACTVP
 70
    64
  9
$PLIMCHECK
 70
     0
  9
$PEXTMIN
 10
1.0000000000000000E+020
 20
1.0000000000000000E+020
 30
1.0000000000000000E+020
  9
$PEXTMAX
 10
-1.0000000000000000E+020
 20
-1.0000000000000000E+020
 30
-1.0000000000000000E+020
  9
$PLIMMIN
 10
0.0
 20
0.0
  9
$PLIMMAX
 10
12.0
 20
9.0
  9
$UNITMODE
 70
     0
  9
$VISRETAIN
 70
     1
  9
$PLINEGEN
 70
     0
  9
$PSLTSCALE
 70
     1
  0
ENDSEC
  0
SECTION
  2
TABLES
  0
TABLE
  2
VPORT
 70
     3
  0
VPORT
  2
*ACTIVE
 70
     0
 10
0.0
 20
0.0
 11
1.0
 21
1.0
 12
42.0
 22
76.5
 13
0.0
 23
0.0
 14
1.0
 24
1.0
 15
0.0
 25
0.0
 16
0.0
 26
0.0
 36
1.0
 17
0.0
 27
0.0
 37
0.0
 40
154.17391304347819
 41
2.0435339308578739
 42
50.0
 43
0.0
 44
0.0
 50
0.0
 51
0.0
 71
     0
 72
   100
 73
     1
 74
     3
 75
     0
 76
     0
 77
     0
 78
     0
  0
ENDTAB
  0
TABLE
  2
LTYPE
 70
     1
  0
LTYPE
  2
CONTINUOUS
 70
     0
  3
Solid line
 72
    65
 73
     0
 40
0.0
  0
ENDTAB
  0
TABLE
  2
LAYER
 70
     1
  0
LAYER
  2
0
 70
     0
 62
     7
  6
CONTINUOUS
  0
ENDTAB
  0
TABLE
  2
STYLE
 70
     1
  0
STYLE
  2
STANDARD
 70
     0
 40
0.0
 41
1.0
 50
0.0
 71
     0
 42
0.2
  3
txt
  4

  0
ENDTAB
  0
TABLE
  2
VIEW
 70
     0
  0
ENDTAB
  0
TABLE
  2
UCS
 70
     0
  0
ENDTAB
  0
TABLE
  2
APPID
 70
     1
  0
APPID
  2
ACAD
 70
     0
  0
ENDTAB
  0
TABLE
  2
DIMSTYLE
 70
     1
  0
DIMSTYLE
  2
STANDARD
 70
     0
  3

  4

  5

  6

  7

 40
1.0
 41
0.18
 42
0.0625
 43
0.38
 44
0.18
 45
0.0
 46
0.0
 47
0.0
 48
0.0
140
0.18
141
0.09
142
0.0
143
25.399999999999999
144
1.0
145
0.0
146
1.0
147
0.09
 71
     0
 72
     0
 73
     1
 74
     1
 75
     0
 76
     0
 77
     0
 78
     0
170
     0
171
     2
172
     0
173
     0
174
     0
175
     0
176
     0
177
     0
178
     0
  0
ENDTAB
  0
ENDSEC
  0
SECTION
  2
BLOCKS
  0
BLOCK
  8
0
  2
$MODEL_SPACE
 70
     0
 10
0.0
 20
0.0
 30
0.0
  3
$MODEL_SPACE
  1

  0
ENDBLK
  5
20
  8
0
  0
BLOCK
 67
     1
  8
0
  2
$PAPER_SPACE
 70
     0
 10
0.0
 20
0.0
 30
0.0
  3
$PAPER_SPACE
  1

  0
ENDBLK
  5
1C
 67
     1
  8
0
  0
ENDSEC
  0
SECTION
  2
ENTITIES
  0
LINE
  5
22
  8
0
 10
6.5617599999999996
 20
19.029399999999999
 30
0.0
 11
8.2294100000000014
 21
18.350000000000001
 31
0.0
  0
LINE
  5
23
  8
0
 10
6.5205900000000003
 20
18.947099999999988
 30
0.0
 11
8.2088199999999993
 21
18.247099999999989
 31
0.0
  0
LINE
  5
24
  8
0
 10
5.04
 20
16.32
 30
0.0
 11
7.4400000000000004
 21
15.359999999999999
 31
0.0
  0
LINE
  5
25
  8
0
 10
2.919999999999999
 20
17.920000000000002
 30
0.0
 11
5.04
 21
16.32
 31
0.0
  0
LINE
  5
26
  8
0
 10
3.1029399999999998
 20
25.0
 30
0.0
 11
3.3500000000000001
 21
23.229399999999998
 31
0.0
  0
LINE
  5
27
  8
0
 10
3.1029399999999998
 20
25.0
 30
0.0
 11
3.3500000000000001
 21
26.770600000000002
 31
0.0
  0
LINE
  5
28
  8
0
 10
5.1205899999999991
 20
20.120599999999989
 30
0.0
 11
6.5617599999999996
 21
19.029399999999999
 31
0.0
  0
LINE
  5
29
  8
0
 10
5.058819999999999
 20
20.058800000000002
 30
0.0
 11
6.5205900000000003
 21
18.947099999999988
 31
0.0
  0
LINE
  5
2A
  8
0
 10
4.0294099999999986
 20
21.561800000000002
 30
0.0
 11
5.1205899999999991
 21
20.120599999999989
 31
0.0
  0
LINE
  5
2B
  8
0
 10
3.3500000000000001
 20
23.229399999999998
 30
0.0
 11
4.0294099999999986
 21
21.561800000000002
 31
0.0
  0
LINE
  5
2C
  8
0
 10
3.94706
 20
21.520600000000002
 30
0.0
 11
5.058819999999999
 21
20.058800000000002
 31
0.0
  0
LINE
  5
2D
  8
0
 10
3.2470599999999989
 20
23.2088
 30
0.0
 11
3.94706
 21
21.520600000000002
 31
0.0
  0
LINE
  5
2E
  8
0
 10
3.0
 20
25.0
 30
0.0
 11
3.2470599999999989
 21
26.7912
 31
0.0
  0
LINE
  5
2F
  8
0
 10
0.36
 20
22.440000000000001
 30
0.0
 11
1.3200000000000001
 21
20.039999999999999
 31
0.0
  0
LINE
  5
30
  8
0
 10
1.3200000000000001
 20
20.039999999999999
 30
0.0
 11
2.919999999999999
 21
17.920000000000002
 31
0.0
  0
LINE
  5
31
  8
0
 10
0.36
 20
22.440000000000001
 30
0.0
 11
1.3200000000000001
 21
20.039999999999999
 31
0.0
  0
LINE
  5
32
  8
0
 10
0.36
 20
27.559999999999999
 30
0.0
 11
6.1733500000000001
 21
40.902299999999997
 31
0.0
  0
LINE
  5
33
  8
0
 10
3.3500000000000001
 20
26.770600000000002
 30
0.0
 11
4.0294099999999986
 21
28.438199999999998
 31
0.0
  0
LINE
  5
34
  8
0
 10
4.0294099999999986
 20
28.438199999999998
 30
0.0
 11
5.1205899999999991
 21
29.8794
 31
0.0
  0
LINE
  5
35
  8
0
 10
3.94706
 20
28.479399999999991
 30
0.0
 11
5.058819999999999
 21
29.941199999999998
 31
0.0
  0
LINE
  5
36
  8
0
 10
3.94706
 20
28.479399999999991
 30
0.0
 11
5.058819999999999
 21
29.941199999999998
 31
0.0
  0
LINE
  5
37
  8
0
 10
3.2470599999999989
 20
26.7912
 30
0.0
 11
3.94706
 21
28.479399999999991
 31
0.0
  0
LINE
  5
38
  8
0
 10
5.1205899999999991
 20
29.8794
 30
0.0
 11
6.5617599999999996
 21
30.970600000000001
 31
0.0
  0
LINE
  5
39
  8
0
 10
6.5617599999999996
 20
30.970600000000001
 30
0.0
 11
8.2294100000000014
 21
31.649999999999999
 31
0.0
  0
LINE
  5
3A
  8
0
 10
5.058819999999999
 20
29.941199999999998
 30
0.0
 11
6.5205900000000003
 21
31.052900000000001
 31
0.0
  0
LINE
  5
3B
  8
0
 10
6.5205900000000003
 20
31.052900000000001
 30
0.0
 11
8.2088199999999993
 21
31.7529
 31
0.0
  0
LINE
  5
3C
  8
0
 10
0.36
 20
27.559999999999999
 30
0.0
 11
6.1733500000000001
 21
40.902299999999997
 31
0.0
  0
LINE
  5
3D
  8
0
 10
0.0
 20
25.0
 30
0.0
 11
0.36
 21
22.440000000000001
 31
0.0
  0
LINE
  5
3E
  8
0
 10
0.0
 20
25.0
 30
0.0
 11
0.36
 21
27.559999999999999
 31
0.0
  0
LINE
  5
3F
  8
0
 10
15.752000000000001
 20
2.7519999999999989
 30
0.0
 11
17.024000000000001
 21
1.7919999999999989
 31
0.0
  0
LINE
  5
40
  8
0
 10
18.463999999999999
 20
1.2159999999999991
 30
0.0
 11
20.0
 21
0.999999999999996
 31
0.0
  0
LINE
  5
41
  8
0
 10
20.0
 20
0.999999999999996
 30
0.0
 11
21.535999999999991
 21
1.2159999999999991
 31
0.0
  0
LINE
  5
42
  8
0
 10
21.535999999999991
 20
1.2159999999999991
 30
0.0
 11
22.975999999999999
 21
1.7919999999999989
 31
0.0
  0
LINE
  5
43
  8
0
 10
20.0
 20
0.9999999999999948
 30
0.0
 11
21.535999999999991
 21
1.2159999999999991
 31
0.0
  0
LINE
  5
44
  8
0
 10
18.463999999999999
 20
1.2159999999999991
 30
0.0
 11
20.0
 21
0.9999999999999948
 31
0.0
  0
LINE
  5
45
  8
0
 10
22.975999999999999
 20
1.7919999999999989
 30
0.0
 11
24.248000000000001
 21
2.7519999999999989
 31
0.0
  0
LINE
  5
46
  8
0
 10
24.248000000000001
 20
2.7519999999999989
 30
0.0
 11
25.207999999999998
 21
4.024
 31
0.0
  0
LINE
  5
47
  8
0
 10
17.024000000000001
 20
1.7919999999999989
 30
0.0
 11
18.463999999999999
 21
1.2159999999999991
 31
0.0
  0
LINE
  5
48
  8
0
 10
17.024000000000001
 20
1.7919999999999989
 30
0.0
 11
18.463999999999999
 21
1.2159999999999991
 31
0.0
  0
LINE
  5
49
  8
0
 10
15.752000000000001
 20
2.7519999999999989
 30
0.0
 11
17.024000000000001
 21
1.7919999999999989
 31
0.0
  0
LINE
  5
4A
  8
0
 10
25.783999999999999
 20
5.4639999999999986
 30
0.0
 11
26.0
 21
7.0
 31
0.0
  0
LINE
  5
4B
  8
0
 10
25.207999999999998
 20
4.024
 30
0.0
 11
25.783999999999999
 21
5.4639999999999986
 31
0.0
  0
LINE
  5
4C
  8
0
 10
14.792
 20
4.024
 30
0.0
 11
15.752000000000001
 21
2.7519999999999989
 31
0.0
  0
LINE
  5
4D
  8
0
 10
14.792
 20
4.0239999999999903
 30
0.0
 11
15.752000000000001
 21
2.7519999999999989
 31
0.0
  0
LINE
  5
4E
  8
0
 10
14.21599999999999
 20
5.4639999999999986
 30
0.0
 11
14.792
 21
4.0239999999999903
 31
0.0
  0
LINE
  5
4F
  8
0
 10
14.21599999999999
 20
5.4639999999999986
 30
0.0
 11
14.792
 21
4.024
 31
0.0
  0
LINE
  5
50
  8
0
 10
14.21599999999999
 20
8.5359999999999907
 30
0.0
 11
16.349616189811599
 21
15.0
 31
0.0
  0
LINE
  5
51
  8
0
 10
14.21599999999999
 20
8.5359999999999907
 30
0.0
 11
18.0
 21
20.0
 31
0.0
  0
LINE
  5
52
  8
0
 10
25.253
 20
11.3535
 30
0.0
 11
26.0
 21
12.69891242129359
 31
0.0
  0
LINE
  5
53
  8
0
 10
25.207999999999998
 20
9.9760000000000009
 30
0.0
 11
25.783999999999999
 21
8.5359999999999996
 31
0.0
  0
LINE
  5
54
  8
0
 10
25.207999999999998
 20
9.9760000000000009
 30
0.0
 11
25.253
 21
11.3535
 31
0.0
  0
LINE
  5
55
  8
0
 10
25.783999999999999
 20
8.5359999999999996
 30
0.0
 11
26.0
 21
7.0
 31
0.0
  0
LINE
  5
56
  8
0
 10
14.21599999999999
 20
8.5359999999999996
 30
0.0
 11
16.349616189811599
 21
15.0
 31
0.0
  0
LINE
  5
57
  8
0
 10
14.21599999999999
 20
8.5359999999999996
 30
0.0
 11
18.0
 21
20.0
 31
0.0
  0
LINE
  5
58
  8
0
 10
14.0
 20
7.0
 30
0.0
 11
14.21599999999999
 21
5.4639999999999986
 31
0.0
  0
LINE
  5
59
  8
0
 10
14.0
 20
7.0
 30
0.0
 11
14.21599999999999
 21
8.5359999999999996
 31
0.0
  0
LINE
  5
5A
  8
0
 10
26.576000000000001
 20
12.0
 30
0.0
 11
28.111999999999991
 21
12.0
 31
0.0
  0
LINE
  5
5B
  8
0
 10
26.576000000000001
 20
12.0
 30
0.0
 11
28.111999999999991
 21
12.0
 31
0.0
  0
LINE
  5
5C
  8
0
 10
10.0
 20
15.0
 30
0.0
 11
16.349616189811599
 21
15.0
 31
0.0
  0
LINE
  5
5D
  8
0
 10
11.770599999999989
 20
18.350000000000001
 30
0.0
 11
13.4382
 21
19.029399999999999
 31
0.0
  0
LINE
  5
5E
  8
0
 10
10.0
 20
18.102900000000002
 30
0.0
 11
11.770599999999989
 21
18.350000000000001
 31
0.0
  0
LINE
  5
5F
  8
0
 10
11.791199999999989
 20
18.247099999999989
 30
0.0
 11
13.4794
 21
18.947099999999988
 31
0.0
  0
LINE
  5
60
  8
0
 10
13.4382
 20
19.029399999999999
 30
0.0
 11
14.8794
 21
20.120599999999989
 31
0.0
  0
LINE
  5
61
  8
0
 10
8.2294100000000014
 20
18.350000000000001
 30
0.0
 11
10.0
 21
18.102900000000002
 31
0.0
  0
LINE
  5
62
  8
0
 10
8.2088199999999993
 20
18.247099999999989
 30
0.0
 11
10.0
 21
18.0
 31
0.0
  0
LINE
  5
63
  8
0
 10
10.0
 20
15.0
 30
0.0
 11
16.349616189811599
 21
15.0
 31
0.0
  0
LINE
  5
64
  8
0
 10
7.4400000000000004
 20
15.359999999999999
 30
0.0
 11
10.0
 21
15.0
 31
0.0
  0
LINE
  5
65
  8
0
 10
8.2294100000000014
 20
31.649999999999999
 30
0.0
 11
10.0
 21
31.897099999999991
 31
0.0
  0
LINE
  5
66
  8
0
 10
8.2088199999999993
 20
31.7529
 30
0.0
 11
10.0
 21
32.0
 31
0.0
  0
LINE
  5
67
  8
0
 10
10.0
 20
31.897099999999991
 30
0.0
 11
11.770599999999989
 21
31.649999999999999
 31
0.0
  0
LINE
  5
68
  8
0
 10
13.4382
 20
30.970600000000001
 30
0.0
 11
14.8794
 21
29.8794
 31
0.0
  0
LINE
  5
69
  8
0
 10
11.770599999999989
 20
31.649999999999999
 30
0.0
 11
13.4382
 21
30.970600000000001
 31
0.0
  0
LINE
  5
6A
  8
0
 10
14.8794
 20
29.8794
 30
0.0
 11
15.97059999999999
 21
28.438199999999998
 31
0.0
  0
LINE
  5
6B
  8
0
 10
14.9412
 20
29.941199999999998
 30
0.0
 11
16.052900000000001
 21
28.479399999999991
 31
0.0
  0
LINE
  5
6C
  8
0
 10
13.4794
 20
31.052900000000001
 30
0.0
 11
14.9412
 21
29.941199999999998
 31
0.0
  0
LINE
  5
6D
  8
0
 10
11.791199999999989
 20
31.7529
 30
0.0
 11
13.4794
 21
31.052900000000001
 31
0.0
  0
LINE
  5
6E
  8
0
 10
10.0
 20
32.0
 30
0.0
 11
11.791199999999989
 21
31.7529
 31
0.0
  0
LINE
  5
6F
  8
0
 10
14.8794
 20
20.120599999999989
 30
0.0
 11
15.97059999999999
 21
21.561800000000002
 31
0.0
  0
LINE
  5
70
  8
0
 10
15.97059999999999
 20
21.561800000000002
 30
0.0
 11
16.649999999999999
 21
23.229399999999998
 31
0.0
  0
LINE
  5
71
  8
0
 10
15.97059999999999
 20
28.438199999999998
 30
0.0
 11
16.649999999999999
 21
26.770600000000002
 31
0.0
  0
LINE
  5
72
  8
0
 10
16.649999999999999
 20
26.770600000000002
 30
0.0
 11
16.897099999999991
 21
25.0
 31
0.0
  0
LINE
  5
73
  8
0
 10
16.052900000000001
 20
28.479399999999991
 30
0.0
 11
16.7529
 21
26.7912
 31
0.0
  0
LINE
  5
74
  8
0
 10
16.7529
 20
26.7912
 30
0.0
 11
17.0
 21
25.0
 31
0.0
  0
LINE
  5
75
  8
0
 10
16.649999999999999
 20
23.229399999999998
 30
0.0
 11
16.897099999999991
 21
25.0
 31
0.0
  0
LINE
  5
76
  8
0
 10
14.9412
 20
20.058800000000002
 30
0.0
 11
16.052900000000001
 21
21.520600000000002
 31
0.0
  0
LINE
  5
77
  8
0
 10
18.0
 20
20.0
 30
0.0
 11
19.0
 21
20.800000000000001
 31
0.0
  0
LINE
  5
78
  8
0
 10
26.0
 20
35.0
 30
0.0
 11
26.0
 21
12.0
 31
0.0
  0
LINE
  5
79
  8
0
 10
19.0
 20
20.800000000000001
 30
0.0
 11
26.0
 21
20.800000000000001
 31
0.0
  0
LINE
  5
7A
  8
0
 10
26.0
 20
12.69891242129359
 30
0.0
 11
26.0
 21
12.0
 31
0.0
  0
LINE
  5
7B
  8
0
 10
26.0
 20
35.0
 30
0.0
 11
26.0
 21
12.0
 31
0.0
  0
LINE
  5
7C
  8
0
 10
26.0
 20
12.0
 30
0.0
 11
26.0
 21
12.69891242129359
 31
0.0
  0
LINE
  5
7D
  8
0
 10
26.0
 20
12.0
 30
0.0
 11
32.0
 21
12.0
 31
0.0
  0
LINE
  5
7E
  8
0
 10
26.0
 20
12.0
 30
0.0
 11
26.576000000000001
 21
12.0
 31
0.0
  0
LINE
  5
7F
  8
0
 10
26.0
 20
12.0
 30
0.0
 11
26.0
 21
35.0
 31
0.0
  0
LINE
  5
80
  8
0
 10
7.0
 20
35.0
 30
0.0
 11
7.0
 21
35.611999999999988
 31
0.0
  0
LINE
  5
81
  8
0
 10
7.0
 20
35.0
 30
0.0
 11
26.101907692307702
 21
35.0
 31
0.0
  0
LINE
  5
82
  8
0
 10
7.0
 20
37.428600000000003
 30
0.0
 11
7.0
 21
37.953099999999999
 31
0.0
  0
LINE
  5
83
  8
0
 10
6.1733500000000001
 20
40.902299999999997
 30
0.0
 11
6.3945299999999996
 21
41.178600000000003
 31
0.0
  0
LINE
  5
84
  8
0
 10
6.1733500000000001
 20
40.902299999999997
 30
0.0
 11
7.0
 21
41.480551858192591
 31
0.0
  0
LINE
  5
85
  8
0
 10
6.3945299999999996
 20
41.178600000000003
 30
0.0
 11
7.0
 21
41.5483313112234
 31
0.0
  0
LINE
  5
86
  8
0
 10
7.0
 20
43.567999999999998
 30
0.0
 11
7.0
 21
47.648000000000003
 31
0.0
  0
LINE
  5
87
  8
0
 10
7.0
 20
43.567999999999998
 30
0.0
 11
7.0
 21
41.480551858192591
 31
0.0
  0
LINE
  5
88
  8
0
 10
7.0
 20
41.480551858192591
 30
0.0
 11
7.0
 21
43.567999999999998
 31
0.0
  0
LINE
  5
89
  8
0
 10
7.0
 20
39.963999999999992
 30
0.0
 11
7.0
 21
37.244
 31
0.0
  0
LINE
  5
8A
  8
0
 10
7.0
 20
41.683399999999992
 30
0.0
 11
7.0
 21
39.351999999999997
 31
0.0
  0
LINE
  5
8B
  8
0
 10
7.0
 20
41.683399999999992
 30
0.0
 11
7.0
 21
44.772599999999997
 31
0.0
  0
LINE
  5
8C
  8
0
 10
7.0
 20
41.683399999999992
 30
0.0
 11
7.0
 21
44.772599999999997
 31
0.0
  0
LINE
  5
8D
  8
0
 10
7.0
 20
39.351999999999997
 30
0.0
 11
7.0
 21
37.953099999999999
 31
0.0
  0
LINE
  5
8E
  8
0
 10
7.0
 20
39.351999999999997
 30
0.0
 11
7.0
 21
41.683399999999992
 31
0.0
  0
LINE
  5
8F
  8
0
 10
7.0
 20
37.953099999999999
 30
0.0
 11
7.0
 21
37.428600000000003
 31
0.0
  0
LINE
  5
90
  8
0
 10
7.0
 20
37.953099999999999
 30
0.0
 11
7.0
 21
39.351999999999997
 31
0.0
  0
LINE
  5
91
  8
0
 10
7.0
 20
44.772599999999997
 30
0.0
 11
7.0
 21
41.683399999999992
 31
0.0
  0
LINE
  5
92
  8
0
 10
7.0
 20
44.772599999999997
 30
0.0
 11
7.0
 21
48.2697
 31
0.0
  0
LINE
  5
93
  8
0
 10
7.0
 20
47.648000000000003
 30
0.0
 11
7.0
 21
52.0
 31
0.0
  0
LINE
  5
94
  8
0
 10
7.0
 20
47.648000000000003
 30
0.0
 11
7.0
 21
43.567999999999998
 31
0.0
  0
LINE
  5
95
  8
0
 10
7.0
 20
48.2697
 30
0.0
 11
7.0
 21
44.772599999999997
 31
0.0
  0
LINE
  5
96
  8
0
 10
7.0
 20
48.2697
 30
0.0
 11
7.0
 21
52.0
 31
0.0
  0
LINE
  5
97
  8
0
 10
7.0
 20
52.0
 30
0.0
 11
7.0
 21
55.7303
 31
0.0
  0
LINE
  5
98
  8
0
 10
7.0
 20
52.0
 30
0.0
 11
7.0
 21
56.351999999999997
 31
0.0
  0
LINE
  5
99
  8
0
 10
7.0
 20
52.0
 30
0.0
 11
7.0
 21
48.2697
 31
0.0
  0
LINE
  5
9A
  8
0
 10
7.0
 20
52.0
 30
0.0
 11
7.0
 21
47.648000000000003
 31
0.0
  0
LINE
  5
9B
  8
0
 10
7.0
 20
55.7303
 30
0.0
 11
7.0
 21
59.22740000000001
 31
0.0
  0
LINE
  5
9C
  8
0
 10
7.0
 20
55.7303
 30
0.0
 11
7.0
 21
52.0
 31
0.0
  0
LINE
  5
9D
  8
0
 10
7.0
 20
59.22740000000001
 30
0.0
 11
7.0
 21
62.316600000000001
 31
0.0
  0
LINE
  5
9E
  8
0
 10
7.0
 20
59.22740000000001
 30
0.0
 11
7.0
 21
55.7303
 31
0.0
  0
LINE
  5
9F
  8
0
 10
7.0
 20
56.351999999999997
 30
0.0
 11
7.0
 21
52.0
 31
0.0
  0
LINE
  5
A0
  8
0
 10
7.0
 20
56.351999999999997
 30
0.0
 11
7.0
 21
60.431999999999988
 31
0.0
  0
LINE
  5
A1
  8
0
 10
7.0
 20
60.431999999999988
 30
0.0
 11
7.0
 21
56.351999999999997
 31
0.0
  0
LINE
  5
A2
  8
0
 10
7.0
 20
60.431999999999988
 30
0.0
 11
7.0
 21
64.036000000000001
 31
0.0
  0
LINE
  5
A3
  8
0
 10
7.0
 20
56.351999999999997
 30
0.0
 11
7.0
 21
52.0
 31
0.0
  0
LINE
  5
A4
  8
0
 10
7.0
 20
56.351999999999997
 30
0.0
 11
7.0
 21
60.431999999999988
 31
0.0
  0
LINE
  5
A5
  8
0
 10
7.0
 20
64.036000000000001
 30
0.0
 11
7.0
 21
60.431999999999988
 31
0.0
  0
LINE
  5
A6
  8
0
 10
7.0
 20
64.036000000000001
 30
0.0
 11
7.0
 21
66.756
 31
0.0
  0
LINE
  5
A7
  8
0
 10
7.0
 20
64.036000000000001
 30
0.0
 11
7.0
 21
69.0
 31
0.0
  0
LINE
  5
A8
  8
0
 10
7.0
 20
60.431999999999988
 30
0.0
 11
7.0
 21
56.351999999999997
 31
0.0
  0
LINE
  5
A9
  8
0
 10
7.0
 20
60.431999999999988
 30
0.0
 11
7.0
 21
64.036000000000001
 31
0.0
  0
LINE
  5
AA
  8
0
 10
7.0
 20
55.7303
 30
0.0
 11
7.0
 21
59.22740000000001
 31
0.0
  0
LINE
  5
AB
  8
0
 10
7.0
 20
55.7303
 30
0.0
 11
7.0
 21
52.0
 31
0.0
  0
LINE
  5
AC
  8
0
 10
7.0
 20
66.571399999999997
 30
0.0
 11
7.0
 21
66.046899999999994
 31
0.0
  0
LINE
  5
AD
  8
0
 10
7.0
 20
64.036000000000001
 30
0.0
 11
7.0
 21
60.431999999999988
 31
0.0
  0
LINE
  5
AE
  8
0
 10
7.0
 20
64.036000000000001
 30
0.0
 11
7.0
 21
66.756
 31
0.0
  0
LINE
  5
AF
  8
0
 10
7.0
 20
59.22740000000001
 30
0.0
 11
7.0
 21
62.316600000000001
 31
0.0
  0
LINE
  5
B0
  8
0
 10
7.0
 20
59.22740000000001
 30
0.0
 11
7.0
 21
55.7303
 31
0.0
  0
LINE
  5
B1
  8
0
 10
7.0
 20
66.756
 30
0.0
 11
7.0
 21
64.036000000000001
 31
0.0
  0
LINE
  5
B2
  8
0
 10
7.0
 20
66.756
 30
0.0
 11
7.0
 21
68.388000000000005
 31
0.0
  0
LINE
  5
B3
  8
0
 10
7.0
 20
66.756
 30
0.0
 11
7.0
 21
64.036000000000001
 31
0.0
  0
LINE
  5
B4
  8
0
 10
7.0
 20
62.316600000000001
 30
0.0
 11
7.0
 21
64.647999999999996
 31
0.0
  0
LINE
  5
B5
  8
0
 10
7.0
 20
62.316600000000001
 30
0.0
 11
7.0
 21
59.22740000000001
 31
0.0
  0
LINE
  5
B6
  8
0
 10
7.0
 20
62.316600000000001
 30
0.0
 11
7.0
 21
59.22740000000001
 31
0.0
  0
LINE
  5
B7
  8
0
 10
7.0
 20
69.0
 30
0.0
 11
7.0
 21
64.036000000000001
 31
0.0
  0
LINE
  5
B8
  8
0
 10
7.0
 20
69.0
 30
0.0
 11
26.252553846153798
 21
69.0
 31
0.0
  0
LINE
  5
B9
  8
0
 10
7.0
 20
68.388000000000005
 30
0.0
 11
7.0
 21
66.756
 31
0.0
  0
LINE
  5
BA
  8
0
 10
7.0
 20
68.388000000000005
 30
0.0
 11
7.0
 21
69.0
 31
0.0
  0
LINE
  5
BB
  8
0
 10
7.0
 20
64.647999999999996
 30
0.0
 11
7.0
 21
66.046899999999994
 31
0.0
  0
LINE
  5
BC
  8
0
 10
7.0
 20
64.647999999999996
 30
0.0
 11
7.0
 21
62.316600000000001
 31
0.0
  0
LINE
  5
BD
  8
0
 10
0.36
 20
109.44
 30
0.0
 11
1.3200000000000001
 21
107.04000000000001
 31
0.0
  0
LINE
  5
BE
  8
0
 10
5.04
 20
103.31999999999989
 30
0.0
 11
7.4400000000000004
 21
102.36
 31
0.0
  0
LINE
  5
BF
  8
0
 10
5.1205899999999991
 20
107.121
 30
0.0
 11
6.5617599999999996
 21
106.0289999999999
 31
0.0
  0
LINE
  5
C0
  8
0
 10
6.5617599999999996
 20
106.0289999999999
 30
0.0
 11
8.2294100000000014
 21
105.34999999999989
 31
0.0
  0
LINE
  5
C1
  8
0
 10
6.5205900000000003
 20
105.947
 30
0.0
 11
8.2088199999999993
 21
105.247
 31
0.0
  0
LINE
  5
C2
  8
0
 10
4.0294099999999986
 20
108.562
 30
0.0
 11
5.1205899999999991
 21
107.121
 31
0.0
  0
LINE
  5
C3
  8
0
 10
2.919999999999999
 20
104.92
 30
0.0
 11
5.04
 21
103.31999999999989
 31
0.0
  0
LINE
  5
C4
  8
0
 10
1.3200000000000001
 20
107.04000000000001
 30
0.0
 11
2.919999999999999
 21
104.92
 31
0.0
  0
LINE
  5
C5
  8
0
 10
0.36
 20
114.5599999999999
 30
0.0
 11
1.3200000000000001
 21
116.95999999999989
 31
0.0
  0
LINE
  5
C6
  8
0
 10
3.3500000000000001
 20
113.7709999999999
 30
0.0
 11
4.0294099999999986
 21
115.4379999999999
 31
0.0
  0
LINE
  5
C7
  8
0
 10
4.0294099999999986
 20
115.4379999999999
 30
0.0
 11
5.1205899999999991
 21
116.87899999999991
 31
0.0
  0
LINE
  5
C8
  8
0
 10
3.94706
 20
115.4789999999999
 30
0.0
 11
5.058819999999999
 21
116.941
 31
0.0
  0
LINE
  5
C9
  8
0
 10
3.2470599999999989
 20
113.7909999999999
 30
0.0
 11
3.94706
 21
115.4789999999999
 31
0.0
  0
LINE
  5
CA
  8
0
 10
5.1205899999999991
 20
116.87899999999991
 30
0.0
 11
6.5617599999999996
 21
117.971
 31
0.0
  0
LINE
  5
CB
  8
0
 10
5.058819999999999
 20
116.941
 30
0.0
 11
6.5205900000000003
 21
118.053
 31
0.0
  0
LINE
  5
CC
  8
0
 10
3.3500000000000001
 20
110.2289999999999
 30
0.0
 11
4.0294099999999986
 21
108.562
 31
0.0
  0
LINE
  5
CD
  8
0
 10
3.1029399999999998
 20
112.0
 30
0.0
 11
3.3500000000000001
 21
110.2289999999999
 31
0.0
  0
LINE
  5
CE
  8
0
 10
3.1029399999999998
 20
112.0
 30
0.0
 11
3.3500000000000001
 21
113.7709999999999
 31
0.0
  0
LINE
  5
CF
  8
0
 10
3.2470599999999989
 20
110.209
 30
0.0
 11
3.94706
 21
108.521
 31
0.0
  0
LINE
  5
D0
  8
0
 10
3.0
 20
112.0
 30
0.0
 11
3.2470599999999989
 21
113.7909999999999
 31
0.0
  0
LINE
  5
D1
  8
0
 10
6.5617599999999996
 20
117.971
 30
0.0
 11
8.2294100000000014
 21
118.65000000000001
 31
0.0
  0
LINE
  5
D2
  8
0
 10
6.5205900000000003
 20
118.053
 30
0.0
 11
8.2088199999999993
 21
118.7529999999999
 31
0.0
  0
LINE
  5
D3
  8
0
 10
5.04
 20
120.68000000000001
 30
0.0
 11
7.4400000000000004
 21
121.6399999999999
 31
0.0
  0
LINE
  5
D4
  8
0
 10
2.919999999999999
 20
119.08
 30
0.0
 11
5.04
 21
120.68000000000001
 31
0.0
  0
LINE
  5
D5
  8
0
 10
1.3200000000000001
 20
116.95999999999989
 30
0.0
 11
2.919999999999999
 21
119.08
 31
0.0
  0
LINE
  5
D6
  8
0
 10
0.36
 20
114.5599999999999
 30
0.0
 11
1.3200000000000001
 21
116.95999999999989
 31
0.0
  0
LINE
  5
D7
  8
0
 10
0.36
 20
109.44
 30
0.0
 11
1.3200000000000001
 21
107.04000000000001
 31
0.0
  0
LINE
  5
D8
  8
0
 10
0.0
 20
112.0
 30
0.0
 11
0.36
 21
109.44
 31
0.0
  0
LINE
  5
D9
  8
0
 10
0.0
 20
112.0
 30
0.0
 11
0.36
 21
114.5599999999999
 31
0.0
  0
LINE
  5
DA
  8
0
 10
7.0
 20
69.0
 30
0.0
 11
7.0
 21
68.388000000000005
 31
0.0
  0
LINE
  5
DB
  8
0
 10
7.0
 20
69.0
 30
0.0
 11
26.252553846153798
 21
69.0
 31
0.0
  0
LINE
  5
DC
  8
0
 10
7.0
 20
66.046899999999994
 30
0.0
 11
7.0
 21
66.571399999999997
 31
0.0
  0
LINE
  5
DD
  8
0
 10
7.0
 20
66.046899999999994
 30
0.0
 11
7.0
 21
64.647999999999996
 31
0.0
  0
LINE
  5
DE
  8
0
 10
7.0
 20
52.0
 30
0.0
 11
7.0
 21
48.2697
 31
0.0
  0
LINE
  5
DF
  8
0
 10
7.0
 20
52.0
 30
0.0
 11
7.0
 21
47.648000000000003
 31
0.0
  0
LINE
  5
E0
  8
0
 10
7.0
 20
52.0
 30
0.0
 11
7.0
 21
55.7303
 31
0.0
  0
LINE
  5
E1
  8
0
 10
7.0
 20
52.0
 30
0.0
 11
7.0
 21
56.351999999999997
 31
0.0
  0
LINE
  5
E2
  8
0
 10
7.0
 20
48.2697
 30
0.0
 11
7.0
 21
44.772599999999997
 31
0.0
  0
LINE
  5
E3
  8
0
 10
7.0
 20
48.2697
 30
0.0
 11
7.0
 21
52.0
 31
0.0
  0
LINE
  5
E4
  8
0
 10
7.0
 20
44.772599999999997
 30
0.0
 11
7.0
 21
41.683399999999992
 31
0.0
  0
LINE
  5
E5
  8
0
 10
7.0
 20
44.772599999999997
 30
0.0
 11
7.0
 21
48.2697
 31
0.0
  0
LINE
  5
E6
  8
0
 10
7.0
 20
47.648000000000003
 30
0.0
 11
7.0
 21
52.0
 31
0.0
  0
LINE
  5
E7
  8
0
 10
7.0
 20
47.648000000000003
 30
0.0
 11
7.0
 21
43.567999999999998
 31
0.0
  0
LINE
  5
E8
  8
0
 10
7.0
 20
43.567999999999998
 30
0.0
 11
7.0
 21
47.648000000000003
 31
0.0
  0
LINE
  5
E9
  8
0
 10
7.0
 20
43.567999999999998
 30
0.0
 11
7.0
 21
39.963999999999992
 31
0.0
  0
LINE
  5
EA
  8
0
 10
7.0
 20
39.963999999999992
 30
0.0
 11
7.0
 21
43.567999999999998
 31
0.0
  0
LINE
  5
EB
  8
0
 10
7.0
 20
39.963999999999992
 30
0.0
 11
7.0
 21
37.244
 31
0.0
  0
LINE
  5
EC
  8
0
 10
7.0
 20
37.244
 30
0.0
 11
7.0
 21
39.963999999999992
 31
0.0
  0
LINE
  5
ED
  8
0
 10
7.0
 20
37.244
 30
0.0
 11
7.0
 21
35.611999999999988
 31
0.0
  0
LINE
  5
EE
  8
0
 10
7.0
 20
37.244
 30
0.0
 11
7.0
 21
39.963999999999992
 31
0.0
  0
LINE
  5
EF
  8
0
 10
10.0
 20
102.0
 30
0.0
 11
26.0
 21
102.0
 31
0.0
  0
LINE
  5
F0
  8
0
 10
10.0
 20
102.0
 30
0.0
 11
26.0
 21
102.0
 31
0.0
  0
LINE
  5
F1
  8
0
 10
10.0
 20
105.10299999999989
 30
0.0
 11
11.770599999999989
 21
105.34999999999989
 31
0.0
  0
LINE
  5
F2
  8
0
 10
8.2294100000000014
 20
118.65000000000001
 30
0.0
 11
10.0
 21
118.89700000000001
 31
0.0
  0
LINE
  5
F3
  8
0
 10
8.2088199999999993
 20
118.7529999999999
 30
0.0
 11
10.0
 21
119.0
 31
0.0
  0
LINE
  5
F4
  8
0
 10
10.0
 20
118.89700000000001
 30
0.0
 11
11.770599999999989
 21
118.65000000000001
 31
0.0
  0
LINE
  5
F5
  8
0
 10
10.0
 20
119.0
 30
0.0
 11
11.791199999999989
 21
118.7529999999999
 31
0.0
  0
LINE
  5
F6
  8
0
 10
8.2294100000000014
 20
105.34999999999989
 30
0.0
 11
10.0
 21
105.10299999999989
 31
0.0
  0
LINE
  5
F7
  8
0
 10
8.2088199999999993
 20
105.247
 30
0.0
 11
10.0
 21
105.0
 31
0.0
  0
LINE
  5
F8
  8
0
 10
13.4382
 20
117.971
 30
0.0
 11
14.8794
 21
116.87899999999991
 31
0.0
  0
LINE
  5
F9
  8
0
 10
11.770599999999989
 20
118.65000000000001
 30
0.0
 11
13.4382
 21
117.971
 31
0.0
  0
LINE
  5
FA
  8
0
 10
11.791199999999989
 20
118.7529999999999
 30
0.0
 11
13.4794
 21
118.053
 31
0.0
  0
LINE
  5
FB
  8
0
 10
14.8794
 20
107.121
 30
0.0
 11
15.97059999999999
 21
108.562
 31
0.0
  0
LINE
  5
FC
  8
0
 10
15.97059999999999
 20
108.562
 30
0.0
 11
16.649999999999999
 21
110.2289999999999
 31
0.0
  0
LINE
  5
FD
  8
0
 10
16.649999999999999
 20
113.7709999999999
 30
0.0
 11
16.897099999999991
 21
112.0
 31
0.0
  0
LINE
  5
FE
  8
0
 10
14.8794
 20
116.87899999999991
 30
0.0
 11
15.97059999999999
 21
115.4379999999999
 31
0.0
  0
LINE
  5
FF
  8
0
 10
15.97059999999999
 20
115.4379999999999
 30
0.0
 11
16.649999999999999
 21
113.7709999999999
 31
0.0
  0
LINE
  5
100
  8
0
 10
14.9412
 20
116.941
 30
0.0
 11
16.052900000000001
 21
115.4789999999999
 31
0.0
  0
LINE
  5
101
  8
0
 10
16.052900000000001
 20
115.4789999999999
 30
0.0
 11
16.7529
 21
113.7909999999999
 31
0.0
  0
LINE
  5
102
  8
0
 10
16.7529
 20
113.7909999999999
 30
0.0
 11
17.0
 21
112.0
 31
0.0
  0
LINE
  5
103
  8
0
 10
13.4794
 20
118.053
 30
0.0
 11
14.9412
 21
116.941
 31
0.0
  0
LINE
  5
104
  8
0
 10
16.649999999999999
 20
110.2289999999999
 30
0.0
 11
16.897099999999991
 21
112.0
 31
0.0
  0
LINE
  5
105
  8
0
 10
13.4382
 20
106.0289999999999
 30
0.0
 11
14.8794
 21
107.121
 31
0.0
  0
LINE
  5
106
  8
0
 10
11.770599999999989
 20
105.34999999999989
 30
0.0
 11
13.4382
 21
106.0289999999999
 31
0.0
  0
LINE
  5
107
  8
0
 10
10.0
 20
122.0
 30
0.0
 11
26.0
 21
122.0
 31
0.0
  0
LINE
  5
108
  8
0
 10
17.024000000000001
 20
131.79199999999989
 30
0.0
 11
26.576000000000001
 21
125.099585575272
 31
0.0
  0
LINE
  5
109
  8
0
 10
15.752000000000001
 20
132.75200000000001
 30
0.0
 11
17.024000000000001
 21
131.79199999999989
 31
0.0
  0
LINE
  5
10A
  8
0
 10
14.792
 20
134.024
 30
0.0
 11
15.752000000000001
 21
132.75200000000001
 31
0.0
  0
LINE
  5
10B
  8
0
 10
17.024000000000001
 20
142.208
 30
0.0
 11
18.463999999999999
 21
142.78399999999991
 31
0.0
  0
LINE
  5
10C
  8
0
 10
15.752000000000001
 20
141.24799999999991
 30
0.0
 11
17.024000000000001
 21
142.208
 31
0.0
  0
LINE
  5
10D
  8
0
 10
24.396599999999989
 20
141.66499999999991
 30
0.0
 11
26.0
 21
141.5
 31
0.0
  0
LINE
  5
10E
  8
0
 10
21.535999999999991
 20
142.78399999999991
 30
0.0
 11
22.975999999999999
 21
142.208
 31
0.0
  0
LINE
  5
10F
  8
0
 10
20.0
 20
143.0
 30
0.0
 11
21.535999999999991
 21
142.78399999999991
 31
0.0
  0
LINE
  5
111
  8
0
 10
22.975999999999999
 20
142.208
 30
0.0
 11
24.396599999999989
 21
141.66499999999991
 31
0.0
  0
LINE
  5
113
  8
0
 10
18.463999999999999
 20
142.78399999999991
 30
0.0
 11
20.0
 21
143.0
 31
0.0
  0
LINE
  5
114
  8
0
 10
14.792
 20
139.976
 30
0.0
 11
15.752000000000001
 21
141.24799999999991
 31
0.0
  0
LINE
  5
115
  8
0
 10
14.21599999999999
 20
138.536
 30
0.0
 11
14.792
 21
139.976
 31
0.0
  0
LINE
  5
116
  8
0
 10
14.21599999999999
 20
135.464
 30
0.0
 11
14.792
 21
134.024
 31
0.0
  0
LINE
  5
117
  8
0
 10
14.0
 20
137.0
 30
0.0
 11
14.21599999999999
 21
135.464
 31
0.0
  0
LINE
  5
118
  8
0
 10
14.0
 20
137.0
 30
0.0
 11
14.21599999999999
 21
138.536
 31
0.0
  0
LINE
  5
119
  8
0
 10
10.0
 20
122.0
 30
0.0
 11
26.0
 21
122.0
 31
0.0
  0
LINE
  5
11A
  8
0
 10
7.4400000000000004
 20
121.6399999999999
 30
0.0
 11
10.0
 21
122.0
 31
0.0
  0
LINE
  5
11B
  8
0
 10
7.4400000000000004
 20
102.36
 30
0.0
 11
10.0
 21
102.0
 31
0.0
  0
LINE
  5
11C
  8
0
 10
24.611999999999991
 20
56.351999999999997
 30
0.0
 11
26.244
 21
60.431999999999988
 31
0.0
  0
LINE
  5
11D
  8
0
 10
24.0
 20
52.0
 30
0.0
 11
24.611999999999991
 21
47.648000000000003
 31
0.0
  0
LINE
  5
11E
  8
0
 10
24.0
 20
52.0
 30
0.0
 11
24.611999999999991
 21
56.351999999999997
 31
0.0
  0
LINE
  5
11F
  8
0
 10
27.111999999999991
 20
44.063999999999993
 30
0.0
 11
29.672000000000001
 21
40.67199999999999
 31
0.0
  0
LINE
  5
120
  8
0
 10
25.576000000000001
 20
47.903999999999989
 30
0.0
 11
27.111999999999991
 21
44.063999999999993
 31
0.0
  0
LINE
  5
121
  8
0
 10
25.576000000000001
 20
56.095999999999997
 30
0.0
 11
27.111999999999991
 21
59.936
 31
0.0
  0
LINE
  5
122
  8
0
 10
25.0
 20
52.0
 30
0.0
 11
25.576000000000001
 21
47.903999999999989
 31
0.0
  0
LINE
  5
123
  8
0
 10
25.0
 20
52.0
 30
0.0
 11
25.576000000000001
 21
56.095999999999997
 31
0.0
  0
LINE
  5
124
  8
0
 10
26.0
 20
102.0
 30
0.0
 11
26.0
 21
69.0
 31
0.0
  0
LINE
  5
125
  8
0
 10
26.0
 20
125.50314825415001
 30
0.0
 11
26.0
 21
69.0
 31
0.0
  0
LINE
  5
126
  8
0
 10
26.0
 20
142.0
 30
0.0
 11
26.576000000000001
 21
142.0
 31
0.0
  0
LINE
  5
127
  8
0
 10
26.0
 20
142.0
 30
0.0
 11
26.0
 21
141.5
 31
0.0
  0
LINE
  5
129
  8
0
 10
26.0
 20
141.5
 30
0.0
 11
26.0
 21
142.0
 31
0.0
  0
LINE
  5
12A
  8
0
 10
26.0
 20
122.0
 30
0.0
 11
26.0
 21
69.0
 31
0.0
  0
LINE
  5
12B
  8
0
 10
26.0
 20
69.0
 30
0.0
 11
26.0
 21
102.0
 31
0.0
  0
LINE
  5
12C
  8
0
 10
26.0
 20
69.0
 30
0.0
 11
26.0
 21
125.50314825415001
 31
0.0
  0
LINE
  5
12D
  8
0
 10
26.244
 20
60.431999999999988
 30
0.0
 11
28.963999999999999
 21
64.036000000000001
 31
0.0
  0
LINE
  5
12E
  8
0
 10
27.0
 20
147.0
 30
0.0
 11
27.539999999999999
 21
147.0
 31
0.0
  0
LINE
  5
12F
  8
0
 10
27.0
 20
147.0
 30
0.0
 11
27.0
 21
145.0
 31
0.0
  0
LINE
  5
130
  8
0
 10
27.0
 20
145.0
 30
0.0
 11
27.539999999999999
 21
145.0
 31
0.0
  0
LINE
  5
131
  8
0
 10
27.0
 20
145.0
 30
0.0
 11
27.0
 21
147.0
 31
0.0
  0
LINE
  5
132
  8
0
 10
27.539999999999999
 20
147.0
 30
0.0
 11
28.98
 21
147.0
 31
0.0
  0
LINE
  5
133
  8
0
 10
27.539999999999999
 20
145.0
 30
0.0
 11
28.98
 21
145.0
 31
0.0
  0
LINE
  5
134
  8
0
 10
27.539999999999999
 20
145.0
 30
0.0
 11
28.0
 21
145.0
 31
0.0
  0
LINE
  5
135
  8
0
 10
27.539999999999999
 20
149.0
 30
0.0
 11
28.98
 21
149.0
 31
0.0
  0
LINE
  5
136
  8
0
 10
27.539999999999999
 20
149.0
 30
0.0
 11
28.0
 21
149.0
 31
0.0
  0
LINE
  5
137
  8
0
 10
27.0
 20
149.0
 30
0.0
 11
27.539999999999999
 21
149.0
 31
0.0
  0
LINE
  5
138
  8
0
 10
27.0
 20
149.0
 30
0.0
 11
27.0
 21
151.0
 31
0.0
  0
LINE
  5
139
  8
0
 10
27.111999999999991
 20
59.936
 30
0.0
 11
29.672000000000001
 21
63.328000000000003
 31
0.0
  0
LINE
  5
13A
  8
0
 10
26.576000000000001
 20
142.0
 30
0.0
 11
28.111999999999991
 21
142.0
 31
0.0
  0
LINE
  5
13B
  8
0
 10
26.953099999999999
 20
55.7303
 30
0.0
 11
28.352
 21
59.22740000000001
 31
0.0
  0
LINE
  5
13C
  8
0
 10
26.428599999999999
 20
52.0
 30
0.0
 11
26.953099999999999
 21
48.2697
 31
0.0
  0
LINE
  5
13D
  8
0
 10
26.428599999999999
 20
52.0
 30
0.0
 11
26.953099999999999
 21
55.7303
 31
0.0
  0
LINE
  5
13E
  8
0
 10
26.953099999999999
 20
48.2697
 30
0.0
 11
28.352
 21
44.772599999999997
 31
0.0
  0
LINE
  5
13F
  8
0
 10
24.611999999999991
 20
47.648000000000003
 30
0.0
 11
26.244
 21
43.567999999999998
 31
0.0
  0
LINE
  5
140
  8
0
 10
26.244
 20
43.567999999999998
 30
0.0
 11
28.963999999999999
 21
39.963999999999992
 31
0.0
  0
LINE
  5
141
  8
0
 10
7.0
 20
35.611999999999988
 30
0.0
 11
7.0
 21
37.244
 31
0.0
  0
LINE
  5
142
  8
0
 10
7.0
 20
35.611999999999988
 30
0.0
 11
7.0
 21
35.0
 31
0.0
  0
LINE
  5
143
  8
0
 10
7.0
 20
35.0
 30
0.0
 11
26.101907692307702
 21
35.0
 31
0.0
  0
LINE
  5
144
  8
0
 10
28.0
 20
145.0
 30
0.0
 11
28.0
 21
142.0
 31
0.0
  0
LINE
  5
145
  8
0
 10
27.539999999999999
 20
151.0
 30
0.0
 11
28.98
 21
151.0
 31
0.0
  0
LINE
  5
146
  8
0
 10
27.0
 20
151.0
 30
0.0
 11
27.539999999999999
 21
151.0
 31
0.0
  0
LINE
  5
147
  8
0
 10
27.0
 20
151.0
 30
0.0
 11
27.0
 21
149.0
 31
0.0
  0
LINE
  5
148
  8
0
 10
28.0
 20
149.0
 30
0.0
 11
28.0
 21
147.0
 31
0.0
  0
LINE
  5
149
  8
0
 10
28.0
 20
147.0
 30
0.0
 11
28.0
 21
149.0
 31
0.0
  0
LINE
  5
14A
  8
0
 10
28.0
 20
153.0
 30
0.0
 11
28.504000000000001
 21
153.0
 31
0.0
  0
LINE
  5
14B
  8
0
 10
28.0
 20
153.0
 30
0.0
 11
28.0
 21
151.0
 31
0.0
  0
LINE
  5
14C
  8
0
 10
28.0
 20
151.0
 30
0.0
 11
28.0
 21
153.0
 31
0.0
  0
LINE
  5
14D
  8
0
 10
28.111999999999991
 20
12.0
 30
0.0
 11
30.67199999999999
 21
12.0
 31
0.0
  0
LINE
  5
14E
  8
0
 10
28.111999999999991
 20
12.0
 30
0.0
 11
30.67199999999999
 21
12.0
 31
0.0
  0
LINE
  5
14F
  8
0
 10
28.352
 20
59.22740000000001
 30
0.0
 11
30.683399999999999
 21
62.316600000000001
 31
0.0
  0
LINE
  5
150
  8
0
 10
28.963999999999999
 20
64.036000000000001
 30
0.0
 11
32.567999999999998
 21
66.756
 31
0.0
  0
LINE
  5
151
  8
0
 10
28.352
 20
44.772599999999997
 30
0.0
 11
30.683399999999999
 21
41.683399999999992
 31
0.0
  0
LINE
  5
152
  8
0
 10
29.672000000000001
 20
63.328000000000003
 30
0.0
 11
33.064
 21
65.888000000000005
 31
0.0
  0
LINE
  5
153
  8
0
 10
29.672000000000001
 20
40.67199999999999
 30
0.0
 11
33.064
 21
38.111999999999988
 31
0.0
  0
LINE
  5
154
  8
0
 10
28.963999999999999
 20
39.963999999999992
 30
0.0
 11
32.567999999999998
 21
37.244
 31
0.0
  0
LINE
  5
155
  8
0
 10
28.98
 20
147.0
 30
0.0
 11
31.379999999999988
 21
147.0
 31
0.0
  0
LINE
  5
156
  8
0
 10
28.98
 20
145.0
 30
0.0
 11
31.379999999999988
 21
145.0
 31
0.0
  0
LINE
  5
157
  8
0
 10
28.98
 20
151.0
 30
0.0
 11
31.379999999999988
 21
151.0
 31
0.0
  0
LINE
  5
158
  8
0
 10
28.98
 20
149.0
 30
0.0
 11
31.379999999999988
 21
149.0
 31
0.0
  0
LINE
  5
159
  8
0
 10
28.111999999999991
 20
142.0
 30
0.0
 11
30.67199999999999
 21
142.0
 31
0.0
  0
LINE
  5
15A
  8
0
 10
30.67199999999999
 20
12.0
 30
0.0
 11
32.0
 21
12.0
 31
0.0
  0
LINE
  5
15B
  8
0
 10
32.0
 20
34.0
 30
0.0
 11
42.0
 21
34.0
 31
0.0
  0
LINE
  5
15C
  8
0
 10
32.0
 20
34.0
 30
0.0
 11
32.0
 21
24.0
 31
0.0
  0
LINE
  5
15D
  8
0
 10
32.0
 20
24.0
 30
0.0
 11
42.0
 21
24.0
 31
0.0
  0
LINE
  5
15E
  8
0
 10
32.0
 20
24.0
 30
0.0
 11
32.0
 21
34.0
 31
0.0
  0
LINE
  5
15F
  8
0
 10
32.0
 20
24.0
 30
0.0
 11
32.0
 21
0.0
 31
0.0
  0
LINE
  5
160
  8
0
 10
32.0
 20
-0.0000000000000019
 30
0.0
 11
42.0
 21
-0.0000000000000019
 31
0.0
  0
LINE
  5
161
  8
0
 10
32.0
 20
-0.0000000000000019
 30
0.0
 11
32.0
 21
24.0
 31
0.0
  0
LINE
  5
162
  8
0
 10
32.0
 20
13.0
 30
0.0
 11
32.0
 21
-0.0000000000000021
 31
0.0
  0
LINE
  5
163
  8
0
 10
32.0
 20
-0.0000000000000026
 30
0.0
 11
42.0
 21
-0.0000000000000026
 31
0.0
  0
LINE
  5
164
  8
0
 10
32.0
 20
-0.0000000000000026
 30
0.0
 11
32.0
 21
13.0
 31
0.0
  0
LINE
  5
165
  8
0
 10
30.67199999999999
 20
12.0
 30
0.0
 11
32.0
 21
12.0
 31
0.0
  0
LINE
  5
166
  8
0
 10
33.064
 20
38.111999999999988
 30
0.0
 11
36.904000000000003
 21
36.576000000000001
 31
0.0
  0
LINE
  5
167
  8
0
 10
31.379999999999988
 20
147.0
 30
0.0
 11
34.560000000000002
 21
147.0
 31
0.0
  0
LINE
  5
168
  8
0
 10
31.379999999999988
 20
145.0
 30
0.0
 11
34.560000000000002
 21
145.0
 31
0.0
  0
LINE
  5
169
  8
0
 10
31.379999999999988
 20
151.0
 30
0.0
 11
34.560000000000002
 21
151.0
 31
0.0
  0
LINE
  5
16A
  8
0
 10
31.379999999999988
 20
149.0
 30
0.0
 11
34.560000000000002
 21
149.0
 31
0.0
  0
LINE
  5
16B
  8
0
 10
30.67199999999999
 20
142.0
 30
0.0
 11
34.064
 21
142.0
 31
0.0
  0
LINE
  5
16C
  8
0
 10
30.683399999999999
 20
62.316600000000001
 30
0.0
 11
33.77259999999999
 21
64.647999999999996
 31
0.0
  0
LINE
  5
16D
  8
0
 10
33.064
 20
65.888000000000005
 30
0.0
 11
36.904000000000003
 21
67.423999999999992
 31
0.0
  0
LINE
  5
16E
  8
0
 10
33.77259999999999
 20
64.647999999999996
 30
0.0
 11
37.2697
 21
66.046899999999994
 31
0.0
  0
LINE
  5
16F
  8
0
 10
32.567999999999998
 20
66.756
 30
0.0
 11
36.648000000000003
 21
68.388000000000005
 31
0.0
  0
LINE
  5
170
  8
0
 10
30.683399999999999
 20
41.683399999999992
 30
0.0
 11
33.77259999999999
 21
39.351999999999997
 31
0.0
  0
LINE
  5
171
  8
0
 10
34.560000000000002
 20
147.0
 30
0.0
 11
38.159999999999989
 21
147.0
 31
0.0
  0
LINE
  5
172
  8
0
 10
34.560000000000002
 20
145.0
 30
0.0
 11
38.159999999999989
 21
145.0
 31
0.0
  0
LINE
  5
173
  8
0
 10
34.560000000000002
 20
151.0
 30
0.0
 11
38.159999999999989
 21
151.0
 31
0.0
  0
LINE
  5
174
  8
0
 10
34.560000000000002
 20
149.0
 30
0.0
 11
38.159999999999989
 21
149.0
 31
0.0
  0
LINE
  5
175
  8
0
 10
34.064
 20
142.0
 30
0.0
 11
37.904000000000003
 21
142.0
 31
0.0
  0
LINE
  5
176
  8
0
 10
33.77259999999999
 20
39.351999999999997
 30
0.0
 11
37.2697
 21
37.953099999999999
 31
0.0
  0
LINE
  5
177
  8
0
 10
32.567999999999998
 20
37.244
 30
0.0
 11
36.648000000000003
 21
35.611999999999988
 31
0.0
  0
LINE
  5
178
  8
0
 10
36.648000000000003
 20
68.388000000000005
 30
0.0
 11
41.0
 21
69.0
 31
0.0
  0
LINE
  5
179
  8
0
 10
41.0
 20
36.0
 30
0.0
 11
45.095999999999997
 21
36.576000000000001
 31
0.0
  0
LINE
  5
17A
  8
0
 10
36.904000000000003
 20
36.576000000000001
 30
0.0
 11
41.0
 21
36.0
 31
0.0
  0
LINE
  5
17B
  8
0
 10
41.0
 20
37.428600000000003
 30
0.0
 11
44.7303
 21
37.953099999999999
 31
0.0
  0
LINE
  5
17C
  8
0
 10
42.0
 20
12.0
 30
0.0
 11
46.095999999999997
 21
12.0
 31
0.0
  0
LINE
  5
17D
  8
0
 10
42.0
 20
12.0
 30
0.0
 11
46.095999999999997
 21
12.0
 31
0.0
  0
LINE
  5
17E
  8
0
 10
42.0
 20
34.0
 30
0.0
 11
42.0
 21
24.0
 31
0.0
  0
LINE
  5
17F
  8
0
 10
45.095999999999997
 20
36.576000000000001
 30
0.0
 11
48.936000000000007
 21
38.111999999999988
 31
0.0
  0
LINE
  5
180
  8
0
 10
42.0
 20
24.0
 30
0.0
 11
42.0
 21
0.0
 31
0.0
  0
LINE
  5
181
  8
0
 10
42.0
 20
24.0
 30
0.0
 11
42.0
 21
34.0
 31
0.0
  0
LINE
  5
182
  8
0
 10
42.0
 20
-0.0000000000000019
 30
0.0
 11
42.0
 21
24.0
 31
0.0
  0
LINE
  5
183
  8
0
 10
45.35199999999999
 20
35.611999999999988
 30
0.0
 11
49.432000000000002
 21
37.244
 31
0.0
  0
LINE
  5
184
  8
0
 10
44.7303
 20
37.953099999999999
 30
0.0
 11
48.227400000000003
 21
39.351999999999997
 31
0.0
  0
LINE
  5
185
  8
0
 10
41.0
 20
35.0
 30
0.0
 11
45.35199999999999
 21
35.611999999999988
 31
0.0
  0
LINE
  5
186
  8
0
 10
36.904000000000003
 20
67.423999999999992
 30
0.0
 11
41.0
 21
68.0
 31
0.0
  0
LINE
  5
187
  8
0
 10
44.7303
 20
66.046899999999994
 30
0.0
 11
48.227400000000003
 21
64.647999999999996
 31
0.0
  0
LINE
  5
188
  8
0
 10
41.0
 20
68.0
 30
0.0
 11
45.095999999999997
 21
67.423999999999992
 31
0.0
  0
LINE
  5
189
  8
0
 10
45.095999999999997
 20
67.423999999999992
 30
0.0
 11
48.936000000000007
 21
65.888000000000005
 31
0.0
  0
LINE
  5
18A
  8
0
 10
41.0
 20
66.571399999999997
 30
0.0
 11
44.7303
 21
66.046899999999994
 31
0.0
  0
LINE
  5
18B
  8
0
 10
45.35199999999999
 20
68.388000000000005
 30
0.0
 11
49.432000000000002
 21
66.756
 31
0.0
  0
LINE
  5
18C
  8
0
 10
42.0
 20
142.0
 30
0.0
 11
46.095999999999997
 21
142.0
 31
0.0
  0
LINE
  5
18D
  8
0
 10
38.159999999999989
 20
147.0
 30
0.0
 11
42.0
 21
147.0
 31
0.0
  0
LINE
  5
18E
  8
0
 10
38.159999999999989
 20
145.0
 30
0.0
 11
42.0
 21
145.0
 31
0.0
  0
LINE
  5
18F
  8
0
 10
38.159999999999989
 20
151.0
 30
0.0
 11
42.0
 21
151.0
 31
0.0
  0
LINE
  5
190
  8
0
 10
42.0
 20
147.0
 30
0.0
 11
45.840000000000003
 21
147.0
 31
0.0
  0
LINE
  5
191
  8
0
 10
42.0
 20
145.0
 30
0.0
 11
45.840000000000003
 21
145.0
 31
0.0
  0
LINE
  5
192
  8
0
 10
42.0
 20
151.0
 30
0.0
 11
45.840000000000003
 21
151.0
 31
0.0
  0
LINE
  5
193
  8
0
 10
42.0
 20
149.0
 30
0.0
 11
45.840000000000003
 21
149.0
 31
0.0
  0
LINE
  5
194
  8
0
 10
38.159999999999989
 20
149.0
 30
0.0
 11
42.0
 21
149.0
 31
0.0
  0
LINE
  5
195
  8
0
 10
37.904000000000003
 20
142.0
 30
0.0
 11
42.0
 21
142.0
 31
0.0
  0
LINE
  5
196
  8
0
 10
42.0
 20
141.5
 30
0.0
 11
52.0
 21
141.5
 31
0.0
  0
LINE
  5
197
  8
0
 10
42.0
 20
141.5
 30
0.0
 11
42.0
 21
131.49999999999989
 31
0.0
  0
LINE
  5
198
  8
0
 10
42.0
 20
131.49999999999989
 30
0.0
 11
52.0
 21
131.49999999999989
 31
0.0
  0
LINE
  5
199
  8
0
 10
42.0
 20
131.49999999999989
 30
0.0
 11
42.0
 21
141.5
 31
0.0
  0
LINE
  5
19A
  8
0
 10
42.0
 20
131.49999999999989
 30
0.0
 11
42.0
 21
117.5
 31
0.0
  0
LINE
  5
19B
  8
0
 10
42.0
 20
117.5
 30
0.0
 11
52.0
 21
117.5
 31
0.0
  0
LINE
  5
19C
  8
0
 10
42.0
 20
117.5
 30
0.0
 11
42.0
 21
131.49999999999989
 31
0.0
  0
LINE
  5
19D
  8
0
 10
41.0
 20
69.0
 30
0.0
 11
45.35199999999999
 21
68.388000000000005
 31
0.0
  0
LINE
  5
19E
  8
0
 10
37.2697
 20
66.046899999999994
 30
0.0
 11
41.0
 21
66.571399999999997
 31
0.0
  0
LINE
  5
19F
  8
0
 10
37.2697
 20
37.953099999999999
 30
0.0
 11
41.0
 21
37.428600000000003
 31
0.0
  0
LINE
  5
1A0
  8
0
 10
36.648000000000003
 20
35.611999999999988
 30
0.0
 11
41.0
 21
35.0
 31
0.0
  0
LINE
  5
1A1
  8
0
 10
42.0
 20
153.0
 30
0.0
 11
45.583999999999989
 21
153.0
 31
0.0
  0
LINE
  5
1A2
  8
0
 10
46.095999999999997
 20
12.0
 30
0.0
 11
49.936
 21
12.0
 31
0.0
  0
LINE
  5
1A3
  8
0
 10
46.095999999999997
 20
12.0
 30
0.0
 11
49.936
 21
12.0
 31
0.0
  0
LINE
  5
1A4
  8
0
 10
48.227400000000003
 20
39.351999999999997
 30
0.0
 11
51.316600000000001
 21
41.683399999999992
 31
0.0
  0
LINE
  5
1A5
  8
0
 10
48.936000000000007
 20
38.111999999999988
 30
0.0
 11
52.32800000000001
 21
40.67199999999999
 31
0.0
  0
LINE
  5
1A6
  8
0
 10
49.936
 20
12.0
 30
0.0
 11
53.328000000000003
 21
12.0
 31
0.0
  0
LINE
  5
1A7
  8
0
 10
49.936
 20
12.0
 30
0.0
 11
58.0
 21
12.0
 31
0.0
  0
LINE
  5
1A8
  8
0
 10
49.936
 20
12.0
 30
0.0
 11
53.328000000000003
 21
12.0
 31
0.0
  0
LINE
  5
1A9
  8
0
 10
51.316600000000001
 20
41.683399999999992
 30
0.0
 11
53.648000000000003
 21
44.772599999999997
 31
0.0
  0
LINE
  5
1AA
  8
0
 10
49.432000000000002
 20
37.244
 30
0.0
 11
53.036000000000001
 21
39.963999999999992
 31
0.0
  0
LINE
  5
1AB
  8
0
 10
48.936000000000007
 20
65.888000000000005
 30
0.0
 11
52.32800000000001
 21
63.328000000000003
 31
0.0
  0
LINE
  5
1AC
  8
0
 10
51.316600000000001
 20
62.316600000000001
 30
0.0
 11
53.648000000000003
 21
59.22740000000001
 31
0.0
  0
LINE
  5
1AD
  8
0
 10
48.227400000000003
 20
64.647999999999996
 30
0.0
 11
51.316600000000001
 21
62.316600000000001
 31
0.0
  0
LINE
  5
1AE
  8
0
 10
45.840000000000003
 20
147.0
 30
0.0
 11
49.439999999999991
 21
147.0
 31
0.0
  0
LINE
  5
1AF
  8
0
 10
49.439999999999991
 20
147.0
 30
0.0
 11
52.619999999999997
 21
147.0
 31
0.0
  0
LINE
  5
1B0
  8
0
 10
45.840000000000003
 20
145.0
 30
0.0
 11
49.439999999999991
 21
145.0
 31
0.0
  0
LINE
  5
1B1
  8
0
 10
49.439999999999991
 20
145.0
 30
0.0
 11
52.619999999999997
 21
145.0
 31
0.0
  0
LINE
  5
1B2
  8
0
 10
45.840000000000003
 20
151.0
 30
0.0
 11
49.439999999999991
 21
151.0
 31
0.0
  0
LINE
  5
1B3
  8
0
 10
49.439999999999991
 20
151.0
 30
0.0
 11
52.619999999999997
 21
151.0
 31
0.0
  0
LINE
  5
1B4
  8
0
 10
45.840000000000003
 20
149.0
 30
0.0
 11
49.439999999999991
 21
149.0
 31
0.0
  0
LINE
  5
1B5
  8
0
 10
49.439999999999991
 20
149.0
 30
0.0
 11
52.619999999999997
 21
149.0
 31
0.0
  0
LINE
  5
1B6
  8
0
 10
46.095999999999997
 20
142.0
 30
0.0
 11
49.936
 21
142.0
 31
0.0
  0
LINE
  5
1B7
  8
0
 10
49.936
 20
142.0
 30
0.0
 11
53.328000000000003
 21
142.0
 31
0.0
  0
LINE
  5
1B8
  8
0
 10
49.432000000000002
 20
66.756
 30
0.0
 11
53.036000000000001
 21
64.036000000000001
 31
0.0
  0
LINE
  5
1B9
  8
0
 10
45.583999999999989
 20
153.0
 30
0.0
 11
48.944000000000003
 21
153.0
 31
0.0
  0
LINE
  5
1BA
  8
0
 10
48.944000000000003
 20
153.0
 30
0.0
 11
51.911999999999999
 21
153.0
 31
0.0
  0
LINE
  5
1BB
  8
0
 10
53.328000000000003
 20
12.0
 30
0.0
 11
55.887999999999998
 21
12.0
 31
0.0
  0
LINE
  5
1BC
  8
0
 10
53.328000000000003
 20
12.0
 30
0.0
 11
55.887999999999998
 21
12.0
 31
0.0
  0
LINE
  5
1BD
  8
0
 10
52.32800000000001
 20
63.328000000000003
 30
0.0
 11
54.888000000000012
 21
59.936
 31
0.0
  0
LINE
  5
1BE
  8
0
 10
52.32800000000001
 20
40.67199999999999
 30
0.0
 11
54.888000000000012
 21
44.063999999999993
 31
0.0
  0
LINE
  5
1BF
  8
0
 10
53.648000000000003
 20
44.772599999999997
 30
0.0
 11
55.046900000000001
 21
48.2697
 31
0.0
  0
LINE
  5
1C0
  8
0
 10
53.036000000000001
 20
39.963999999999992
 30
0.0
 11
55.756
 21
43.567999999999998
 31
0.0
  0
LINE
  5
1C1
  8
0
 10
54.888000000000012
 20
44.063999999999993
 30
0.0
 11
56.423999999999999
 21
47.903999999999989
 31
0.0
  0
LINE
  5
1C2
  8
0
 10
55.046900000000001
 20
48.2697
 30
0.0
 11
55.571399999999997
 21
52.0
 31
0.0
  0
LINE
  5
1C3
  8
0
 10
54.888000000000012
 20
59.936
 30
0.0
 11
56.423999999999999
 21
56.095999999999997
 31
0.0
  0
LINE
  5
1C4
  8
0
 10
55.046900000000001
 20
55.7303
 30
0.0
 11
55.571399999999997
 21
52.0
 31
0.0
  0
LINE
  5
1C5
  8
0
 10
53.648000000000003
 20
59.22740000000001
 30
0.0
 11
55.046900000000001
 21
55.7303
 31
0.0
  0
LINE
  5
1C6
  8
0
 10
52.0
 20
117.5
 30
0.0
 11
52.0
 21
131.49999999999989
 31
0.0
  0
LINE
  5
1C7
  8
0
 10
52.0
 20
141.5
 30
0.0
 11
52.0
 21
131.49999999999989
 31
0.0
  0
LINE
  5
1C8
  8
0
 10
52.619999999999997
 20
147.0
 30
0.0
 11
55.020000000000003
 21
147.0
 31
0.0
  0
LINE
  5
1C9
  8
0
 10
55.020000000000003
 20
147.0
 30
0.0
 11
56.460000000000001
 21
147.0
 31
0.0
  0
LINE
  5
1CA
  8
0
 10
52.619999999999997
 20
145.0
 30
0.0
 11
55.020000000000003
 21
145.0
 31
0.0
  0
LINE
  5
1CB
  8
0
 10
55.020000000000003
 20
145.0
 30
0.0
 11
56.460000000000001
 21
145.0
 31
0.0
  0
LINE
  5
1CC
  8
0
 10
52.619999999999997
 20
151.0
 30
0.0
 11
55.020000000000003
 21
151.0
 31
0.0
  0
LINE
  5
1CD
  8
0
 10
55.020000000000003
 20
151.0
 30
0.0
 11
56.460000000000001
 21
151.0
 31
0.0
  0
LINE
  5
1CE
  8
0
 10
52.619999999999997
 20
149.0
 30
0.0
 11
55.020000000000003
 21
149.0
 31
0.0
  0
LINE
  5
1CF
  8
0
 10
55.020000000000003
 20
149.0
 30
0.0
 11
56.460000000000001
 21
149.0
 31
0.0
  0
LINE
  5
1D0
  8
0
 10
53.328000000000003
 20
142.0
 30
0.0
 11
55.887999999999998
 21
142.0
 31
0.0
  0
LINE
  5
1D1
  8
0
 10
52.0
 20
131.49999999999989
 30
0.0
 11
52.0
 21
117.5
 31
0.0
  0
LINE
  5
1D2
  8
0
 10
52.0
 20
131.49999999999989
 30
0.0
 11
52.0
 21
141.5
 31
0.0
  0
LINE
  5
1D3
  8
0
 10
53.036000000000001
 20
64.036000000000001
 30
0.0
 11
55.756
 21
60.431999999999988
 31
0.0
  0
LINE
  5
1D4
  8
0
 10
51.911999999999999
 20
153.0
 30
0.0
 11
54.152000000000001
 21
153.0
 31
0.0
  0
LINE
  5
1D5
  8
0
 10
54.152000000000001
 20
153.0
 30
0.0
 11
55.496000000000002
 21
153.0
 31
0.0
  0
LINE
  5
1D6
  8
0
 10
55.887999999999998
 20
12.0
 30
0.0
 11
57.423999999999992
 21
12.0
 31
0.0
  0
LINE
  5
1D7
  8
0
 10
55.887999999999998
 20
12.0
 30
0.0
 11
57.423999999999992
 21
12.0
 31
0.0
  0
LINE
  5
1D8
  8
0
 10
55.756
 20
43.567999999999998
 30
0.0
 11
57.388000000000012
 21
47.648000000000003
 31
0.0
  0
LINE
  5
1D9
  8
0
 10
55.756
 20
60.431999999999988
 30
0.0
 11
57.388000000000012
 21
56.351999999999997
 31
0.0
  0
LINE
  5
1DA
  8
0
 10
56.423999999999999
 20
56.095999999999997
 30
0.0
 11
57.0
 21
52.0
 31
0.0
  0
LINE
  5
1DB
  8
0
 10
56.423999999999999
 20
47.903999999999989
 30
0.0
 11
57.0
 21
52.0
 31
0.0
  0
LINE
  5
1DC
  8
0
 10
59.752000000000002
 20
2.7519999999999989
 30
0.0
 11
61.023999999999987
 21
1.7919999999999989
 31
0.0
  0
LINE
  5
1DD
  8
0
 10
62.463999999999999
 20
1.2159999999999991
 30
0.0
 11
64.0
 21
0.999999999999996
 31
0.0
  0
LINE
  5
1DE
  8
0
 10
64.0
 20
0.999999999999996
 30
0.0
 11
65.536000000000001
 21
1.2159999999999991
 31
0.0
  0
LINE
  5
1DF
  8
0
 10
65.536000000000001
 20
1.2159999999999991
 30
0.0
 11
66.975999999999999
 21
1.7919999999999989
 31
0.0
  0
LINE
  5
1E0
  8
0
 10
65.536000000000001
 20
1.2159999999999991
 30
0.0
 11
66.975999999999999
 21
1.7919999999999989
 31
0.0
  0
LINE
  5
1E1
  8
0
 10
62.463999999999999
 20
1.2159999999999991
 30
0.0
 11
64.0
 21
0.9999999999999948
 31
0.0
  0
LINE
  5
1E2
  8
0
 10
66.975999999999999
 20
1.7919999999999989
 30
0.0
 11
68.248000000000005
 21
2.7519999999999989
 31
0.0
  0
LINE
  5
1E3
  8
0
 10
68.248000000000005
 20
2.7519999999999989
 30
0.0
 11
69.207999999999984
 21
4.024
 31
0.0
  0
LINE
  5
1E4
  8
0
 10
61.023999999999987
 20
1.7919999999999989
 30
0.0
 11
62.463999999999999
 21
1.2159999999999991
 31
0.0
  0
LINE
  5
1E5
  8
0
 10
61.023999999999987
 20
1.7919999999999989
 30
0.0
 11
62.463999999999999
 21
1.2159999999999991
 31
0.0
  0
LINE
  5
1E6
  8
0
 10
59.752000000000002
 20
2.7519999999999989
 30
0.0
 11
61.023999999999987
 21
1.7919999999999989
 31
0.0
  0
LINE
  5
1E7
  8
0
 10
69.783999999999992
 20
5.4639999999999986
 30
0.0
 11
70.0
 21
7.0
 31
0.0
  0
LINE
  5
1E8
  8
0
 10
69.207999999999984
 20
4.024
 30
0.0
 11
69.783999999999992
 21
5.4639999999999986
 31
0.0
  0
LINE
  5
1E9
  8
0
 10
58.792000000000002
 20
4.024
 30
0.0
 11
59.752000000000002
 21
2.7519999999999989
 31
0.0
  0
LINE
  5
1EA
  8
0
 10
58.792000000000002
 20
4.0239999999999903
 30
0.0
 11
59.752000000000002
 21
2.7519999999999989
 31
0.0
  0
LINE
  5
1EB
  8
0
 10
58.216000000000001
 20
5.4639999999999986
 30
0.0
 11
58.792000000000002
 21
4.0239999999999903
 31
0.0
  0
LINE
  5
1EC
  8
0
 10
58.216000000000001
 20
5.4639999999999986
 30
0.0
 11
58.792000000000002
 21
4.024
 31
0.0
  0
LINE
  5
1ED
  8
0
 10
69.783999999999992
 20
8.5359999999999996
 30
0.0
 11
70.0
 21
7.0
 31
0.0
  0
LINE
  5
1EE
  8
0
 10
58.747
 20
11.3535
 30
0.0
 11
58.792000000000002
 21
9.9760000000000009
 31
0.0
  0
LINE
  5
1EF
  8
0
 10
58.216000000000001
 20
8.5359999999999996
 30
0.0
 11
58.792000000000002
 21
9.9760000000000009
 31
0.0
  0
LINE
  5
1F0
  8
0
 10
58.0
 20
7.0
 30
0.0
 11
58.216000000000001
 21
5.4639999999999986
 31
0.0
  0
LINE
  5
1F1
  8
0
 10
58.0
 20
7.0
 30
0.0
 11
58.216000000000001
 21
8.5359999999999996
 31
0.0
  0
LINE
  5
1F2
  8
0
 10
57.423999999999992
 20
12.0
 30
0.0
 11
58.0
 21
12.0
 31
0.0
  0
LINE
  5
1F3
  8
0
 10
58.0
 20
35.0
 30
0.0
 11
58.0
 21
12.0
 31
0.0
  0
LINE
  5
1F4
  8
0
 10
58.0
 20
20.800000000000001
 30
0.0
 11
65.0
 21
20.800000000000001
 31
0.0
  0
LINE
  5
1F5
  8
0
 10
67.650383810188401
 20
15.0
 30
0.0
 11
74.0
 21
15.0
 31
0.0
  0
LINE
  5
1F6
  8
0
 10
67.650383810188401
 20
15.0
 30
0.0
 11
74.0
 21
15.0
 31
0.0
  0
LINE
  5
1FD
  8
0
 10
74.0
 20
15.0
 30
0.0
 11
76.560000000000002
 21
15.359999999999999
 31
0.0
  0
LINE
  5
1FE
  8
0
 10
76.560000000000002
 20
15.359999999999999
 30
0.0
 11
78.959999999999994
 21
16.32
 31
0.0
  0
LINE
  5
217
  8
0
 10
65.0
 20
20.800000000000001
 30
0.0
 11
66.0
 21
20.0
 31
0.0
  0
LINE
  5
218
  8
0
 10
66.0
 20
20.0
 30
0.0
 11
69.783999999999992
 21
8.5359999999999907
 31
0.0
  0
LINE
  5
219
  8
0
 10
66.0
 20
20.0
 30
0.0
 11
69.783999999999992
 21
8.5359999999999996
 31
0.0
  0
LINE
  5
21A
  8
0
 10
58.0
 20
12.69891242129359
 30
0.0
 11
58.747
 21
11.3535
 31
0.0
  0
LINE
  5
21B
  8
0
 10
58.0
 20
12.0
 30
0.0
 11
58.0
 21
35.0
 31
0.0
  0
LINE
  5
21C
  8
0
 10
58.0
 20
12.0
 30
0.0
 11
58.0
 21
35.0
 31
0.0
  0
LINE
  5
21F
  8
0
 10
78.959999999999994
 20
16.32
 30
0.0
 11
81.079999999999998
 21
17.920000000000002
 31
0.0
  0
LINE
  5
220
  8
0
 10
81.079999999999998
 20
17.920000000000002
 30
0.0
 11
82.680000000000007
 21
20.039999999999999
 31
0.0
  0
LINE
  5
226
  8
0
 10
82.680000000000007
 20
20.039999999999999
 30
0.0
 11
83.640000000000001
 21
22.440000000000001
 31
0.0
  0
LINE
  5
227
  8
0
 10
83.640000000000001
 20
22.440000000000001
 30
0.0
 11
84.0
 21
25.0
 31
0.0
  0
LINE
  5
22E
  8
0
 10
83.640000000000001
 20
27.559999999999999
 30
0.0
 11
84.0
 21
25.0
 31
0.0
  0
LINE
  5
22F
  8
0
 10
77.0
 20
35.0
 30
0.0
 11
77.0
 21
35.611999999999988
 31
0.0
  0
LINE
  5
230
  8
0
 10
77.0
 20
41.480576375911703
 30
0.0
 11
77.826700000000002
 21
40.902299999999997
 31
0.0
  0
LINE
  5
231
  8
0
 10
77.0
 20
41.550946490922989
 30
0.0
 11
77.605500000000006
 21
41.178600000000003
 31
0.0
  0
LINE
  5
232
  8
0
 10
77.0
 20
56.351999999999997
 30
0.0
 11
77.0
 21
60.431999999999988
 31
0.0
  0
LINE
  5
233
  8
0
 10
77.0
 20
56.351999999999997
 30
0.0
 11
77.0
 21
52.0
 31
0.0
  0
LINE
  5
234
  8
0
 10
77.0
 20
52.0
 30
0.0
 11
77.0
 21
47.648000000000003
 31
0.0
  0
LINE
  5
235
  8
0
 10
77.0
 20
52.0
 30
0.0
 11
77.0
 21
56.351999999999997
 31
0.0
  0
LINE
  5
236
  8
0
 10
77.0
 20
47.648000000000003
 30
0.0
 11
77.0
 21
43.567999999999998
 31
0.0
  0
LINE
  5
237
  8
0
 10
77.0
 20
47.648000000000003
 30
0.0
 11
77.0
 21
52.0
 31
0.0
  0
LINE
  5
238
  8
0
 10
77.0
 20
43.567999999999998
 30
0.0
 11
77.0
 21
39.963999999999992
 31
0.0
  0
LINE
  5
239
  8
0
 10
77.0
 20
43.567999999999998
 30
0.0
 11
77.0
 21
47.648000000000003
 31
0.0
  0
LINE
  5
23A
  8
0
 10
77.0
 20
39.963999999999992
 30
0.0
 11
77.0
 21
37.244
 31
0.0
  0
LINE
  5
23B
  8
0
 10
77.0
 20
39.963999999999992
 30
0.0
 11
77.0
 21
43.567999999999998
 31
0.0
  0
LINE
  5
23C
  8
0
 10
77.0
 20
37.244
 30
0.0
 11
77.0
 21
35.611999999999988
 31
0.0
  0
LINE
  5
23D
  8
0
 10
77.0
 20
37.244
 30
0.0
 11
77.0
 21
39.963999999999992
 31
0.0
  0
LINE
  5
23E
  8
0
 10
77.826700000000002
 20
40.902299999999997
 30
0.0
 11
83.640000000000001
 21
27.559999999999999
 31
0.0
  0
LINE
  5
23F
  8
0
 10
77.605500000000006
 20
41.178600000000003
 30
0.0
 11
77.826700000000002
 21
40.902299999999997
 31
0.0
  0
LINE
  5
240
  8
0
 10
77.0
 20
35.611999999999988
 30
0.0
 11
77.0
 21
35.0
 31
0.0
  0
LINE
  5
241
  8
0
 10
77.0
 20
35.611999999999988
 30
0.0
 11
77.0
 21
37.244
 31
0.0
  0
LINE
  5
242
  8
0
 10
58.0
 20
35.0
 30
0.0
 11
77.0
 21
35.0
 31
0.0
  0
LINE
  5
243
  8
0
 10
57.388000000000012
 20
47.648000000000003
 30
0.0
 11
58.0
 21
52.0
 31
0.0
  0
LINE
  5
244
  8
0
 10
77.0
 20
60.431999999999988
 30
0.0
 11
77.0
 21
64.036000000000001
 31
0.0
  0
LINE
  5
245
  8
0
 10
77.0
 20
60.431999999999988
 30
0.0
 11
77.0
 21
56.351999999999997
 31
0.0
  0
LINE
  5
246
  8
0
 10
77.0
 20
64.036000000000001
 30
0.0
 11
77.0
 21
66.756
 31
0.0
  0
LINE
  5
247
  8
0
 10
77.0
 20
64.036000000000001
 30
0.0
 11
77.0
 21
60.431999999999988
 31
0.0
  0
LINE
  5
249
  8
0
 10
58.0
 20
125.50314825415001
 30
0.0
 11
58.0
 21
69.0
 31
0.0
  0
LINE
  5
24B
  8
0
 10
57.423999999999992
 20
125.099585575272
 30
0.0
 11
66.975999999999999
 21
131.79199999999989
 31
0.0
  0
LINE
  5
24C
  8
0
 10
58.0
 20
142.0
 30
0.0
 11
58.0
 21
141.5
 31
0.0
  0
LINE
  5
24D
  8
0
 10
57.423999999999992
 20
142.0
 30
0.0
 11
58.0
 21
142.0
 31
0.0
  0
LINE
  5
24E
  8
0
 10
58.0
 20
141.5
 30
0.0
 11
58.0
 21
142.0
 31
0.0
  0
LINE
  5
251
  8
0
 10
58.0
 20
141.5
 30
0.0
 11
59.603400000000001
 21
141.66499999999991
 31
0.0
  0
LINE
  5
252
  8
0
 10
58.0
 20
69.0
 30
0.0
 11
58.0
 21
122.0
 31
0.0
  0
LINE
  5
253
  8
0
 10
58.0
 20
69.0
 30
0.0
 11
58.0
 21
125.50314825415001
 31
0.0
  0
LINE
  5
254
  8
0
 10
59.603400000000001
 20
141.66499999999991
 30
0.0
 11
61.023999999999987
 21
142.208
 31
0.0
  0
LINE
  5
275
  8
0
 10
66.975999999999999
 20
131.79199999999989
 30
0.0
 11
68.248000000000005
 21
132.75200000000001
 31
0.0
  0
LINE
  5
276
  8
0
 10
69.207999999999984
 20
139.976
 30
0.0
 11
69.783999999999992
 21
138.536
 31
0.0
  0
LINE
  5
277
  8
0
 10
69.783999999999992
 20
138.536
 30
0.0
 11
70.0
 21
137.0
 31
0.0
  0
LINE
  5
278
  8
0
 10
68.248000000000005
 20
141.24799999999991
 30
0.0
 11
69.207999999999984
 21
139.976
 31
0.0
  0
LINE
  5
279
  8
0
 10
69.207999999999984
 20
134.024
 30
0.0
 11
69.783999999999992
 21
135.464
 31
0.0
  0
LINE
  5
27A
  8
0
 10
69.783999999999992
 20
135.464
 30
0.0
 11
70.0
 21
137.0
 31
0.0
  0
LINE
  5
27B
  8
0
 10
68.248000000000005
 20
132.75200000000001
 30
0.0
 11
69.207999999999984
 21
134.024
 31
0.0
  0
LINE
  5
27D
  8
0
 10
77.0
 20
69.0
 30
0.0
 11
77.0
 21
68.388000000000005
 31
0.0
  0
LINE
  5
27E
  8
0
 10
58.0
 20
69.0
 30
0.0
 11
77.0
 21
69.0
 31
0.0
  0
LINE
  5
27F
  8
0
 10
77.0
 20
66.756
 30
0.0
 11
77.0
 21
68.388000000000005
 31
0.0
  0
LINE
  5
280
  8
0
 10
77.0
 20
66.756
 30
0.0
 11
77.0
 21
64.036000000000001
 31
0.0
  0
LINE
  5
295
  8
0
 10
77.0
 20
68.388000000000005
 30
0.0
 11
77.0
 21
69.0
 31
0.0
  0
LINE
  5
296
  8
0
 10
77.0
 20
68.388000000000005
 30
0.0
 11
77.0
 21
66.756
 31
0.0
  0
LINE
  5
297
  8
0
 10
57.388000000000012
 20
56.351999999999997
 30
0.0
 11
58.0
 21
52.0
 31
0.0
  0
LINE
  5
298
  8
0
 10
56.0
 20
142.0
 30
0.0
 11
56.0
 21
145.0
 31
0.0
  0
LINE
  5
299
  8
0
 10
56.0
 20
147.0
 30
0.0
 11
56.0
 21
149.0
 31
0.0
  0
LINE
  5
29A
  8
0
 10
56.0
 20
145.0
 30
0.0
 11
56.0
 21
142.0
 31
0.0
  0
LINE
  5
29B
  8
0
 10
56.0
 20
145.0
 30
0.0
 11
56.460000000000001
 21
145.0
 31
0.0
  0
LINE
  5
29C
  8
0
 10
56.0
 20
151.0
 30
0.0
 11
56.0
 21
153.0
 31
0.0
  0
LINE
  5
29D
  8
0
 10
56.0
 20
149.0
 30
0.0
 11
56.0
 21
147.0
 31
0.0
  0
LINE
  5
29E
  8
0
 10
56.0
 20
149.0
 30
0.0
 11
56.460000000000001
 21
149.0
 31
0.0
  0
LINE
  5
29F
  8
0
 10
65.536000000000001
 20
142.78399999999991
 30
0.0
 11
66.975999999999999
 21
142.208
 31
0.0
  0
LINE
  5
2A0
  8
0
 10
66.975999999999999
 20
142.208
 30
0.0
 11
68.248000000000005
 21
141.24799999999991
 31
0.0
  0
LINE
  5
2A1
  8
0
 10
61.023999999999987
 20
142.208
 30
0.0
 11
62.463999999999999
 21
142.78399999999991
 31
0.0
  0
LINE
  5
2A2
  8
0
 10
57.0
 20
145.0
 30
0.0
 11
57.0
 21
147.0
 31
0.0
  0
LINE
  5
2A3
  8
0
 10
57.0
 20
147.0
 30
0.0
 11
57.0
 21
145.0
 31
0.0
  0
LINE
  5
2A4
  8
0
 10
56.460000000000001
 20
147.0
 30
0.0
 11
57.0
 21
147.0
 31
0.0
  0
LINE
  5
2A5
  8
0
 10
56.460000000000001
 20
145.0
 30
0.0
 11
57.0
 21
145.0
 31
0.0
  0
LINE
  5
2A6
  8
0
 10
57.0
 20
149.0
 30
0.0
 11
57.0
 21
151.0
 31
0.0
  0
LINE
  5
2A7
  8
0
 10
57.0
 20
151.0
 30
0.0
 11
57.0
 21
149.0
 31
0.0
  0
LINE
  5
2A8
  8
0
 10
56.460000000000001
 20
151.0
 30
0.0
 11
57.0
 21
151.0
 31
0.0
  0
LINE
  5
2A9
  8
0
 10
56.460000000000001
 20
149.0
 30
0.0
 11
57.0
 21
149.0
 31
0.0
  0
LINE
  5
2AA
  8
0
 10
64.0
 20
143.0
 30
0.0
 11
65.536000000000001
 21
142.78399999999991
 31
0.0
  0
LINE
  5
2AB
  8
0
 10
62.463999999999999
 20
142.78399999999991
 30
0.0
 11
64.0
 21
143.0
 31
0.0
  0
LINE
  5
2AC
  8
0
 10
56.0
 20
153.0
 30
0.0
 11
56.0
 21
151.0
 31
0.0
  0
LINE
  5
2AD
  8
0
 10
55.887999999999998
 20
142.0
 30
0.0
 11
57.423999999999992
 21
142.0
 31
0.0
  0
LINE
  5
2AE
  8
0
 10
55.496000000000002
 20
153.0
 30
0.0
 11
56.0
 21
153.0
 31
0.0
  0
LINE
  5
2AF
  8
0
 10
38.41599999999999
 20
153.0
 30
0.0
 11
42.0
 21
153.0
 31
0.0
  0
LINE
  5
2B0
  8
0
 10
35.05599999999999
 20
153.0
 30
0.0
 11
38.41599999999999
 21
153.0
 31
0.0
  0
LINE
  5
2B1
  8
0
 10
32.088000000000001
 20
153.0
 30
0.0
 11
35.05599999999999
 21
153.0
 31
0.0
  0
LINE
  5
2B2
  8
0
 10
29.847999999999999
 20
153.0
 30
0.0
 11
32.088000000000001
 21
153.0
 31
0.0
  0
LINE
  5
2B3
  8
0
 10
28.504000000000001
 20
153.0
 30
0.0
 11
29.847999999999999
 21
153.0
 31
0.0
  0
LINE
  5
2B4
  8
0
 10
28.0
 20
142.0
 30
0.0
 11
28.0
 21
145.0
 31
0.0
  0
LINE
  5
2B9
  8
0
 10
3.0
 20
112.0
 30
0.0
 11
3.2470599999999989
 21
110.209
 31
0.0
  0
LINE
  5
2BA
  8
0
 10
3.94706
 20
108.521
 30
0.0
 11
5.1115140693807462
 21
106.9485941748264
 31
0.0
  0
LINE
  5
2BB
  8
0
 10
5.1115140693807462
 20
106.9485941748264
 30
0.0
 11
6.5205900000000003
 21
105.947
 31
0.0
  0
LINE
  5
2BC
  8
0
 10
10.0
 20
105.0
 30
0.0
 11
11.771679470677549
 21
105.284640073029
 31
0.0
  0
LINE
  5
2BD
  8
0
 10
11.771679470677549
 20
105.284640073029
 30
0.0
 11
13.588087949738449
 21
105.99055987534889
 31
0.0
  0
LINE
  5
2BE
  8
0
 10
13.588087949738449
 20
105.99055987534889
 30
0.0
 11
14.975622561166
 21
107.0494397583109
 31
0.0
  0
LINE
  5
2BF
  8
0
 10
14.975622561166
 20
107.0494397583109
 30
0.0
 11
16.00996641085646
 21
108.4612793629508
 31
0.0
  0
LINE
  5
2C0
  8
0
 10
16.00996641085646
 20
108.4612793629508
 30
0.0
 11
16.74157563629603
 21
110.1756564359724
 31
0.0
  0
LINE
  5
2C1
  8
0
 10
16.74157563629603
 20
110.1756564359724
 30
0.0
 11
17.0
 21
112.0
 31
0.0
  0
LINE
  5
2F2
  8
0
 10
74.0
 20
122.0
 30
0.0
 11
58.0
 21
122.0
 31
0.0
  0
LINE
  5
2F3
  8
0
 10
74.0
 20
122.0
 30
0.0
 11
58.0
 21
122.0
 31
0.0
  0
LINE
  5
2F4
  8
0
 10
74.0
 20
102.0
 30
0.0
 11
58.0
 21
102.0
 31
0.0
  0
LINE
  5
2F5
  8
0
 10
74.0
 20
102.0
 30
0.0
 11
58.0
 21
102.0
 31
0.0
  0
LINE
  5
2F6
  8
0
 10
81.079999999999998
 20
119.08
 30
0.0
 11
78.959999999999994
 21
120.68000000000001
 31
0.0
  0
LINE
  5
2F7
  8
0
 10
81.0
 20
112.0
 30
0.0
 11
80.752939999999995
 21
110.209
 31
0.0
  0
LINE
  5
2F8
  8
0
 10
81.079999999999998
 20
104.92
 30
0.0
 11
78.959999999999994
 21
103.31999999999989
 31
0.0
  0
LINE
  5
2F9
  8
0
 10
81.0
 20
112.0
 30
0.0
 11
80.752939999999995
 21
113.7909999999999
 31
0.0
  0
LINE
  5
2FA
  8
0
 10
84.0
 20
112.0
 30
0.0
 11
83.640000000000001
 21
114.5599999999999
 31
0.0
  0
LINE
  5
2FB
  8
0
 10
82.680000000000007
 20
107.04000000000001
 30
0.0
 11
81.079999999999998
 21
104.92
 31
0.0
  0
LINE
  5
2FC
  8
0
 10
83.640000000000001
 20
109.44
 30
0.0
 11
82.680000000000007
 21
107.04000000000001
 31
0.0
  0
LINE
  5
2FD
  8
0
 10
83.640000000000001
 20
109.44
 30
0.0
 11
82.680000000000007
 21
107.04000000000001
 31
0.0
  0
LINE
  5
2FE
  8
0
 10
84.0
 20
112.0
 30
0.0
 11
83.640000000000001
 21
109.44
 31
0.0
  0
LINE
  5
2FF
  8
0
 10
82.680000000000007
 20
116.95999999999989
 30
0.0
 11
81.079999999999998
 21
119.08
 31
0.0
  0
LINE
  5
300
  8
0
 10
83.640000000000001
 20
114.5599999999999
 30
0.0
 11
82.680000000000007
 21
116.95999999999989
 31
0.0
  0
LINE
  5
301
  8
0
 10
83.640000000000001
 20
114.5599999999999
 30
0.0
 11
82.680000000000007
 21
116.95999999999989
 31
0.0
  0
LINE
  5
302
  8
0
 10
74.0
 20
119.0
 30
0.0
 11
72.208799999999997
 21
118.7529999999999
 31
0.0
  0
LINE
  5
303
  8
0
 10
74.0
 20
118.89700000000001
 30
0.0
 11
72.229399999999998
 21
118.65000000000001
 31
0.0
  0
LINE
  5
304
  8
0
 10
74.0
 20
105.0
 30
0.0
 11
72.228320529322446
 21
105.284640073029
 31
0.0
  0
LINE
  5
305
  8
0
 10
74.0
 20
105.10299999999989
 30
0.0
 11
72.229399999999998
 21
105.34999999999989
 31
0.0
  0
LINE
  5
306
  8
0
 10
80.897059999999996
 20
112.0
 30
0.0
 11
80.650000000000006
 21
113.7709999999999
 31
0.0
  0
LINE
  5
307
  8
0
 10
77.479410000000001
 20
105.947
 30
0.0
 11
75.791179999999997
 21
105.247
 31
0.0
  0
LINE
  5
308
  8
0
 10
77.438239999999993
 20
106.0289999999999
 30
0.0
 11
75.770589999999999
 21
105.34999999999989
 31
0.0
  0
LINE
  5
309
  8
0
 10
78.959999999999994
 20
103.31999999999989
 30
0.0
 11
76.560000000000002
 21
102.36
 31
0.0
  0
LINE
  5
30A
  8
0
 10
78.888485930619254
 20
106.9485941748264
 30
0.0
 11
77.479410000000001
 21
105.947
 31
0.0
  0
LINE
  5
30B
  8
0
 10
78.879410000000007
 20
107.121
 30
0.0
 11
77.438239999999993
 21
106.0289999999999
 31
0.0
  0
LINE
  5
30C
  8
0
 10
80.052940000000007
 20
108.521
 30
0.0
 11
78.888485930619254
 21
106.9485941748264
 31
0.0
  0
LINE
  5
30D
  8
0
 10
79.970590000000001
 20
108.562
 30
0.0
 11
78.879410000000007
 21
107.121
 31
0.0
  0
LINE
  5
30E
  8
0
 10
80.752939999999995
 20
110.209
 30
0.0
 11
80.052940000000007
 21
108.521
 31
0.0
  0
LINE
  5
30F
  8
0
 10
80.650000000000006
 20
110.2289999999999
 30
0.0
 11
79.970590000000001
 21
108.562
 31
0.0
  0
LINE
  5
310
  8
0
 10
80.897059999999996
 20
112.0
 30
0.0
 11
80.650000000000006
 21
110.2289999999999
 31
0.0
  0
LINE
  5
311
  8
0
 10
76.560000000000002
 20
102.36
 30
0.0
 11
74.0
 21
102.0
 31
0.0
  0
LINE
  5
312
  8
0
 10
75.791179999999997
 20
105.247
 30
0.0
 11
74.0
 21
105.0
 31
0.0
  0
LINE
  5
313
  8
0
 10
75.770589999999999
 20
105.34999999999989
 30
0.0
 11
74.0
 21
105.10299999999989
 31
0.0
  0
LINE
  5
314
  8
0
 10
77.479410000000001
 20
118.053
 30
0.0
 11
75.791179999999997
 21
118.7529999999999
 31
0.0
  0
LINE
  5
315
  8
0
 10
77.438239999999993
 20
117.971
 30
0.0
 11
75.770589999999999
 21
118.65000000000001
 31
0.0
  0
LINE
  5
316
  8
0
 10
78.959999999999994
 20
120.68000000000001
 30
0.0
 11
76.560000000000002
 21
121.6399999999999
 31
0.0
  0
LINE
  5
317
  8
0
 10
80.052940000000007
 20
115.4789999999999
 30
0.0
 11
78.941180000000003
 21
116.941
 31
0.0
  0
LINE
  5
318
  8
0
 10
79.970590000000001
 20
115.4379999999999
 30
0.0
 11
78.879410000000007
 21
116.87899999999991
 31
0.0
  0
LINE
  5
319
  8
0
 10
80.752939999999995
 20
113.7909999999999
 30
0.0
 11
80.052940000000007
 21
115.4789999999999
 31
0.0
  0
LINE
  5
31A
  8
0
 10
80.650000000000006
 20
113.7709999999999
 30
0.0
 11
79.970590000000001
 21
115.4379999999999
 31
0.0
  0
LINE
  5
31B
  8
0
 10
78.941180000000003
 20
116.941
 30
0.0
 11
77.479410000000001
 21
118.053
 31
0.0
  0
LINE
  5
31C
  8
0
 10
78.879410000000007
 20
116.87899999999991
 30
0.0
 11
77.438239999999993
 21
117.971
 31
0.0
  0
LINE
  5
31D
  8
0
 10
76.560000000000002
 20
121.6399999999999
 30
0.0
 11
74.0
 21
122.0
 31
0.0
  0
LINE
  5
31E
  8
0
 10
75.791179999999997
 20
118.7529999999999
 30
0.0
 11
74.0
 21
119.0
 31
0.0
  0
LINE
  5
31F
  8
0
 10
75.770589999999999
 20
118.65000000000001
 30
0.0
 11
74.0
 21
118.89700000000001
 31
0.0
  0
LINE
  5
320
  8
0
 10
67.247100000000003
 20
113.7909999999999
 30
0.0
 11
67.0
 21
112.0
 31
0.0
  0
LINE
  5
321
  8
0
 10
67.349999999999994
 20
113.7709999999999
 30
0.0
 11
67.102900000000005
 21
112.0
 31
0.0
  0
LINE
  5
322
  8
0
 10
70.411912050261549
 20
105.99055987534889
 30
0.0
 11
69.024377438833994
 21
107.0494397583109
 31
0.0
  0
LINE
  5
323
  8
0
 10
70.561800000000005
 20
106.0289999999999
 30
0.0
 11
69.120599999999996
 21
107.121
 31
0.0
  0
LINE
  5
324
  8
0
 10
72.228320529322446
 20
105.284640073029
 30
0.0
 11
70.411912050261549
 21
105.99055987534889
 31
0.0
  0
LINE
  5
325
  8
0
 10
72.229399999999998
 20
105.34999999999989
 30
0.0
 11
70.561800000000005
 21
106.0289999999999
 31
0.0
  0
LINE
  5
326
  8
0
 10
67.990033589143536
 20
108.4612793629508
 30
0.0
 11
67.258424363703966
 21
110.1756564359724
 31
0.0
  0
LINE
  5
327
  8
0
 10
68.029399999999995
 20
108.562
 30
0.0
 11
67.349999999999994
 21
110.2289999999999
 31
0.0
  0
LINE
  5
328
  8
0
 10
69.024377438833994
 20
107.0494397583109
 30
0.0
 11
67.990033589143536
 21
108.4612793629508
 31
0.0
  0
LINE
  5
329
  8
0
 10
69.120599999999996
 20
107.121
 30
0.0
 11
68.029399999999995
 21
108.562
 31
0.0
  0
LINE
  5
32A
  8
0
 10
67.258424363703966
 20
110.1756564359724
 30
0.0
 11
67.0
 21
112.0
 31
0.0
  0
LINE
  5
32B
  8
0
 10
67.349999999999994
 20
110.2289999999999
 30
0.0
 11
67.102900000000005
 21
112.0
 31
0.0
  0
LINE
  5
32C
  8
0
 10
70.520600000000002
 20
118.053
 30
0.0
 11
69.058800000000005
 21
116.941
 31
0.0
  0
LINE
  5
32D
  8
0
 10
70.561800000000005
 20
117.971
 30
0.0
 11
69.120599999999996
 21
116.87899999999991
 31
0.0
  0
LINE
  5
32E
  8
0
 10
72.208799999999997
 20
118.7529999999999
 30
0.0
 11
70.520600000000002
 21
118.053
 31
0.0
  0
LINE
  5
32F
  8
0
 10
72.229399999999998
 20
118.65000000000001
 30
0.0
 11
70.561800000000005
 21
117.971
 31
0.0
  0
LINE
  5
330
  8
0
 10
67.947100000000006
 20
115.4789999999999
 30
0.0
 11
67.247100000000003
 21
113.7909999999999
 31
0.0
  0
LINE
  5
331
  8
0
 10
68.029399999999995
 20
115.4379999999999
 30
0.0
 11
67.349999999999994
 21
113.7709999999999
 31
0.0
  0
LINE
  5
332
  8
0
 10
69.058800000000005
 20
116.941
 30
0.0
 11
67.947100000000006
 21
115.4789999999999
 31
0.0
  0
LINE
  5
333
  8
0
 10
69.120599999999996
 20
116.87899999999991
 30
0.0
 11
68.029399999999995
 21
115.4379999999999
 31
0.0
  0
LINE
  5
334
  8
0
 10
3.0
 20
25.0
 30
0.0
 11
3.2470599999999989
 21
23.2088
 31
0.0
  0
LINE
  5
335
  8
0
 10
13.4794
 20
18.947099999999988
 30
0.0
 11
14.9412
 21
20.058800000000002
 31
0.0
  0
LINE
  5
336
  8
0
 10
10.0
 20
18.0
 30
0.0
 11
11.791199999999989
 21
18.247099999999989
 31
0.0
  0
LINE
  5
337
  8
0
 10
16.052900000000001
 20
21.520600000000002
 30
0.0
 11
16.777398811704749
 21
23.151364810298158
 31
0.0
  0
LINE
  5
338
  8
0
 10
16.777398811704749
 20
23.151364810298158
 30
0.0
 11
17.0
 21
25.0
 31
0.0
  0
LINE
  5
339
  8
0
 10
69.058800000000005
 20
29.941199999999998
 30
0.0
 11
67.947100000000006
 21
28.479399999999991
 31
0.0
  0
LINE
  5
33A
  8
0
 10
69.120599999999996
 20
29.8794
 30
0.0
 11
68.029399999999995
 21
28.438199999999998
 31
0.0
  0
LINE
  5
33B
  8
0
 10
80.052940000000007
 20
28.479399999999991
 30
0.0
 11
78.941180000000003
 21
29.941199999999998
 31
0.0
  0
LINE
  5
33C
  8
0
 10
80.052940000000007
 20
28.479399999999991
 30
0.0
 11
78.941180000000003
 21
29.941199999999998
 31
0.0
  0
LINE
  5
33D
  8
0
 10
79.970590000000001
 20
28.438199999999998
 30
0.0
 11
78.879410000000007
 21
29.8794
 31
0.0
  0
LINE
  5
33E
  8
0
 10
75.791179999999997
 20
31.7529
 30
0.0
 11
74.0
 21
32.0
 31
0.0
  0
LINE
  5
33F
  8
0
 10
75.770589999999999
 20
31.649999999999999
 30
0.0
 11
74.0
 21
31.897099999999991
 31
0.0
  0
LINE
  5
340
  8
0
 10
78.941180000000003
 20
29.941199999999998
 30
0.0
 11
77.479410000000001
 21
31.052900000000001
 31
0.0
  0
LINE
  5
341
  8
0
 10
78.879410000000007
 20
29.8794
 30
0.0
 11
77.438239999999993
 21
30.970600000000001
 31
0.0
  0
LINE
  5
342
  8
0
 10
77.479410000000001
 20
31.052900000000001
 30
0.0
 11
75.791179999999997
 21
31.7529
 31
0.0
  0
LINE
  5
343
  8
0
 10
77.438239999999993
 20
30.970600000000001
 30
0.0
 11
75.770589999999999
 21
31.649999999999999
 31
0.0
  0
LINE
  5
344
  8
0
 10
72.208799999999997
 20
31.7529
 30
0.0
 11
70.520600000000002
 21
31.052900000000001
 31
0.0
  0
LINE
  5
345
  8
0
 10
72.229399999999998
 20
31.649999999999999
 30
0.0
 11
70.561800000000005
 21
30.970600000000001
 31
0.0
  0
LINE
  5
346
  8
0
 10
74.0
 20
32.0
 30
0.0
 11
72.208799999999997
 21
31.7529
 31
0.0
  0
LINE
  5
347
  8
0
 10
74.0
 20
31.897099999999991
 30
0.0
 11
72.229399999999998
 21
31.649999999999999
 31
0.0
  0
LINE
  5
348
  8
0
 10
70.520600000000002
 20
31.052900000000001
 30
0.0
 11
69.058800000000005
 21
29.941199999999998
 31
0.0
  0
LINE
  5
349
  8
0
 10
70.561800000000005
 20
30.970600000000001
 30
0.0
 11
69.120599999999996
 21
29.8794
 31
0.0
  0
LINE
  5
34A
  8
0
 10
67.947100000000006
 20
28.479399999999991
 30
0.0
 11
67.247100000000003
 21
26.7912
 31
0.0
  0
LINE
  5
34B
  8
0
 10
68.029399999999995
 20
28.438199999999998
 30
0.0
 11
67.349999999999994
 21
26.770600000000002
 31
0.0
  0
LINE
  5
34C
  8
0
 10
80.752939999999995
 20
23.2088
 30
0.0
 11
80.052940000000007
 21
21.520600000000002
 31
0.0
  0
LINE
  5
34D
  8
0
 10
80.650000000000006
 20
23.229399999999998
 30
0.0
 11
79.970590000000001
 21
21.561800000000002
 31
0.0
  0
LINE
  5
34E
  8
0
 10
80.897059999999996
 20
25.0
 30
0.0
 11
80.650000000000006
 21
26.770600000000002
 31
0.0
  0
LINE
  5
34F
  8
0
 10
81.0
 20
25.0
 30
0.0
 11
80.752939999999995
 21
26.7912
 31
0.0
  0
LINE
  5
350
  8
0
 10
81.0
 20
25.0
 30
0.0
 11
80.752939999999995
 21
23.2088
 31
0.0
  0
LINE
  5
351
  8
0
 10
80.897059999999996
 20
25.0
 30
0.0
 11
80.650000000000006
 21
23.229399999999998
 31
0.0
  0
LINE
  5
352
  8
0
 10
67.947100000000006
 20
21.520600000000002
 30
0.0
 11
67.222601188295243
 21
23.151364810298158
 31
0.0
  0
LINE
  5
353
  8
0
 10
68.029399999999995
 20
21.561800000000002
 30
0.0
 11
67.349999999999994
 21
23.229399999999998
 31
0.0
  0
LINE
  5
354
  8
0
 10
67.247100000000003
 20
26.7912
 30
0.0
 11
67.0
 21
25.0
 31
0.0
  0
LINE
  5
355
  8
0
 10
67.349999999999994
 20
26.770600000000002
 30
0.0
 11
67.102900000000005
 21
25.0
 31
0.0
  0
LINE
  5
356
  8
0
 10
67.222601188295243
 20
23.151364810298158
 30
0.0
 11
67.0
 21
25.0
 31
0.0
  0
LINE
  5
357
  8
0
 10
67.349999999999994
 20
23.229399999999998
 30
0.0
 11
67.102900000000005
 21
25.0
 31
0.0
  0
LINE
  5
358
  8
0
 10
80.752939999999995
 20
26.7912
 30
0.0
 11
80.052940000000007
 21
28.479399999999991
 31
0.0
  0
LINE
  5
359
  8
0
 10
80.650000000000006
 20
26.770600000000002
 30
0.0
 11
79.970590000000001
 21
28.438199999999998
 31
0.0
  0
LINE
  5
35A
  8
0
 10
78.941180000000003
 20
20.058800000000002
 30
0.0
 11
77.479410000000001
 21
18.947099999999988
 31
0.0
  0
LINE
  5
35B
  8
0
 10
78.879410000000007
 20
20.120599999999989
 30
0.0
 11
77.438239999999993
 21
19.029399999999999
 31
0.0
  0
LINE
  5
35C
  8
0
 10
80.052940000000007
 20
21.520600000000002
 30
0.0
 11
78.941180000000003
 21
20.058800000000002
 31
0.0
  0
LINE
  5
35D
  8
0
 10
79.970590000000001
 20
21.561800000000002
 30
0.0
 11
78.879410000000007
 21
20.120599999999989
 31
0.0
  0
LINE
  5
35E
  8
0
 10
75.791179999999997
 20
18.247099999999989
 30
0.0
 11
74.0
 21
18.0
 31
0.0
  0
LINE
  5
35F
  8
0
 10
75.770589999999999
 20
18.350000000000001
 30
0.0
 11
74.0
 21
18.102900000000002
 31
0.0
  0
LINE
  5
360
  8
0
 10
77.479410000000001
 20
18.947099999999988
 30
0.0
 11
75.791179999999997
 21
18.247099999999989
 31
0.0
  0
LINE
  5
361
  8
0
 10
77.438239999999993
 20
19.029399999999999
 30
0.0
 11
75.770589999999999
 21
18.350000000000001
 31
0.0
  0
LINE
  5
362
  8
0
 10
72.208799999999997
 20
18.247099999999989
 30
0.0
 11
70.520600000000002
 21
18.947099999999988
 31
0.0
  0
LINE
  5
363
  8
0
 10
72.229399999999998
 20
18.350000000000001
 30
0.0
 11
70.561800000000005
 21
19.029399999999999
 31
0.0
  0
LINE
  5
364
  8
0
 10
74.0
 20
18.0
 30
0.0
 11
72.208799999999997
 21
18.247099999999989
 31
0.0
  0
LINE
  5
365
  8
0
 10
74.0
 20
18.102900000000002
 30
0.0
 11
72.229399999999998
 21
18.350000000000001
 31
0.0
  0
LINE
  5
366
  8
0
 10
69.058800000000005
 20
20.058800000000002
 30
0.0
 11
67.947100000000006
 21
21.520600000000002
 31
0.0
  0
LINE
  5
367
  8
0
 10
69.120599999999996
 20
20.120599999999989
 30
0.0
 11
68.029399999999995
 21
21.561800000000002
 31
0.0
  0
LINE
  5
368
  8
0
 10
70.520600000000002
 20
18.947099999999988
 30
0.0
 11
69.058800000000005
 21
20.058800000000002
 31
0.0
  0
LINE
  5
369
  8
0
 10
70.561800000000005
 20
19.029399999999999
 30
0.0
 11
69.120599999999996
 21
20.120599999999989
 31
0.0
  0
ENDSEC
  0
EOF
