  0
SECTION
  2
HEADER
  9
$ACADVER
  1
AC1009
  9
$INSBASE
 10
0.0
 20
0.0
 30
0.0
  9
$EXTMIN
 10
0.0
 20
-0.0000000000000012
 30
0.0
  9
$EXTMAX
 10
120.0
 20
120.0
 30
0.0
  9
$LIMMIN
 10
0.0
 20
0.0
  9
$LIMMAX
 10
12.0
 20
9.0
  9
$ORTHOMODE
 70
     0
  9
$REGENMODE
 70
     1
  9
$FILLMODE
 70
     1
  9
$QTEXTMODE
 70
     0
  9
$MIRRTEXT
 70
     1
  9
$DRAGMODE
 70
     2
  9
$LTSCALE
 40
1.0
  9
$OSMODE
 70
    37
  9
$ATTMODE
 70
     1
  9
$TEXTSIZE
 40
0.2
  9
$TRACEWID
 40
0.05
  9
$TEXTSTYLE
  7
STANDARD
  9
$CLAYER
  8
0
  9
$CELTYPE
  6
CONTINUOUS
  9
$CECOLOR
 62
   256
  9
$DIMSCALE
 40
1.0
  9
$DIMASZ
 40
0.18
  9
$DIMEXO
 40
0.0625
  9
$DIMDLI
 40
0.38
  9
$DIMRND
 40
0.0
  9
$DIMDLE
 40
0.0
  9
$DIMEXE
 40
0.18
  9
$DIMTP
 40
0.0
  9
$DIMTM
 40
0.0
  9
$DIMTXT
 40
0.18
  9
$DIMCEN
 40
0.09
  9
$DIMTSZ
 40
0.0
  9
$DIMTOL
 70
     0
  9
$DIMLIM
 70
     0
  9
$DIMTIH
 70
     1
  9
$DIMTOH
 70
     1
  9
$DIMSE1
 70
     0
  9
$DIMSE2
 70
     0
  9
$DIMTAD
 70
     0
  9
$DIMZIN
 70
     0
  9
$DIMBLK
  1

  9
$DIMASO
 70
     1
  9
$DIMSHO
 70
     1
  9
$DIMPOST
  1

  9
$DIMAPOST
  1

  9
$DIMALT
 70
     0
  9
$DIMALTD
 70
     2
  9
$DIMALTF
 40
25.399999999999999
  9
$DIMLFAC
 40
1.0
  9
$DIMTOFL
 70
     0
  9
$DIMTVP
 40
0.0
  9
$DIMTIX
 70
     0
  9
$DIMSOXD
 70
     0
  9
$DIMSAH
 70
     0
  9
$DIMBLK1
  1

  9
$DIMBLK2
  1

  9
$DIMSTYLE
  2
STANDARD
  9
$DIMCLRD
 70
     0
  9
$DIMCLRE
 70
     0
  9
$DIMCLRT
 70
     0
  9
$DIMTFAC
 40
1.0
  9
$DIMGAP
 40
0.09
  9
$LUNITS
 70
     2
  9
$LUPREC
 70
     4
  9
$SKETCHINC
 40
0.1
  9
$FILLETRAD
 40
0.0
  9
$AUNITS
 70
     0
  9
$AUPREC
 70
     0
  9
$MENU
  1
.
  9
$ELEVATION
 40
0.0
  9
$PELEVATION
 40
0.0
  9
$THICKNESS
 40
0.0
  9
$LIMCHECK
 70
     0
  9
$BLIPMODE
 70
     0
  9
$CHAMFERA
 40
0.0
  9
$CHAMFERB
 40
0.0
  9
$SKPOLY
 70
     0
  9
$TDCREATE
 40
2454674.6335259262
  9
$TDUPDATE
 40
2454674.6341870949
  9
$TDINDWG
 40
0.0006613542
  9
$TDUSRTIMER
 40
0.0006613542
  9
$USRTIMER
 70
     1
  9
$ANGBASE
 50
0.0
  9
$ANGDIR
 70
     0
  9
$PDMODE
 70
     0
  9
$PDSIZE
 40
0.0
  9
$PLINEWID
 40
0.0
  9
$COORDS
 70
     1
  9
$SPLFRAME
 70
     0
  9
$SPLINETYPE
 70
     6
  9
$SPLINESEGS
 70
     8
  9
$ATTDIA
 70
     0
  9
$ATTREQ
 70
     1
  9
$HANDLING
 70
 22529
  9
$HANDSEED
  5
A67
  9
$SURFTAB1
 70
     6
  9
$SURFTAB2
 70
     6
  9
$SURFTYPE
 70
     6
  9
$SURFU
 70
     6
  9
$SURFV
 70
     6
  9
$UCSNAME
  2

  9
$UCSORG
 10
0.0
 20
0.0
 30
0.0
  9
$UCSXDIR
 10
1.0
 20
0.0
 30
0.0
  9
$UCSYDIR
 10
0.0
 20
1.0
 30
0.0
  9
$PUCSNAME
  2

  9
$PUCSORG
 10
0.0
 20
0.0
 30
0.0
  9
$PUCSXDIR
 10
1.0
 20
0.0
 30
0.0
  9
$PUCSYDIR
 10
0.0
 20
1.0
 30
0.0
  9
$USERI1
 70
     0
  9
$USERI2
 70
     0
  9
$USERI3
 70
     0
  9
$USERI4
 70
     0
  9
$USERI5
 70
     0
  9
$USERR1
 40
0.0
  9
$USERR2
 40
0.0
  9
$USERR3
 40
0.0
  9
$USERR4
 40
0.0
  9
$USERR5
 40
0.0
  9
$WORLDVIEW
 70
     1
  9
$SHADEDGE
 70
     3
  9
$SHADEDIF
 70
    70
  9
$TILEMODE
 70
     1
  9
$MAXACTVP
 70
    64
  9
$PLIMCHECK
 70
     0
  9
$PEXTMIN
 10
1.0000000000000000E+020
 20
1.0000000000000000E+020
 30
1.0000000000000000E+020
  9
$PEXTMAX
 10
-1.0000000000000000E+020
 20
-1.0000000000000000E+020
 30
-1.0000000000000000E+020
  9
$PLIMMIN
 10
0.0
 20
0.0
  9
$PLIMMAX
 10
12.0
 20
9.0
  9
$UNITMODE
 70
     0
  9
$VISRETAIN
 70
     1
  9
$PLINEGEN
 70
     0
  9
$PSLTSCALE
 70
     1
  0
ENDSEC
  0
SECTION
  2
TABLES
  0
TABLE
  2
VPORT
 70
     4
  0
VPORT
  2
*ACTIVE
 70
     0
 10
0.0
 20
0.0
 11
1.0
 21
1.0
 12
60.0
 22
60.0
 13
0.0
 23
0.0
 14
1.0
 24
1.0
 15
0.0
 25
0.0
 16
0.0
 26
0.0
 36
1.0
 17
0.0
 27
0.0
 37
0.0
 40
120.92071611253191
 41
2.0435339308578739
 42
50.0
 43
0.0
 44
0.0
 50
0.0
 51
0.0
 71
     0
 72
   100
 73
     1
 74
     3
 75
     0
 76
     0
 77
     0
 78
     0
  0
ENDTAB
  0
TABLE
  2
LTYPE
 70
     1
  0
LTYPE
  2
CONTINUOUS
 70
     0
  3
Solid line
 72
    65
 73
     0
 40
0.0
  0
ENDTAB
  0
TABLE
  2
LAYER
 70
     1
  0
LAYER
  2
0
 70
     0
 62
     7
  6
CONTINUOUS
  0
ENDTAB
  0
TABLE
  2
STYLE
 70
     1
  0
STYLE
  2
STANDARD
 70
     0
 40
0.0
 41
1.0
 50
0.0
 71
     0
 42
0.2
  3
txt
  4

  0
ENDTAB
  0
TABLE
  2
VIEW
 70
     0
  0
ENDTAB
  0
TABLE
  2
UCS
 70
     0
  0
ENDTAB
  0
TABLE
  2
APPID
 70
     1
  0
APPID
  2
ACAD
 70
     0
  0
ENDTAB
  0
TABLE
  2
DIMSTYLE
 70
     1
  0
DIMSTYLE
  2
STANDARD
 70
     0
  3

  4

  5

  6

  7

 40
1.0
 41
0.18
 42
0.0625
 43
0.38
 44
0.18
 45
0.0
 46
0.0
 47
0.0
 48
0.0
140
0.18
141
0.09
142
0.0
143
25.399999999999999
144
1.0
145
0.0
146
1.0
147
0.09
 71
     0
 72
     0
 73
     1
 74
     1
 75
     0
 76
     0
 77
     0
 78
     0
170
     0
171
     2
172
     0
173
     0
174
     0
175
     0
176
     0
177
     0
178
     0
  0
ENDTAB
  0
ENDSEC
  0
SECTION
  2
BLOCKS
  0
BLOCK
  8
0
  2
$MODEL_SPACE
 70
     0
 10
0.0
 20
0.0
 30
0.0
  3
$MODEL_SPACE
  1

  0
ENDBLK
  5
20
  8
0
  0
BLOCK
 67
     1
  8
0
  2
$PAPER_SPACE
 70
     0
 10
0.0
 20
0.0
 30
0.0
  3
$PAPER_SPACE
  1

  0
ENDBLK
  5
1C
 67
     1
  8
0
  0
ENDSEC
  0
SECTION
  2
ENTITIES
  0
LINE
  5
22
  8
0
 10
0.0
 20
1.0
 30
0.0
 11
0.0
 21
119.0
 31
0.0
  0
LINE
  5
23
  8
0
 10
0.3
 20
0.2999999999999989
 30
0.0
 11
1.0
 21
-0.0000000000000012
 31
0.0
  0
LINE
  5
24
  8
0
 10
0.0
 20
0.9999999999999989
 30
0.0
 11
0.3
 21
0.2999999999999989
 31
0.0
  0
LINE
  5
25
  8
0
 10
0.0
 20
0.9999999999999989
 30
0.0
 11
0.3
 21
0.2999999999999989
 31
0.0
  0
LINE
  5
26
  8
0
 10
0.0
 20
119.0
 30
0.0
 11
0.3
 21
119.7
 31
0.0
  0
LINE
  5
27
  8
0
 10
0.0
 20
119.0
 30
0.0
 11
0.0
 21
0.999999999999996
 31
0.0
  0
LINE
  5
28
  8
0
 10
0.3
 20
0.2999999999999989
 30
0.0
 11
1.0
 21
-0.0000000000000012
 31
0.0
  0
LINE
  5
29
  8
0
 10
0.3
 20
0.3
 30
0.0
 11
0.5
 21
0.3
 31
0.0
  0
LINE
  5
2A
  8
0
 10
0.5
 20
0.3
 30
0.0
 11
1.0
 21
0.3
 31
0.0
  0
LINE
  5
2B
  8
0
 10
0.3
 20
1.0
 30
0.0
 11
0.3
 21
119.0
 31
0.0
  0
LINE
  5
2C
  8
0
 10
0.3
 20
1.0
 30
0.0
 11
0.5
 21
0.3
 31
0.0
  0
LINE
  5
2D
  8
0
 10
0.3
 20
119.0
 30
0.0
 11
0.5
 21
119.7
 31
0.0
  0
LINE
  5
2E
  8
0
 10
0.3
 20
119.0
 30
0.0
 11
0.3
 21
0.999999999999996
 31
0.0
  0
LINE
  5
2F
  8
0
 10
1.0
 20
-0.0000000000000012
 30
0.0
 11
119.0
 21
-0.0000000000000012
 31
0.0
  0
LINE
  5
30
  8
0
 10
0.999999999999996
 20
-0.0000000000000012
 30
0.0
 11
119.0
 21
-0.0000000000000012
 31
0.0
  0
LINE
  5
31
  8
0
 10
0.999999999999996
 20
0.3
 30
0.0
 11
119.0
 21
0.3
 31
0.0
  0
LINE
  5
32
  8
0
 10
12.0
 20
23.787199999999991
 30
0.0
 11
108.0
 21
23.787199999999991
 31
0.0
  0
LINE
  5
33
  8
0
 10
12.0
 20
21.829799999999999
 30
0.0
 11
14.0
 21
21.829799999999999
 31
0.0
  0
LINE
  5
34
  8
0
 10
12.0
 20
21.829799999999999
 30
0.0
 11
108.0
 21
21.829799999999999
 31
0.0
  0
LINE
  5
35
  8
0
 10
12.0
 20
31.61699999999999
 30
0.0
 11
108.0
 21
31.61699999999999
 31
0.0
  0
LINE
  5
36
  8
0
 10
12.0
 20
29.659600000000001
 30
0.0
 11
14.0
 21
29.659600000000001
 31
0.0
  0
LINE
  5
37
  8
0
 10
12.0
 20
29.659600000000001
 30
0.0
 11
108.0
 21
29.659600000000001
 31
0.0
  0
LINE
  5
38
  8
0
 10
12.0
 20
35.5319
 30
0.0
 11
108.0
 21
35.5319
 31
0.0
  0
LINE
  5
39
  8
0
 10
12.0
 20
33.5745
 30
0.0
 11
14.0
 21
33.5745
 31
0.0
  0
LINE
  5
3A
  8
0
 10
12.0
 20
33.5745
 30
0.0
 11
108.0
 21
33.5745
 31
0.0
  0
LINE
  5
3B
  8
0
 10
12.0
 20
47.276600000000002
 30
0.0
 11
108.0
 21
47.276600000000002
 31
0.0
  0
LINE
  5
3C
  8
0
 10
12.0
 20
45.319099999999992
 30
0.0
 11
14.0
 21
45.319099999999992
 31
0.0
  0
LINE
  5
3D
  8
0
 10
12.0
 20
45.319099999999992
 30
0.0
 11
108.0
 21
45.319099999999992
 31
0.0
  0
LINE
  5
3E
  8
0
 10
12.0
 20
51.191499999999998
 30
0.0
 11
108.0
 21
51.191499999999998
 31
0.0
  0
LINE
  5
3F
  8
0
 10
12.0
 20
49.233999999999988
 30
0.0
 11
14.0
 21
49.233999999999988
 31
0.0
  0
LINE
  5
40
  8
0
 10
12.0
 20
49.233999999999988
 30
0.0
 11
108.0
 21
49.233999999999988
 31
0.0
  0
LINE
  5
41
  8
0
 10
12.0
 20
59.021299999999989
 30
0.0
 11
108.0
 21
59.021299999999989
 31
0.0
  0
LINE
  5
42
  8
0
 10
12.0
 20
57.063800000000001
 30
0.0
 11
14.0
 21
57.063800000000001
 31
0.0
  0
LINE
  5
43
  8
0
 10
12.0
 20
57.063800000000001
 30
0.0
 11
108.0
 21
57.063800000000001
 31
0.0
  0
LINE
  5
44
  8
0
 10
12.0
 20
55.106400000000001
 30
0.0
 11
108.0
 21
55.106400000000001
 31
0.0
  0
LINE
  5
45
  8
0
 10
12.0
 20
53.148899999999998
 30
0.0
 11
14.0
 21
53.148899999999998
 31
0.0
  0
LINE
  5
46
  8
0
 10
12.0
 20
53.148899999999998
 30
0.0
 11
108.0
 21
53.148899999999998
 31
0.0
  0
LINE
  5
47
  8
0
 10
12.0
 20
70.766000000000005
 30
0.0
 11
108.0
 21
70.766000000000005
 31
0.0
  0
LINE
  5
48
  8
0
 10
12.0
 20
68.808499999999995
 30
0.0
 11
14.0
 21
68.808499999999995
 31
0.0
  0
LINE
  5
49
  8
0
 10
12.0
 20
68.808499999999995
 30
0.0
 11
108.0
 21
68.808499999999995
 31
0.0
  0
LINE
  5
4A
  8
0
 10
12.0
 20
78.595699999999994
 30
0.0
 11
108.0
 21
78.595699999999994
 31
0.0
  0
LINE
  5
4B
  8
0
 10
12.0
 20
76.638300000000001
 30
0.0
 11
14.0
 21
76.638300000000001
 31
0.0
  0
LINE
  5
4C
  8
0
 10
12.0
 20
76.638300000000001
 30
0.0
 11
108.0
 21
76.638300000000001
 31
0.0
  0
LINE
  5
4D
  8
0
 10
12.0
 20
82.510599999999997
 30
0.0
 11
108.0
 21
82.510599999999997
 31
0.0
  0
LINE
  5
4E
  8
0
 10
12.0
 20
80.553200000000004
 30
0.0
 11
14.0
 21
80.553200000000004
 31
0.0
  0
LINE
  5
4F
  8
0
 10
12.0
 20
80.553200000000004
 30
0.0
 11
108.0
 21
80.553200000000004
 31
0.0
  0
LINE
  5
50
  8
0
 10
12.0
 20
90.340400000000002
 30
0.0
 11
108.0
 21
90.340400000000002
 31
0.0
  0
LINE
  5
51
  8
0
 10
12.0
 20
88.382999999999996
 30
0.0
 11
14.0
 21
88.382999999999996
 31
0.0
  0
LINE
  5
52
  8
0
 10
12.0
 20
88.382999999999996
 30
0.0
 11
108.0
 21
88.382999999999996
 31
0.0
  0
LINE
  5
53
  8
0
 10
12.0
 20
86.425499999999985
 30
0.0
 11
108.0
 21
86.425499999999985
 31
0.0
  0
LINE
  5
54
  8
0
 10
12.0
 20
84.468100000000007
 30
0.0
 11
14.0
 21
84.468100000000007
 31
0.0
  0
LINE
  5
55
  8
0
 10
12.0
 20
84.468100000000007
 30
0.0
 11
108.0
 21
84.468100000000007
 31
0.0
  0
LINE
  5
56
  8
0
 10
12.0
 20
102.08499999999999
 30
0.0
 11
108.0
 21
102.08499999999999
 31
0.0
  0
LINE
  5
57
  8
0
 10
12.0
 20
100.1279999999999
 30
0.0
 11
14.0
 21
100.1279999999999
 31
0.0
  0
LINE
  5
58
  8
0
 10
12.0
 20
100.1279999999999
 30
0.0
 11
108.0
 21
100.1279999999999
 31
0.0
  0
LINE
  5
59
  8
0
 10
12.0
 20
106.0
 30
0.0
 11
108.0
 21
106.0
 31
0.0
  0
LINE
  5
5A
  8
0
 10
12.0
 20
104.04299999999991
 30
0.0
 11
14.0
 21
104.04299999999991
 31
0.0
  0
LINE
  5
5B
  8
0
 10
12.0
 20
104.04299999999991
 30
0.0
 11
108.0
 21
104.04299999999991
 31
0.0
  0
LINE
  5
5C
  8
0
 10
12.0
 20
98.170199999999994
 30
0.0
 11
108.0
 21
98.170199999999994
 31
0.0
  0
LINE
  5
5D
  8
0
 10
12.0
 20
96.212800000000001
 30
0.0
 11
14.0
 21
96.212800000000001
 31
0.0
  0
LINE
  5
5E
  8
0
 10
12.0
 20
96.212800000000001
 30
0.0
 11
108.0
 21
96.212800000000001
 31
0.0
  0
LINE
  5
5F
  8
0
 10
12.0
 20
94.255300000000005
 30
0.0
 11
108.0
 21
94.255300000000005
 31
0.0
  0
LINE
  5
60
  8
0
 10
12.0
 20
92.297899999999984
 30
0.0
 11
14.0
 21
92.297899999999984
 31
0.0
  0
LINE
  5
61
  8
0
 10
12.0
 20
92.297899999999984
 30
0.0
 11
108.0
 21
92.297899999999984
 31
0.0
  0
LINE
  5
62
  8
0
 10
12.0
 20
74.680899999999994
 30
0.0
 11
108.0
 21
74.680899999999994
 31
0.0
  0
LINE
  5
63
  8
0
 10
12.0
 20
72.723399999999984
 30
0.0
 11
14.0
 21
72.723399999999984
 31
0.0
  0
LINE
  5
64
  8
0
 10
12.0
 20
72.723399999999984
 30
0.0
 11
108.0
 21
72.723399999999984
 31
0.0
  0
LINE
  5
65
  8
0
 10
12.0
 20
66.851100000000002
 30
0.0
 11
108.0
 21
66.851100000000002
 31
0.0
  0
LINE
  5
66
  8
0
 10
12.0
 20
64.893600000000006
 30
0.0
 11
14.0
 21
64.893600000000006
 31
0.0
  0
LINE
  5
67
  8
0
 10
12.0
 20
64.893600000000006
 30
0.0
 11
108.0
 21
64.893600000000006
 31
0.0
  0
LINE
  5
68
  8
0
 10
12.0
 20
62.936199999999999
 30
0.0
 11
108.0
 21
62.936199999999999
 31
0.0
  0
LINE
  5
69
  8
0
 10
12.0
 20
60.978700000000003
 30
0.0
 11
14.0
 21
60.978700000000003
 31
0.0
  0
LINE
  5
6A
  8
0
 10
12.0
 20
60.978700000000003
 30
0.0
 11
108.0
 21
60.978700000000003
 31
0.0
  0
LINE
  5
6B
  8
0
 10
12.0
 20
43.361699999999999
 30
0.0
 11
108.0
 21
43.361699999999999
 31
0.0
  0
LINE
  5
6C
  8
0
 10
12.0
 20
41.404299999999999
 30
0.0
 11
14.0
 21
41.404299999999999
 31
0.0
  0
LINE
  5
6D
  8
0
 10
12.0
 20
41.404299999999999
 30
0.0
 11
108.0
 21
41.404299999999999
 31
0.0
  0
LINE
  5
6E
  8
0
 10
12.0
 20
39.446800000000003
 30
0.0
 11
108.0
 21
39.446800000000003
 31
0.0
  0
LINE
  5
6F
  8
0
 10
12.0
 20
37.489400000000003
 30
0.0
 11
14.0
 21
37.489400000000003
 31
0.0
  0
LINE
  5
70
  8
0
 10
12.0
 20
37.489400000000003
 30
0.0
 11
108.0
 21
37.489400000000003
 31
0.0
  0
LINE
  5
71
  8
0
 10
12.0
 20
27.702100000000002
 30
0.0
 11
108.0
 21
27.702100000000002
 31
0.0
  0
LINE
  5
72
  8
0
 10
12.0
 20
25.744700000000002
 30
0.0
 11
14.0
 21
25.744700000000002
 31
0.0
  0
LINE
  5
73
  8
0
 10
12.0
 20
25.744700000000002
 30
0.0
 11
108.0
 21
25.744700000000002
 31
0.0
  0
LINE
  5
74
  8
0
 10
12.0
 20
19.872299999999999
 30
0.0
 11
108.0
 21
19.872299999999999
 31
0.0
  0
LINE
  5
75
  8
0
 10
12.0
 20
17.914899999999999
 30
0.0
 11
14.0
 21
17.914899999999999
 31
0.0
  0
LINE
  5
76
  8
0
 10
12.0
 20
17.914899999999999
 30
0.0
 11
108.0
 21
17.914899999999999
 31
0.0
  0
LINE
  5
77
  8
0
 10
12.0
 20
15.9574
 30
0.0
 11
108.0
 21
15.9574
 31
0.0
  0
LINE
  5
78
  8
0
 10
12.0
 20
14.0
 30
0.0
 11
14.0
 21
14.0
 31
0.0
  0
LINE
  5
79
  8
0
 10
12.0
 20
14.0
 30
0.0
 11
108.0
 21
14.0
 31
0.0
  0
LINE
  5
7A
  8
0
 10
12.0
 20
14.0
 30
0.0
 11
108.0
 21
14.0
 31
0.0
  0
LINE
  5
7B
  8
0
 10
12.0
 20
14.0
 30
0.0
 11
14.0
 21
14.0
 31
0.0
  0
LINE
  5
7C
  8
0
 10
12.0
 20
14.0
 30
0.0
 11
12.0
 21
15.9574
 31
0.0
  0
LINE
  5
7D
  8
0
 10
12.0
 20
21.829799999999999
 30
0.0
 11
108.0
 21
21.829799999999999
 31
0.0
  0
LINE
  5
7E
  8
0
 10
12.0
 20
21.829799999999999
 30
0.0
 11
14.0
 21
21.829799999999999
 31
0.0
  0
LINE
  5
7F
  8
0
 10
12.0
 20
21.829799999999999
 30
0.0
 11
12.0
 21
23.787199999999991
 31
0.0
  0
LINE
  5
80
  8
0
 10
12.0
 20
23.787199999999991
 30
0.0
 11
12.0
 21
21.829799999999999
 31
0.0
  0
LINE
  5
81
  8
0
 10
12.0
 20
23.787199999999991
 30
0.0
 11
108.0
 21
23.787199999999991
 31
0.0
  0
LINE
  5
82
  8
0
 10
12.0
 20
29.659600000000001
 30
0.0
 11
108.0
 21
29.659600000000001
 31
0.0
  0
LINE
  5
83
  8
0
 10
12.0
 20
29.659600000000001
 30
0.0
 11
14.0
 21
29.659600000000001
 31
0.0
  0
LINE
  5
84
  8
0
 10
12.0
 20
29.659600000000001
 30
0.0
 11
12.0
 21
31.61699999999999
 31
0.0
  0
LINE
  5
85
  8
0
 10
12.0
 20
31.61699999999999
 30
0.0
 11
12.0
 21
29.659600000000001
 31
0.0
  0
LINE
  5
86
  8
0
 10
12.0
 20
31.61699999999999
 30
0.0
 11
108.0
 21
31.61699999999999
 31
0.0
  0
LINE
  5
87
  8
0
 10
12.0
 20
33.5745
 30
0.0
 11
108.0
 21
33.5745
 31
0.0
  0
LINE
  5
88
  8
0
 10
12.0
 20
33.5745
 30
0.0
 11
14.0
 21
33.5745
 31
0.0
  0
LINE
  5
89
  8
0
 10
12.0
 20
33.5745
 30
0.0
 11
12.0
 21
35.5319
 31
0.0
  0
LINE
  5
8A
  8
0
 10
12.0
 20
35.5319
 30
0.0
 11
12.0
 21
33.5745
 31
0.0
  0
LINE
  5
8B
  8
0
 10
12.0
 20
35.5319
 30
0.0
 11
108.0
 21
35.5319
 31
0.0
  0
LINE
  5
8C
  8
0
 10
12.0
 20
45.319099999999992
 30
0.0
 11
108.0
 21
45.319099999999992
 31
0.0
  0
LINE
  5
8D
  8
0
 10
12.0
 20
45.319099999999992
 30
0.0
 11
14.0
 21
45.319099999999992
 31
0.0
  0
LINE
  5
8E
  8
0
 10
12.0
 20
45.319099999999992
 30
0.0
 11
12.0
 21
47.276600000000002
 31
0.0
  0
LINE
  5
8F
  8
0
 10
12.0
 20
47.276600000000002
 30
0.0
 11
12.0
 21
45.319099999999992
 31
0.0
  0
LINE
  5
90
  8
0
 10
12.0
 20
47.276600000000002
 30
0.0
 11
108.0
 21
47.276600000000002
 31
0.0
  0
LINE
  5
91
  8
0
 10
12.0
 20
49.233999999999988
 30
0.0
 11
108.0
 21
49.233999999999988
 31
0.0
  0
LINE
  5
92
  8
0
 10
12.0
 20
49.233999999999988
 30
0.0
 11
14.0
 21
49.233999999999988
 31
0.0
  0
LINE
  5
93
  8
0
 10
12.0
 20
49.233999999999988
 30
0.0
 11
12.0
 21
51.191499999999998
 31
0.0
  0
LINE
  5
94
  8
0
 10
12.0
 20
51.191499999999998
 30
0.0
 11
12.0
 21
49.233999999999988
 31
0.0
  0
LINE
  5
95
  8
0
 10
12.0
 20
51.191499999999998
 30
0.0
 11
108.0
 21
51.191499999999998
 31
0.0
  0
LINE
  5
96
  8
0
 10
12.0
 20
57.063800000000001
 30
0.0
 11
108.0
 21
57.063800000000001
 31
0.0
  0
LINE
  5
97
  8
0
 10
12.0
 20
57.063800000000001
 30
0.0
 11
14.0
 21
57.063800000000001
 31
0.0
  0
LINE
  5
98
  8
0
 10
12.0
 20
57.063800000000001
 30
0.0
 11
12.0
 21
59.021299999999989
 31
0.0
  0
LINE
  5
99
  8
0
 10
12.0
 20
59.021299999999989
 30
0.0
 11
12.0
 21
57.063800000000001
 31
0.0
  0
LINE
  5
9A
  8
0
 10
12.0
 20
59.021299999999989
 30
0.0
 11
108.0
 21
59.021299999999989
 31
0.0
  0
LINE
  5
9B
  8
0
 10
12.0
 20
53.148899999999998
 30
0.0
 11
108.0
 21
53.148899999999998
 31
0.0
  0
LINE
  5
9C
  8
0
 10
12.0
 20
53.148899999999998
 30
0.0
 11
14.0
 21
53.148899999999998
 31
0.0
  0
LINE
  5
9D
  8
0
 10
12.0
 20
53.148899999999998
 30
0.0
 11
12.0
 21
55.106400000000001
 31
0.0
  0
LINE
  5
9E
  8
0
 10
12.0
 20
55.106400000000001
 30
0.0
 11
12.0
 21
53.148899999999998
 31
0.0
  0
LINE
  5
9F
  8
0
 10
12.0
 20
55.106400000000001
 30
0.0
 11
108.0
 21
55.106400000000001
 31
0.0
  0
LINE
  5
A0
  8
0
 10
12.0
 20
68.808499999999995
 30
0.0
 11
108.0
 21
68.808499999999995
 31
0.0
  0
LINE
  5
A1
  8
0
 10
12.0
 20
68.808499999999995
 30
0.0
 11
14.0
 21
68.808499999999995
 31
0.0
  0
LINE
  5
A2
  8
0
 10
12.0
 20
68.808499999999995
 30
0.0
 11
12.0
 21
70.766000000000005
 31
0.0
  0
LINE
  5
A3
  8
0
 10
12.0
 20
70.766000000000005
 30
0.0
 11
12.0
 21
68.808499999999995
 31
0.0
  0
LINE
  5
A4
  8
0
 10
12.0
 20
70.766000000000005
 30
0.0
 11
108.0
 21
70.766000000000005
 31
0.0
  0
LINE
  5
A5
  8
0
 10
12.0
 20
76.638300000000001
 30
0.0
 11
108.0
 21
76.638300000000001
 31
0.0
  0
LINE
  5
A6
  8
0
 10
12.0
 20
76.638300000000001
 30
0.0
 11
14.0
 21
76.638300000000001
 31
0.0
  0
LINE
  5
A7
  8
0
 10
12.0
 20
76.638300000000001
 30
0.0
 11
12.0
 21
78.595699999999994
 31
0.0
  0
LINE
  5
A8
  8
0
 10
12.0
 20
78.595699999999994
 30
0.0
 11
12.0
 21
76.638300000000001
 31
0.0
  0
LINE
  5
A9
  8
0
 10
12.0
 20
78.595699999999994
 30
0.0
 11
108.0
 21
78.595699999999994
 31
0.0
  0
LINE
  5
AA
  8
0
 10
12.0
 20
80.553200000000004
 30
0.0
 11
108.0
 21
80.553200000000004
 31
0.0
  0
LINE
  5
AB
  8
0
 10
12.0
 20
80.553200000000004
 30
0.0
 11
14.0
 21
80.553200000000004
 31
0.0
  0
LINE
  5
AC
  8
0
 10
12.0
 20
80.553200000000004
 30
0.0
 11
12.0
 21
82.510599999999997
 31
0.0
  0
LINE
  5
AD
  8
0
 10
12.0
 20
82.510599999999997
 30
0.0
 11
12.0
 21
80.553200000000004
 31
0.0
  0
LINE
  5
AE
  8
0
 10
12.0
 20
82.510599999999997
 30
0.0
 11
108.0
 21
82.510599999999997
 31
0.0
  0
LINE
  5
AF
  8
0
 10
12.0
 20
88.382999999999996
 30
0.0
 11
108.0
 21
88.382999999999996
 31
0.0
  0
LINE
  5
B0
  8
0
 10
12.0
 20
88.382999999999996
 30
0.0
 11
14.0
 21
88.382999999999996
 31
0.0
  0
LINE
  5
B1
  8
0
 10
12.0
 20
88.382999999999996
 30
0.0
 11
12.0
 21
90.340400000000002
 31
0.0
  0
LINE
  5
B2
  8
0
 10
12.0
 20
90.340400000000002
 30
0.0
 11
12.0
 21
88.382999999999996
 31
0.0
  0
LINE
  5
B3
  8
0
 10
12.0
 20
90.340400000000002
 30
0.0
 11
108.0
 21
90.340400000000002
 31
0.0
  0
LINE
  5
B4
  8
0
 10
12.0
 20
84.468100000000007
 30
0.0
 11
108.0
 21
84.468100000000007
 31
0.0
  0
LINE
  5
B5
  8
0
 10
12.0
 20
84.468100000000007
 30
0.0
 11
14.0
 21
84.468100000000007
 31
0.0
  0
LINE
  5
B6
  8
0
 10
12.0
 20
84.468100000000007
 30
0.0
 11
12.0
 21
86.425499999999985
 31
0.0
  0
LINE
  5
B7
  8
0
 10
12.0
 20
86.425499999999985
 30
0.0
 11
12.0
 21
84.468100000000007
 31
0.0
  0
LINE
  5
B8
  8
0
 10
12.0
 20
86.425499999999985
 30
0.0
 11
108.0
 21
86.425499999999985
 31
0.0
  0
LINE
  5
B9
  8
0
 10
12.0
 20
100.1279999999999
 30
0.0
 11
108.0
 21
100.1279999999999
 31
0.0
  0
LINE
  5
BA
  8
0
 10
12.0
 20
100.1279999999999
 30
0.0
 11
14.0
 21
100.1279999999999
 31
0.0
  0
LINE
  5
BB
  8
0
 10
12.0
 20
100.1279999999999
 30
0.0
 11
12.0
 21
102.08499999999999
 31
0.0
  0
LINE
  5
BC
  8
0
 10
12.0
 20
102.08499999999999
 30
0.0
 11
12.0
 21
100.1279999999999
 31
0.0
  0
LINE
  5
BD
  8
0
 10
12.0
 20
102.08499999999999
 30
0.0
 11
108.0
 21
102.08499999999999
 31
0.0
  0
LINE
  5
BE
  8
0
 10
12.0
 20
104.04299999999991
 30
0.0
 11
108.0
 21
104.04299999999991
 31
0.0
  0
LINE
  5
BF
  8
0
 10
12.0
 20
104.04299999999991
 30
0.0
 11
14.0
 21
104.04299999999991
 31
0.0
  0
LINE
  5
C0
  8
0
 10
12.0
 20
104.04299999999991
 30
0.0
 11
12.0
 21
106.0
 31
0.0
  0
LINE
  5
C1
  8
0
 10
12.0
 20
106.0
 30
0.0
 11
12.0
 21
104.04299999999991
 31
0.0
  0
LINE
  5
C2
  8
0
 10
12.0
 20
106.0
 30
0.0
 11
108.0
 21
106.0
 31
0.0
  0
LINE
  5
C3
  8
0
 10
12.0
 20
96.212800000000001
 30
0.0
 11
108.0
 21
96.212800000000001
 31
0.0
  0
LINE
  5
C4
  8
0
 10
12.0
 20
96.212800000000001
 30
0.0
 11
14.0
 21
96.212800000000001
 31
0.0
  0
LINE
  5
C5
  8
0
 10
12.0
 20
96.212800000000001
 30
0.0
 11
12.0
 21
98.170199999999994
 31
0.0
  0
LINE
  5
C6
  8
0
 10
12.0
 20
98.170199999999994
 30
0.0
 11
12.0
 21
96.212800000000001
 31
0.0
  0
LINE
  5
C7
  8
0
 10
12.0
 20
98.170199999999994
 30
0.0
 11
108.0
 21
98.170199999999994
 31
0.0
  0
LINE
  5
C8
  8
0
 10
12.0
 20
92.297899999999984
 30
0.0
 11
108.0
 21
92.297899999999984
 31
0.0
  0
LINE
  5
C9
  8
0
 10
12.0
 20
92.297899999999984
 30
0.0
 11
14.0
 21
92.297899999999984
 31
0.0
  0
LINE
  5
CA
  8
0
 10
12.0
 20
92.297899999999984
 30
0.0
 11
12.0
 21
94.255300000000005
 31
0.0
  0
LINE
  5
CB
  8
0
 10
12.0
 20
94.255300000000005
 30
0.0
 11
12.0
 21
92.297899999999984
 31
0.0
  0
LINE
  5
CC
  8
0
 10
12.0
 20
94.255300000000005
 30
0.0
 11
108.0
 21
94.255300000000005
 31
0.0
  0
LINE
  5
CD
  8
0
 10
12.0
 20
72.723399999999984
 30
0.0
 11
108.0
 21
72.723399999999984
 31
0.0
  0
LINE
  5
CE
  8
0
 10
12.0
 20
72.723399999999984
 30
0.0
 11
14.0
 21
72.723399999999984
 31
0.0
  0
LINE
  5
CF
  8
0
 10
12.0
 20
72.723399999999984
 30
0.0
 11
12.0
 21
74.680899999999994
 31
0.0
  0
LINE
  5
D0
  8
0
 10
12.0
 20
74.680899999999994
 30
0.0
 11
12.0
 21
72.723399999999984
 31
0.0
  0
LINE
  5
D1
  8
0
 10
12.0
 20
74.680899999999994
 30
0.0
 11
108.0
 21
74.680899999999994
 31
0.0
  0
LINE
  5
D2
  8
0
 10
12.0
 20
64.893600000000006
 30
0.0
 11
108.0
 21
64.893600000000006
 31
0.0
  0
LINE
  5
D3
  8
0
 10
12.0
 20
64.893600000000006
 30
0.0
 11
14.0
 21
64.893600000000006
 31
0.0
  0
LINE
  5
D4
  8
0
 10
12.0
 20
64.893600000000006
 30
0.0
 11
12.0
 21
66.851100000000002
 31
0.0
  0
LINE
  5
D5
  8
0
 10
12.0
 20
66.851100000000002
 30
0.0
 11
12.0
 21
64.893600000000006
 31
0.0
  0
LINE
  5
D6
  8
0
 10
12.0
 20
66.851100000000002
 30
0.0
 11
108.0
 21
66.851100000000002
 31
0.0
  0
LINE
  5
D7
  8
0
 10
12.0
 20
60.978700000000003
 30
0.0
 11
108.0
 21
60.978700000000003
 31
0.0
  0
LINE
  5
D8
  8
0
 10
12.0
 20
60.978700000000003
 30
0.0
 11
14.0
 21
60.978700000000003
 31
0.0
  0
LINE
  5
D9
  8
0
 10
12.0
 20
60.978700000000003
 30
0.0
 11
12.0
 21
62.936199999999999
 31
0.0
  0
LINE
  5
DA
  8
0
 10
12.0
 20
62.936199999999999
 30
0.0
 11
12.0
 21
60.978700000000003
 31
0.0
  0
LINE
  5
DB
  8
0
 10
12.0
 20
62.936199999999999
 30
0.0
 11
108.0
 21
62.936199999999999
 31
0.0
  0
LINE
  5
DC
  8
0
 10
12.0
 20
41.404299999999999
 30
0.0
 11
108.0
 21
41.404299999999999
 31
0.0
  0
LINE
  5
DD
  8
0
 10
12.0
 20
41.404299999999999
 30
0.0
 11
14.0
 21
41.404299999999999
 31
0.0
  0
LINE
  5
DE
  8
0
 10
12.0
 20
41.404299999999999
 30
0.0
 11
12.0
 21
43.361699999999999
 31
0.0
  0
LINE
  5
DF
  8
0
 10
12.0
 20
43.361699999999999
 30
0.0
 11
12.0
 21
41.404299999999999
 31
0.0
  0
LINE
  5
E0
  8
0
 10
12.0
 20
43.361699999999999
 30
0.0
 11
108.0
 21
43.361699999999999
 31
0.0
  0
LINE
  5
E1
  8
0
 10
12.0
 20
37.489400000000003
 30
0.0
 11
108.0
 21
37.489400000000003
 31
0.0
  0
LINE
  5
E2
  8
0
 10
12.0
 20
37.489400000000003
 30
0.0
 11
14.0
 21
37.489400000000003
 31
0.0
  0
LINE
  5
E3
  8
0
 10
12.0
 20
37.489400000000003
 30
0.0
 11
12.0
 21
39.446800000000003
 31
0.0
  0
LINE
  5
E4
  8
0
 10
12.0
 20
39.446800000000003
 30
0.0
 11
12.0
 21
37.489400000000003
 31
0.0
  0
LINE
  5
E5
  8
0
 10
12.0
 20
39.446800000000003
 30
0.0
 11
108.0
 21
39.446800000000003
 31
0.0
  0
LINE
  5
E6
  8
0
 10
12.0
 20
25.744700000000002
 30
0.0
 11
108.0
 21
25.744700000000002
 31
0.0
  0
LINE
  5
E7
  8
0
 10
12.0
 20
25.744700000000002
 30
0.0
 11
14.0
 21
25.744700000000002
 31
0.0
  0
LINE
  5
E8
  8
0
 10
12.0
 20
25.744700000000002
 30
0.0
 11
12.0
 21
27.702100000000002
 31
0.0
  0
LINE
  5
E9
  8
0
 10
12.0
 20
27.702100000000002
 30
0.0
 11
12.0
 21
25.744700000000002
 31
0.0
  0
LINE
  5
EA
  8
0
 10
12.0
 20
27.702100000000002
 30
0.0
 11
108.0
 21
27.702100000000002
 31
0.0
  0
LINE
  5
EB
  8
0
 10
12.0
 20
17.914899999999999
 30
0.0
 11
108.0
 21
17.914899999999999
 31
0.0
  0
LINE
  5
EC
  8
0
 10
12.0
 20
17.914899999999999
 30
0.0
 11
14.0
 21
17.914899999999999
 31
0.0
  0
LINE
  5
ED
  8
0
 10
12.0
 20
17.914899999999999
 30
0.0
 11
12.0
 21
19.872299999999999
 31
0.0
  0
LINE
  5
EE
  8
0
 10
12.0
 20
19.872299999999999
 30
0.0
 11
12.0
 21
17.914899999999999
 31
0.0
  0
LINE
  5
EF
  8
0
 10
12.0
 20
19.872299999999999
 30
0.0
 11
108.0
 21
19.872299999999999
 31
0.0
  0
LINE
  5
F0
  8
0
 10
12.0
 20
15.9574
 30
0.0
 11
12.0
 21
14.0
 31
0.0
  0
LINE
  5
F1
  8
0
 10
12.0
 20
15.9574
 30
0.0
 11
108.0
 21
15.9574
 31
0.0
  0
LINE
  5
F2
  8
0
 10
12.0
 20
12.0
 30
0.0
 11
108.0
 21
12.0
 31
0.0
  0
LINE
  5
F3
  8
0
 10
12.0
 20
108.0
 30
0.0
 11
108.0
 21
108.0
 31
0.0
  0
LINE
  5
F4
  8
0
 10
14.0
 20
15.9574
 30
0.0
 11
14.0
 21
17.914899999999999
 31
0.0
  0
LINE
  5
F5
  8
0
 10
14.0
 20
19.872299999999999
 30
0.0
 11
14.0
 21
21.829799999999999
 31
0.0
  0
LINE
  5
F6
  8
0
 10
14.0
 20
23.787199999999991
 30
0.0
 11
14.0
 21
25.744700000000002
 31
0.0
  0
LINE
  5
F7
  8
0
 10
14.0
 20
27.702100000000002
 30
0.0
 11
14.0
 21
29.659600000000001
 31
0.0
  0
LINE
  5
F8
  8
0
 10
14.0
 20
31.61699999999999
 30
0.0
 11
14.0
 21
33.5745
 31
0.0
  0
LINE
  5
F9
  8
0
 10
14.0
 20
35.5319
 30
0.0
 11
14.0
 21
37.489400000000003
 31
0.0
  0
LINE
  5
FA
  8
0
 10
14.0
 20
39.446800000000003
 30
0.0
 11
14.0
 21
41.404299999999999
 31
0.0
  0
LINE
  5
FB
  8
0
 10
14.0
 20
29.659600000000001
 30
0.0
 11
14.0
 21
27.702100000000002
 31
0.0
  0
LINE
  5
FC
  8
0
 10
14.0
 20
33.5745
 30
0.0
 11
14.0
 21
31.61699999999999
 31
0.0
  0
LINE
  5
FD
  8
0
 10
14.0
 20
43.361699999999999
 30
0.0
 11
14.0
 21
45.319099999999992
 31
0.0
  0
LINE
  5
FE
  8
0
 10
14.0
 20
47.276600000000002
 30
0.0
 11
14.0
 21
49.233999999999988
 31
0.0
  0
LINE
  5
FF
  8
0
 10
14.0
 20
51.191499999999998
 30
0.0
 11
14.0
 21
53.148899999999998
 31
0.0
  0
LINE
  5
100
  8
0
 10
14.0
 20
55.106400000000001
 30
0.0
 11
14.0
 21
57.063800000000001
 31
0.0
  0
LINE
  5
101
  8
0
 10
14.0
 20
45.319099999999992
 30
0.0
 11
14.0
 21
43.361699999999999
 31
0.0
  0
LINE
  5
102
  8
0
 10
14.0
 20
49.233999999999988
 30
0.0
 11
14.0
 21
47.276600000000002
 31
0.0
  0
LINE
  5
103
  8
0
 10
14.0
 20
59.021299999999989
 30
0.0
 11
14.0
 21
60.978700000000003
 31
0.0
  0
LINE
  5
104
  8
0
 10
14.0
 20
62.936199999999999
 30
0.0
 11
14.0
 21
64.893600000000006
 31
0.0
  0
LINE
  5
105
  8
0
 10
14.0
 20
57.063800000000001
 30
0.0
 11
14.0
 21
55.106400000000001
 31
0.0
  0
LINE
  5
106
  8
0
 10
14.0
 20
53.148899999999998
 30
0.0
 11
14.0
 21
51.191499999999998
 31
0.0
  0
LINE
  5
107
  8
0
 10
14.0
 20
66.851100000000002
 30
0.0
 11
14.0
 21
68.808499999999995
 31
0.0
  0
LINE
  5
108
  8
0
 10
14.0
 20
70.766000000000005
 30
0.0
 11
14.0
 21
72.723399999999984
 31
0.0
  0
LINE
  5
109
  8
0
 10
14.0
 20
74.680899999999994
 30
0.0
 11
14.0
 21
76.638300000000001
 31
0.0
  0
LINE
  5
10A
  8
0
 10
14.0
 20
78.595699999999994
 30
0.0
 11
14.0
 21
80.553200000000004
 31
0.0
  0
LINE
  5
10B
  8
0
 10
14.0
 20
82.510599999999997
 30
0.0
 11
14.0
 21
84.468100000000007
 31
0.0
  0
LINE
  5
10C
  8
0
 10
14.0
 20
86.425499999999985
 30
0.0
 11
14.0
 21
88.382999999999996
 31
0.0
  0
LINE
  5
10D
  8
0
 10
14.0
 20
76.638300000000001
 30
0.0
 11
14.0
 21
74.680899999999994
 31
0.0
  0
LINE
  5
10E
  8
0
 10
14.0
 20
80.553200000000004
 30
0.0
 11
14.0
 21
78.595699999999994
 31
0.0
  0
LINE
  5
10F
  8
0
 10
14.0
 20
90.340400000000002
 30
0.0
 11
14.0
 21
92.297899999999984
 31
0.0
  0
LINE
  5
110
  8
0
 10
14.0
 20
94.255300000000005
 30
0.0
 11
14.0
 21
96.212800000000001
 31
0.0
  0
LINE
  5
111
  8
0
 10
14.0
 20
88.382999999999996
 30
0.0
 11
14.0
 21
86.425499999999985
 31
0.0
  0
LINE
  5
112
  8
0
 10
14.0
 20
84.468100000000007
 30
0.0
 11
14.0
 21
82.510599999999997
 31
0.0
  0
LINE
  5
113
  8
0
 10
14.0
 20
98.170199999999994
 30
0.0
 11
14.0
 21
100.1279999999999
 31
0.0
  0
LINE
  5
114
  8
0
 10
14.0
 20
102.08499999999999
 30
0.0
 11
14.0
 21
104.04299999999991
 31
0.0
  0
LINE
  5
115
  8
0
 10
14.0
 20
106.0
 30
0.0
 11
14.0
 21
108.0
 31
0.0
  0
LINE
  5
116
  8
0
 10
14.0
 20
100.1279999999999
 30
0.0
 11
14.0
 21
98.170199999999994
 31
0.0
  0
LINE
  5
117
  8
0
 10
14.0
 20
104.04299999999991
 30
0.0
 11
14.0
 21
102.08499999999999
 31
0.0
  0
LINE
  5
118
  8
0
 10
14.0
 20
96.212800000000001
 30
0.0
 11
14.0
 21
94.255300000000005
 31
0.0
  0
LINE
  5
119
  8
0
 10
14.0
 20
92.297899999999984
 30
0.0
 11
14.0
 21
90.340400000000002
 31
0.0
  0
LINE
  5
11A
  8
0
 10
14.0
 20
68.808499999999995
 30
0.0
 11
14.0
 21
66.851100000000002
 31
0.0
  0
LINE
  5
11B
  8
0
 10
14.0
 20
72.723399999999984
 30
0.0
 11
14.0
 21
70.766000000000005
 31
0.0
  0
LINE
  5
11C
  8
0
 10
14.0
 20
64.893600000000006
 30
0.0
 11
14.0
 21
62.936199999999999
 31
0.0
  0
LINE
  5
11D
  8
0
 10
14.0
 20
60.978700000000003
 30
0.0
 11
14.0
 21
59.021299999999989
 31
0.0
  0
LINE
  5
11E
  8
0
 10
14.0
 20
41.404299999999999
 30
0.0
 11
14.0
 21
39.446800000000003
 31
0.0
  0
LINE
  5
11F
  8
0
 10
14.0
 20
37.489400000000003
 30
0.0
 11
14.0
 21
35.5319
 31
0.0
  0
LINE
  5
120
  8
0
 10
14.0
 20
21.829799999999999
 30
0.0
 11
14.0
 21
19.872299999999999
 31
0.0
  0
LINE
  5
121
  8
0
 10
14.0
 20
25.744700000000002
 30
0.0
 11
14.0
 21
23.787199999999991
 31
0.0
  0
LINE
  5
122
  8
0
 10
14.0
 20
17.914899999999999
 30
0.0
 11
14.0
 21
15.9574
 31
0.0
  0
LINE
  5
123
  8
0
 10
14.0
 20
14.0
 30
0.0
 11
14.0
 21
12.0
 31
0.0
  0
LINE
  5
124
  8
0
 10
14.0
 20
108.0
 30
0.0
 11
14.0
 21
106.0
 31
0.0
  0
LINE
  5
125
  8
0
 10
14.0
 20
108.0
 30
0.0
 11
15.9574
 21
108.0
 31
0.0
  0
LINE
  5
126
  8
0
 10
14.0
 20
108.0
 30
0.0
 11
14.0
 21
12.0
 31
0.0
  0
LINE
  5
127
  8
0
 10
15.9574
 20
21.829799999999999
 30
0.0
 11
17.914899999999999
 21
21.829799999999999
 31
0.0
  0
LINE
  5
128
  8
0
 10
15.9574
 20
29.659600000000001
 30
0.0
 11
17.914899999999999
 21
29.659600000000001
 31
0.0
  0
LINE
  5
129
  8
0
 10
15.9574
 20
33.5745
 30
0.0
 11
17.914899999999999
 21
33.5745
 31
0.0
  0
LINE
  5
12A
  8
0
 10
15.9574
 20
45.319099999999992
 30
0.0
 11
17.914899999999999
 21
45.319099999999992
 31
0.0
  0
LINE
  5
12B
  8
0
 10
15.9574
 20
49.233999999999988
 30
0.0
 11
17.914899999999999
 21
49.233999999999988
 31
0.0
  0
LINE
  5
12C
  8
0
 10
15.9574
 20
57.063800000000001
 30
0.0
 11
17.914899999999999
 21
57.063800000000001
 31
0.0
  0
LINE
  5
12D
  8
0
 10
15.9574
 20
53.148899999999998
 30
0.0
 11
17.914899999999999
 21
53.148899999999998
 31
0.0
  0
LINE
  5
12E
  8
0
 10
15.9574
 20
76.638300000000001
 30
0.0
 11
17.914899999999999
 21
76.638300000000001
 31
0.0
  0
LINE
  5
12F
  8
0
 10
15.9574
 20
80.553200000000004
 30
0.0
 11
17.914899999999999
 21
80.553200000000004
 31
0.0
  0
LINE
  5
130
  8
0
 10
15.9574
 20
88.382999999999996
 30
0.0
 11
17.914899999999999
 21
88.382999999999996
 31
0.0
  0
LINE
  5
131
  8
0
 10
15.9574
 20
84.468100000000007
 30
0.0
 11
17.914899999999999
 21
84.468100000000007
 31
0.0
  0
LINE
  5
132
  8
0
 10
15.9574
 20
100.1279999999999
 30
0.0
 11
17.914899999999999
 21
100.1279999999999
 31
0.0
  0
LINE
  5
133
  8
0
 10
15.9574
 20
104.04299999999991
 30
0.0
 11
17.914899999999999
 21
104.04299999999991
 31
0.0
  0
LINE
  5
134
  8
0
 10
15.9574
 20
96.212800000000001
 30
0.0
 11
17.914899999999999
 21
96.212800000000001
 31
0.0
  0
LINE
  5
135
  8
0
 10
15.9574
 20
92.297899999999984
 30
0.0
 11
17.914899999999999
 21
92.297899999999984
 31
0.0
  0
LINE
  5
136
  8
0
 10
15.9574
 20
68.808499999999995
 30
0.0
 11
17.914899999999999
 21
68.808499999999995
 31
0.0
  0
LINE
  5
137
  8
0
 10
15.9574
 20
72.723399999999984
 30
0.0
 11
17.914899999999999
 21
72.723399999999984
 31
0.0
  0
LINE
  5
138
  8
0
 10
15.9574
 20
64.893600000000006
 30
0.0
 11
17.914899999999999
 21
64.893600000000006
 31
0.0
  0
LINE
  5
139
  8
0
 10
15.9574
 20
60.978700000000003
 30
0.0
 11
17.914899999999999
 21
60.978700000000003
 31
0.0
  0
LINE
  5
13A
  8
0
 10
15.9574
 20
41.404299999999999
 30
0.0
 11
17.914899999999999
 21
41.404299999999999
 31
0.0
  0
LINE
  5
13B
  8
0
 10
15.9574
 20
37.489400000000003
 30
0.0
 11
17.914899999999999
 21
37.489400000000003
 31
0.0
  0
LINE
  5
13C
  8
0
 10
15.9574
 20
25.744700000000002
 30
0.0
 11
17.914899999999999
 21
25.744700000000002
 31
0.0
  0
LINE
  5
13D
  8
0
 10
15.9574
 20
17.914899999999999
 30
0.0
 11
17.914899999999999
 21
17.914899999999999
 31
0.0
  0
LINE
  5
13E
  8
0
 10
15.9574
 20
14.0
 30
0.0
 11
17.914899999999999
 21
14.0
 31
0.0
  0
LINE
  5
13F
  8
0
 10
23.787199999999991
 20
12.0
 30
0.0
 11
23.787199999999991
 21
108.0
 31
0.0
  0
LINE
  5
140
  8
0
 10
21.829799999999999
 20
12.0
 30
0.0
 11
23.787199999999991
 21
12.0
 31
0.0
  0
LINE
  5
141
  8
0
 10
21.829799999999999
 20
12.0
 30
0.0
 11
21.829799999999999
 21
108.0
 31
0.0
  0
LINE
  5
142
  8
0
 10
21.829799999999999
 20
12.0
 30
0.0
 11
21.829799999999999
 21
14.0
 31
0.0
  0
LINE
  5
143
  8
0
 10
31.61699999999999
 20
12.0
 30
0.0
 11
31.61699999999999
 21
108.0
 31
0.0
  0
LINE
  5
144
  8
0
 10
29.659600000000001
 20
12.0
 30
0.0
 11
31.61699999999999
 21
12.0
 31
0.0
  0
LINE
  5
145
  8
0
 10
29.659600000000001
 20
12.0
 30
0.0
 11
29.659600000000001
 21
108.0
 31
0.0
  0
LINE
  5
146
  8
0
 10
29.659600000000001
 20
12.0
 30
0.0
 11
29.659600000000001
 21
14.0
 31
0.0
  0
LINE
  5
147
  8
0
 10
35.5319
 20
12.0
 30
0.0
 11
35.5319
 21
108.0
 31
0.0
  0
LINE
  5
148
  8
0
 10
33.5745
 20
12.0
 30
0.0
 11
35.5319
 21
12.0
 31
0.0
  0
LINE
  5
149
  8
0
 10
33.5745
 20
12.0
 30
0.0
 11
33.5745
 21
108.0
 31
0.0
  0
LINE
  5
14A
  8
0
 10
33.5745
 20
12.0
 30
0.0
 11
33.5745
 21
14.0
 31
0.0
  0
LINE
  5
14B
  8
0
 10
47.276600000000002
 20
12.0
 30
0.0
 11
47.276600000000002
 21
108.0
 31
0.0
  0
LINE
  5
14C
  8
0
 10
45.319099999999992
 20
12.0
 30
0.0
 11
47.276600000000002
 21
12.0
 31
0.0
  0
LINE
  5
14D
  8
0
 10
45.319099999999992
 20
12.0
 30
0.0
 11
45.319099999999992
 21
108.0
 31
0.0
  0
LINE
  5
14E
  8
0
 10
45.319099999999992
 20
12.0
 30
0.0
 11
45.319099999999992
 21
14.0
 31
0.0
  0
LINE
  5
14F
  8
0
 10
51.191499999999998
 20
12.0
 30
0.0
 11
51.191499999999998
 21
108.0
 31
0.0
  0
LINE
  5
150
  8
0
 10
49.233999999999988
 20
12.0
 30
0.0
 11
51.191499999999998
 21
12.0
 31
0.0
  0
LINE
  5
151
  8
0
 10
49.233999999999988
 20
12.0
 30
0.0
 11
49.233999999999988
 21
108.0
 31
0.0
  0
LINE
  5
152
  8
0
 10
49.233999999999988
 20
12.0
 30
0.0
 11
49.233999999999988
 21
14.0
 31
0.0
  0
LINE
  5
153
  8
0
 10
59.021299999999989
 20
12.0
 30
0.0
 11
59.021299999999989
 21
108.0
 31
0.0
  0
LINE
  5
154
  8
0
 10
57.063800000000001
 20
12.0
 30
0.0
 11
59.021299999999989
 21
12.0
 31
0.0
  0
LINE
  5
155
  8
0
 10
57.063800000000001
 20
12.0
 30
0.0
 11
57.063800000000001
 21
108.0
 31
0.0
  0
LINE
  5
156
  8
0
 10
57.063800000000001
 20
12.0
 30
0.0
 11
57.063800000000001
 21
14.0
 31
0.0
  0
LINE
  5
157
  8
0
 10
55.106400000000001
 20
12.0
 30
0.0
 11
55.106400000000001
 21
108.0
 31
0.0
  0
LINE
  5
158
  8
0
 10
53.148899999999998
 20
12.0
 30
0.0
 11
55.106400000000001
 21
12.0
 31
0.0
  0
LINE
  5
159
  8
0
 10
53.148899999999998
 20
12.0
 30
0.0
 11
53.148899999999998
 21
108.0
 31
0.0
  0
LINE
  5
15A
  8
0
 10
53.148899999999998
 20
12.0
 30
0.0
 11
53.148899999999998
 21
14.0
 31
0.0
  0
LINE
  5
15B
  8
0
 10
70.766000000000005
 20
12.0
 30
0.0
 11
70.766000000000005
 21
108.0
 31
0.0
  0
LINE
  5
15C
  8
0
 10
68.808499999999995
 20
12.0
 30
0.0
 11
70.766000000000005
 21
12.0
 31
0.0
  0
LINE
  5
15D
  8
0
 10
68.808499999999995
 20
12.0
 30
0.0
 11
68.808499999999995
 21
108.0
 31
0.0
  0
LINE
  5
15E
  8
0
 10
68.808499999999995
 20
12.0
 30
0.0
 11
68.808499999999995
 21
14.0
 31
0.0
  0
LINE
  5
15F
  8
0
 10
78.595699999999994
 20
12.0
 30
0.0
 11
78.595699999999994
 21
108.0
 31
0.0
  0
LINE
  5
160
  8
0
 10
76.638300000000001
 20
12.0
 30
0.0
 11
78.595699999999994
 21
12.0
 31
0.0
  0
LINE
  5
161
  8
0
 10
76.638300000000001
 20
12.0
 30
0.0
 11
76.638300000000001
 21
108.0
 31
0.0
  0
LINE
  5
162
  8
0
 10
76.638300000000001
 20
12.0
 30
0.0
 11
76.638300000000001
 21
14.0
 31
0.0
  0
LINE
  5
163
  8
0
 10
82.510599999999997
 20
12.0
 30
0.0
 11
82.510599999999997
 21
108.0
 31
0.0
  0
LINE
  5
164
  8
0
 10
80.553200000000004
 20
12.0
 30
0.0
 11
82.510599999999997
 21
12.0
 31
0.0
  0
LINE
  5
165
  8
0
 10
80.553200000000004
 20
12.0
 30
0.0
 11
80.553200000000004
 21
108.0
 31
0.0
  0
LINE
  5
166
  8
0
 10
80.553200000000004
 20
12.0
 30
0.0
 11
80.553200000000004
 21
14.0
 31
0.0
  0
LINE
  5
167
  8
0
 10
90.340400000000002
 20
12.0
 30
0.0
 11
90.340400000000002
 21
108.0
 31
0.0
  0
LINE
  5
168
  8
0
 10
88.382999999999996
 20
12.0
 30
0.0
 11
90.340400000000002
 21
12.0
 31
0.0
  0
LINE
  5
169
  8
0
 10
88.382999999999996
 20
12.0
 30
0.0
 11
88.382999999999996
 21
108.0
 31
0.0
  0
LINE
  5
16A
  8
0
 10
88.382999999999996
 20
12.0
 30
0.0
 11
88.382999999999996
 21
14.0
 31
0.0
  0
LINE
  5
16B
  8
0
 10
86.425499999999985
 20
12.0
 30
0.0
 11
86.425499999999985
 21
108.0
 31
0.0
  0
LINE
  5
16C
  8
0
 10
84.468100000000007
 20
12.0
 30
0.0
 11
86.425499999999985
 21
12.0
 31
0.0
  0
LINE
  5
16D
  8
0
 10
84.468100000000007
 20
12.0
 30
0.0
 11
84.468100000000007
 21
108.0
 31
0.0
  0
LINE
  5
16E
  8
0
 10
84.468100000000007
 20
12.0
 30
0.0
 11
84.468100000000007
 21
14.0
 31
0.0
  0
LINE
  5
16F
  8
0
 10
102.08499999999999
 20
12.0
 30
0.0
 11
102.08499999999999
 21
108.0
 31
0.0
  0
LINE
  5
170
  8
0
 10
100.1279999999999
 20
12.0
 30
0.0
 11
102.08499999999999
 21
12.0
 31
0.0
  0
LINE
  5
171
  8
0
 10
100.1279999999999
 20
12.0
 30
0.0
 11
100.1279999999999
 21
108.0
 31
0.0
  0
LINE
  5
172
  8
0
 10
100.1279999999999
 20
12.0
 30
0.0
 11
100.1279999999999
 21
14.0
 31
0.0
  0
LINE
  5
173
  8
0
 10
106.0
 20
12.0
 30
0.0
 11
106.0
 21
108.0
 31
0.0
  0
LINE
  5
174
  8
0
 10
104.04299999999991
 20
12.0
 30
0.0
 11
106.0
 21
12.0
 31
0.0
  0
LINE
  5
175
  8
0
 10
104.04299999999991
 20
12.0
 30
0.0
 11
104.04299999999991
 21
108.0
 31
0.0
  0
LINE
  5
176
  8
0
 10
104.04299999999991
 20
12.0
 30
0.0
 11
104.04299999999991
 21
14.0
 31
0.0
  0
LINE
  5
177
  8
0
 10
98.170199999999994
 20
12.0
 30
0.0
 11
98.170199999999994
 21
108.0
 31
0.0
  0
LINE
  5
178
  8
0
 10
96.212800000000001
 20
12.0
 30
0.0
 11
98.170199999999994
 21
12.0
 31
0.0
  0
LINE
  5
179
  8
0
 10
96.212800000000001
 20
12.0
 30
0.0
 11
96.212800000000001
 21
108.0
 31
0.0
  0
LINE
  5
17A
  8
0
 10
96.212800000000001
 20
12.0
 30
0.0
 11
96.212800000000001
 21
14.0
 31
0.0
  0
LINE
  5
17B
  8
0
 10
94.255300000000005
 20
12.0
 30
0.0
 11
94.255300000000005
 21
108.0
 31
0.0
  0
LINE
  5
17C
  8
0
 10
92.297899999999984
 20
12.0
 30
0.0
 11
94.255300000000005
 21
12.0
 31
0.0
  0
LINE
  5
17D
  8
0
 10
92.297899999999984
 20
12.0
 30
0.0
 11
92.297899999999984
 21
108.0
 31
0.0
  0
LINE
  5
17E
  8
0
 10
92.297899999999984
 20
12.0
 30
0.0
 11
92.297899999999984
 21
14.0
 31
0.0
  0
LINE
  5
17F
  8
0
 10
74.680899999999994
 20
12.0
 30
0.0
 11
74.680899999999994
 21
108.0
 31
0.0
  0
LINE
  5
180
  8
0
 10
72.723399999999984
 20
12.0
 30
0.0
 11
74.680899999999994
 21
12.0
 31
0.0
  0
LINE
  5
181
  8
0
 10
72.723399999999984
 20
12.0
 30
0.0
 11
72.723399999999984
 21
108.0
 31
0.0
  0
LINE
  5
182
  8
0
 10
72.723399999999984
 20
12.0
 30
0.0
 11
72.723399999999984
 21
14.0
 31
0.0
  0
LINE
  5
183
  8
0
 10
66.851100000000002
 20
12.0
 30
0.0
 11
66.851100000000002
 21
108.0
 31
0.0
  0
LINE
  5
184
  8
0
 10
64.893600000000006
 20
12.0
 30
0.0
 11
66.851100000000002
 21
12.0
 31
0.0
  0
LINE
  5
185
  8
0
 10
64.893600000000006
 20
12.0
 30
0.0
 11
64.893600000000006
 21
108.0
 31
0.0
  0
LINE
  5
186
  8
0
 10
64.893600000000006
 20
12.0
 30
0.0
 11
64.893600000000006
 21
14.0
 31
0.0
  0
LINE
  5
187
  8
0
 10
62.936199999999999
 20
12.0
 30
0.0
 11
62.936199999999999
 21
108.0
 31
0.0
  0
LINE
  5
188
  8
0
 10
60.978700000000003
 20
12.0
 30
0.0
 11
62.936199999999999
 21
12.0
 31
0.0
  0
LINE
  5
189
  8
0
 10
60.978700000000003
 20
12.0
 30
0.0
 11
60.978700000000003
 21
108.0
 31
0.0
  0
LINE
  5
18A
  8
0
 10
60.978700000000003
 20
12.0
 30
0.0
 11
60.978700000000003
 21
14.0
 31
0.0
  0
LINE
  5
18B
  8
0
 10
43.361699999999999
 20
12.0
 30
0.0
 11
43.361699999999999
 21
108.0
 31
0.0
  0
LINE
  5
18C
  8
0
 10
41.404299999999999
 20
12.0
 30
0.0
 11
43.361699999999999
 21
12.0
 31
0.0
  0
LINE
  5
18D
  8
0
 10
41.404299999999999
 20
12.0
 30
0.0
 11
41.404299999999999
 21
108.0
 31
0.0
  0
LINE
  5
18E
  8
0
 10
41.404299999999999
 20
12.0
 30
0.0
 11
41.404299999999999
 21
14.0
 31
0.0
  0
LINE
  5
18F
  8
0
 10
39.446800000000003
 20
12.0
 30
0.0
 11
39.446800000000003
 21
108.0
 31
0.0
  0
LINE
  5
190
  8
0
 10
37.489400000000003
 20
12.0
 30
0.0
 11
39.446800000000003
 21
12.0
 31
0.0
  0
LINE
  5
191
  8
0
 10
37.489400000000003
 20
12.0
 30
0.0
 11
37.489400000000003
 21
108.0
 31
0.0
  0
LINE
  5
192
  8
0
 10
37.489400000000003
 20
12.0
 30
0.0
 11
37.489400000000003
 21
14.0
 31
0.0
  0
LINE
  5
193
  8
0
 10
27.702100000000002
 20
12.0
 30
0.0
 11
27.702100000000002
 21
108.0
 31
0.0
  0
LINE
  5
194
  8
0
 10
25.744700000000002
 20
12.0
 30
0.0
 11
27.702100000000002
 21
12.0
 31
0.0
  0
LINE
  5
195
  8
0
 10
25.744700000000002
 20
12.0
 30
0.0
 11
25.744700000000002
 21
108.0
 31
0.0
  0
LINE
  5
196
  8
0
 10
25.744700000000002
 20
12.0
 30
0.0
 11
25.744700000000002
 21
14.0
 31
0.0
  0
LINE
  5
197
  8
0
 10
19.872299999999999
 20
12.0
 30
0.0
 11
19.872299999999999
 21
108.0
 31
0.0
  0
LINE
  5
198
  8
0
 10
15.9574
 20
14.0
 30
0.0
 11
17.914899999999999
 21
14.0
 31
0.0
  0
LINE
  5
199
  8
0
 10
15.9574
 20
21.829799999999999
 30
0.0
 11
17.914899999999999
 21
21.829799999999999
 31
0.0
  0
LINE
  5
19A
  8
0
 10
15.9574
 20
17.914899999999999
 30
0.0
 11
17.914899999999999
 21
17.914899999999999
 31
0.0
  0
LINE
  5
19B
  8
0
 10
15.9574
 20
25.744700000000002
 30
0.0
 11
17.914899999999999
 21
25.744700000000002
 31
0.0
  0
LINE
  5
19C
  8
0
 10
17.914899999999999
 20
23.787199999999991
 30
0.0
 11
17.914899999999999
 21
25.744700000000002
 31
0.0
  0
LINE
  5
19D
  8
0
 10
17.914899999999999
 20
19.872299999999999
 30
0.0
 11
17.914899999999999
 21
21.829799999999999
 31
0.0
  0
LINE
  5
19E
  8
0
 10
17.914899999999999
 20
15.9574
 30
0.0
 11
17.914899999999999
 21
17.914899999999999
 31
0.0
  0
LINE
  5
19F
  8
0
 10
17.914899999999999
 20
21.829799999999999
 30
0.0
 11
17.914899999999999
 21
19.872299999999999
 31
0.0
  0
LINE
  5
1A0
  8
0
 10
15.9574
 20
29.659600000000001
 30
0.0
 11
17.914899999999999
 21
29.659600000000001
 31
0.0
  0
LINE
  5
1A1
  8
0
 10
17.914899999999999
 20
27.702100000000002
 30
0.0
 11
17.914899999999999
 21
29.659600000000001
 31
0.0
  0
LINE
  5
1A2
  8
0
 10
15.9574
 20
33.5745
 30
0.0
 11
17.914899999999999
 21
33.5745
 31
0.0
  0
LINE
  5
1A3
  8
0
 10
17.914899999999999
 20
31.61699999999999
 30
0.0
 11
17.914899999999999
 21
33.5745
 31
0.0
  0
LINE
  5
1A4
  8
0
 10
15.9574
 20
41.404299999999999
 30
0.0
 11
17.914899999999999
 21
41.404299999999999
 31
0.0
  0
LINE
  5
1A5
  8
0
 10
15.9574
 20
37.489400000000003
 30
0.0
 11
17.914899999999999
 21
37.489400000000003
 31
0.0
  0
LINE
  5
1A6
  8
0
 10
17.914899999999999
 20
35.5319
 30
0.0
 11
17.914899999999999
 21
37.489400000000003
 31
0.0
  0
LINE
  5
1A7
  8
0
 10
17.914899999999999
 20
39.446800000000003
 30
0.0
 11
17.914899999999999
 21
41.404299999999999
 31
0.0
  0
LINE
  5
1A8
  8
0
 10
17.914899999999999
 20
29.659600000000001
 30
0.0
 11
17.914899999999999
 21
27.702100000000002
 31
0.0
  0
LINE
  5
1A9
  8
0
 10
17.914899999999999
 20
33.5745
 30
0.0
 11
17.914899999999999
 21
31.61699999999999
 31
0.0
  0
LINE
  5
1AA
  8
0
 10
17.914899999999999
 20
43.361699999999999
 30
0.0
 11
17.914899999999999
 21
45.319099999999992
 31
0.0
  0
LINE
  5
1AB
  8
0
 10
15.9574
 20
45.319099999999992
 30
0.0
 11
17.914899999999999
 21
45.319099999999992
 31
0.0
  0
LINE
  5
1AC
  8
0
 10
15.9574
 20
49.233999999999988
 30
0.0
 11
17.914899999999999
 21
49.233999999999988
 31
0.0
  0
LINE
  5
1AD
  8
0
 10
17.914899999999999
 20
47.276600000000002
 30
0.0
 11
17.914899999999999
 21
49.233999999999988
 31
0.0
  0
LINE
  5
1AE
  8
0
 10
15.9574
 20
53.148899999999998
 30
0.0
 11
17.914899999999999
 21
53.148899999999998
 31
0.0
  0
LINE
  5
1AF
  8
0
 10
17.914899999999999
 20
51.191499999999998
 30
0.0
 11
17.914899999999999
 21
53.148899999999998
 31
0.0
  0
LINE
  5
1B0
  8
0
 10
17.914899999999999
 20
55.106400000000001
 30
0.0
 11
17.914899999999999
 21
57.063800000000001
 31
0.0
  0
LINE
  5
1B1
  8
0
 10
17.914899999999999
 20
45.319099999999992
 30
0.0
 11
17.914899999999999
 21
43.361699999999999
 31
0.0
  0
LINE
  5
1B2
  8
0
 10
17.914899999999999
 20
49.233999999999988
 30
0.0
 11
17.914899999999999
 21
47.276600000000002
 31
0.0
  0
LINE
  5
1B3
  8
0
 10
15.9574
 20
57.063800000000001
 30
0.0
 11
17.914899999999999
 21
57.063800000000001
 31
0.0
  0
LINE
  5
1B4
  8
0
 10
15.9574
 20
64.893600000000006
 30
0.0
 11
17.914899999999999
 21
64.893600000000006
 31
0.0
  0
LINE
  5
1B5
  8
0
 10
15.9574
 20
60.978700000000003
 30
0.0
 11
17.914899999999999
 21
60.978700000000003
 31
0.0
  0
LINE
  5
1B6
  8
0
 10
17.914899999999999
 20
59.021299999999989
 30
0.0
 11
17.914899999999999
 21
60.978700000000003
 31
0.0
  0
LINE
  5
1B7
  8
0
 10
17.914899999999999
 20
62.936199999999999
 30
0.0
 11
17.914899999999999
 21
64.893600000000006
 31
0.0
  0
LINE
  5
1B8
  8
0
 10
17.914899999999999
 20
57.063800000000001
 30
0.0
 11
17.914899999999999
 21
55.106400000000001
 31
0.0
  0
LINE
  5
1B9
  8
0
 10
17.914899999999999
 20
53.148899999999998
 30
0.0
 11
17.914899999999999
 21
51.191499999999998
 31
0.0
  0
LINE
  5
1BA
  8
0
 10
15.9574
 20
68.808499999999995
 30
0.0
 11
17.914899999999999
 21
68.808499999999995
 31
0.0
  0
LINE
  5
1BB
  8
0
 10
17.914899999999999
 20
66.851100000000002
 30
0.0
 11
17.914899999999999
 21
68.808499999999995
 31
0.0
  0
LINE
  5
1BC
  8
0
 10
15.9574
 20
76.638300000000001
 30
0.0
 11
17.914899999999999
 21
76.638300000000001
 31
0.0
  0
LINE
  5
1BD
  8
0
 10
15.9574
 20
72.723399999999984
 30
0.0
 11
17.914899999999999
 21
72.723399999999984
 31
0.0
  0
LINE
  5
1BE
  8
0
 10
17.914899999999999
 20
70.766000000000005
 30
0.0
 11
17.914899999999999
 21
72.723399999999984
 31
0.0
  0
LINE
  5
1BF
  8
0
 10
17.914899999999999
 20
74.680899999999994
 30
0.0
 11
17.914899999999999
 21
76.638300000000001
 31
0.0
  0
LINE
  5
1C0
  8
0
 10
15.9574
 20
80.553200000000004
 30
0.0
 11
17.914899999999999
 21
80.553200000000004
 31
0.0
  0
LINE
  5
1C1
  8
0
 10
17.914899999999999
 20
78.595699999999994
 30
0.0
 11
17.914899999999999
 21
80.553200000000004
 31
0.0
  0
LINE
  5
1C2
  8
0
 10
15.9574
 20
88.382999999999996
 30
0.0
 11
17.914899999999999
 21
88.382999999999996
 31
0.0
  0
LINE
  5
1C3
  8
0
 10
15.9574
 20
84.468100000000007
 30
0.0
 11
17.914899999999999
 21
84.468100000000007
 31
0.0
  0
LINE
  5
1C4
  8
0
 10
17.914899999999999
 20
82.510599999999997
 30
0.0
 11
17.914899999999999
 21
84.468100000000007
 31
0.0
  0
LINE
  5
1C5
  8
0
 10
17.914899999999999
 20
86.425499999999985
 30
0.0
 11
17.914899999999999
 21
88.382999999999996
 31
0.0
  0
LINE
  5
1C6
  8
0
 10
17.914899999999999
 20
76.638300000000001
 30
0.0
 11
17.914899999999999
 21
74.680899999999994
 31
0.0
  0
LINE
  5
1C7
  8
0
 10
17.914899999999999
 20
80.553200000000004
 30
0.0
 11
17.914899999999999
 21
78.595699999999994
 31
0.0
  0
LINE
  5
1C8
  8
0
 10
15.9574
 20
96.212800000000001
 30
0.0
 11
17.914899999999999
 21
96.212800000000001
 31
0.0
  0
LINE
  5
1C9
  8
0
 10
15.9574
 20
92.297899999999984
 30
0.0
 11
17.914899999999999
 21
92.297899999999984
 31
0.0
  0
LINE
  5
1CA
  8
0
 10
17.914899999999999
 20
90.340400000000002
 30
0.0
 11
17.914899999999999
 21
92.297899999999984
 31
0.0
  0
LINE
  5
1CB
  8
0
 10
17.914899999999999
 20
94.255300000000005
 30
0.0
 11
17.914899999999999
 21
96.212800000000001
 31
0.0
  0
LINE
  5
1CC
  8
0
 10
17.914899999999999
 20
88.382999999999996
 30
0.0
 11
17.914899999999999
 21
86.425499999999985
 31
0.0
  0
LINE
  5
1CD
  8
0
 10
17.914899999999999
 20
84.468100000000007
 30
0.0
 11
17.914899999999999
 21
82.510599999999997
 31
0.0
  0
LINE
  5
1CE
  8
0
 10
15.9574
 20
100.1279999999999
 30
0.0
 11
17.914899999999999
 21
100.1279999999999
 31
0.0
  0
LINE
  5
1CF
  8
0
 10
17.914899999999999
 20
98.170199999999994
 30
0.0
 11
17.914899999999999
 21
100.1279999999999
 31
0.0
  0
LINE
  5
1D0
  8
0
 10
15.9574
 20
104.04299999999991
 30
0.0
 11
17.914899999999999
 21
104.04299999999991
 31
0.0
  0
LINE
  5
1D1
  8
0
 10
17.914899999999999
 20
102.08499999999999
 30
0.0
 11
17.914899999999999
 21
104.04299999999991
 31
0.0
  0
LINE
  5
1D2
  8
0
 10
17.914899999999999
 20
106.0
 30
0.0
 11
17.914899999999999
 21
108.0
 31
0.0
  0
LINE
  5
1D3
  8
0
 10
17.914899999999999
 20
100.1279999999999
 30
0.0
 11
17.914899999999999
 21
98.170199999999994
 31
0.0
  0
LINE
  5
1D4
  8
0
 10
17.914899999999999
 20
104.04299999999991
 30
0.0
 11
17.914899999999999
 21
102.08499999999999
 31
0.0
  0
LINE
  5
1D5
  8
0
 10
17.914899999999999
 20
96.212800000000001
 30
0.0
 11
17.914899999999999
 21
94.255300000000005
 31
0.0
  0
LINE
  5
1D6
  8
0
 10
17.914899999999999
 20
92.297899999999984
 30
0.0
 11
17.914899999999999
 21
90.340400000000002
 31
0.0
  0
LINE
  5
1D7
  8
0
 10
17.914899999999999
 20
68.808499999999995
 30
0.0
 11
17.914899999999999
 21
66.851100000000002
 31
0.0
  0
LINE
  5
1D8
  8
0
 10
17.914899999999999
 20
72.723399999999984
 30
0.0
 11
17.914899999999999
 21
70.766000000000005
 31
0.0
  0
LINE
  5
1D9
  8
0
 10
17.914899999999999
 20
64.893600000000006
 30
0.0
 11
17.914899999999999
 21
62.936199999999999
 31
0.0
  0
LINE
  5
1DA
  8
0
 10
17.914899999999999
 20
60.978700000000003
 30
0.0
 11
17.914899999999999
 21
59.021299999999989
 31
0.0
  0
LINE
  5
1DB
  8
0
 10
17.914899999999999
 20
41.404299999999999
 30
0.0
 11
17.914899999999999
 21
39.446800000000003
 31
0.0
  0
LINE
  5
1DC
  8
0
 10
17.914899999999999
 20
37.489400000000003
 30
0.0
 11
17.914899999999999
 21
35.5319
 31
0.0
  0
LINE
  5
1DD
  8
0
 10
17.914899999999999
 20
25.744700000000002
 30
0.0
 11
17.914899999999999
 21
23.787199999999991
 31
0.0
  0
LINE
  5
1DE
  8
0
 10
17.914899999999999
 20
17.914899999999999
 30
0.0
 11
17.914899999999999
 21
15.9574
 31
0.0
  0
LINE
  5
1DF
  8
0
 10
17.914899999999999
 20
14.0
 30
0.0
 11
17.914899999999999
 21
12.0
 31
0.0
  0
LINE
  5
1E0
  8
0
 10
19.872299999999999
 20
14.0
 30
0.0
 11
21.829799999999999
 21
14.0
 31
0.0
  0
LINE
  5
1E1
  8
0
 10
19.872299999999999
 20
14.0
 30
0.0
 11
21.829799999999999
 21
14.0
 31
0.0
  0
LINE
  5
1E2
  8
0
 10
23.787199999999991
 20
14.0
 30
0.0
 11
25.744700000000002
 21
14.0
 31
0.0
  0
LINE
  5
1E3
  8
0
 10
23.787199999999991
 20
14.0
 30
0.0
 11
25.744700000000002
 21
14.0
 31
0.0
  0
LINE
  5
1E4
  8
0
 10
21.829799999999999
 20
14.0
 30
0.0
 11
21.829799999999999
 21
12.0
 31
0.0
  0
LINE
  5
1E5
  8
0
 10
21.829799999999999
 20
15.9574
 30
0.0
 11
21.829799999999999
 21
17.914899999999999
 31
0.0
  0
LINE
  5
1E6
  8
0
 10
19.872299999999999
 20
17.914899999999999
 30
0.0
 11
21.829799999999999
 21
17.914899999999999
 31
0.0
  0
LINE
  5
1E7
  8
0
 10
19.872299999999999
 20
21.829799999999999
 30
0.0
 11
21.829799999999999
 21
21.829799999999999
 31
0.0
  0
LINE
  5
1E8
  8
0
 10
19.872299999999999
 20
21.829799999999999
 30
0.0
 11
21.829799999999999
 21
21.829799999999999
 31
0.0
  0
LINE
  5
1E9
  8
0
 10
19.872299999999999
 20
17.914899999999999
 30
0.0
 11
21.829799999999999
 21
17.914899999999999
 31
0.0
  0
LINE
  5
1EA
  8
0
 10
21.829799999999999
 20
19.872299999999999
 30
0.0
 11
21.829799999999999
 21
21.829799999999999
 31
0.0
  0
LINE
  5
1EB
  8
0
 10
21.829799999999999
 20
23.787199999999991
 30
0.0
 11
21.829799999999999
 21
25.744700000000002
 31
0.0
  0
LINE
  5
1EC
  8
0
 10
21.829799999999999
 20
21.829799999999999
 30
0.0
 11
21.829799999999999
 21
19.872299999999999
 31
0.0
  0
LINE
  5
1ED
  8
0
 10
23.787199999999991
 20
17.914899999999999
 30
0.0
 11
25.744700000000002
 21
17.914899999999999
 31
0.0
  0
LINE
  5
1EE
  8
0
 10
23.787199999999991
 20
21.829799999999999
 30
0.0
 11
25.744700000000002
 21
21.829799999999999
 31
0.0
  0
LINE
  5
1EF
  8
0
 10
23.787199999999991
 20
21.829799999999999
 30
0.0
 11
25.744700000000002
 21
21.829799999999999
 31
0.0
  0
LINE
  5
1F0
  8
0
 10
23.787199999999991
 20
17.914899999999999
 30
0.0
 11
25.744700000000002
 21
17.914899999999999
 31
0.0
  0
LINE
  5
1F1
  8
0
 10
21.829799999999999
 20
17.914899999999999
 30
0.0
 11
21.829799999999999
 21
15.9574
 31
0.0
  0
LINE
  5
1F2
  8
0
 10
19.872299999999999
 20
25.744700000000002
 30
0.0
 11
21.829799999999999
 21
25.744700000000002
 31
0.0
  0
LINE
  5
1F3
  8
0
 10
19.872299999999999
 20
25.744700000000002
 30
0.0
 11
21.829799999999999
 21
25.744700000000002
 31
0.0
  0
LINE
  5
1F4
  8
0
 10
23.787199999999991
 20
25.744700000000002
 30
0.0
 11
25.744700000000002
 21
25.744700000000002
 31
0.0
  0
LINE
  5
1F5
  8
0
 10
23.787199999999991
 20
25.744700000000002
 30
0.0
 11
25.744700000000002
 21
25.744700000000002
 31
0.0
  0
LINE
  5
1F6
  8
0
 10
21.829799999999999
 20
25.744700000000002
 30
0.0
 11
21.829799999999999
 21
23.787199999999991
 31
0.0
  0
LINE
  5
1F7
  8
0
 10
25.744700000000002
 20
23.787199999999991
 30
0.0
 11
25.744700000000002
 21
25.744700000000002
 31
0.0
  0
LINE
  5
1F8
  8
0
 10
25.744700000000002
 20
19.872299999999999
 30
0.0
 11
25.744700000000002
 21
21.829799999999999
 31
0.0
  0
LINE
  5
1F9
  8
0
 10
25.744700000000002
 20
15.9574
 30
0.0
 11
25.744700000000002
 21
17.914899999999999
 31
0.0
  0
LINE
  5
1FA
  8
0
 10
25.744700000000002
 20
21.829799999999999
 30
0.0
 11
25.744700000000002
 21
19.872299999999999
 31
0.0
  0
LINE
  5
1FB
  8
0
 10
19.872299999999999
 20
29.659600000000001
 30
0.0
 11
21.829799999999999
 21
29.659600000000001
 31
0.0
  0
LINE
  5
1FC
  8
0
 10
19.872299999999999
 20
29.659600000000001
 30
0.0
 11
21.829799999999999
 21
29.659600000000001
 31
0.0
  0
LINE
  5
1FD
  8
0
 10
23.787199999999991
 20
29.659600000000001
 30
0.0
 11
25.744700000000002
 21
29.659600000000001
 31
0.0
  0
LINE
  5
1FE
  8
0
 10
23.787199999999991
 20
29.659600000000001
 30
0.0
 11
25.744700000000002
 21
29.659600000000001
 31
0.0
  0
LINE
  5
1FF
  8
0
 10
21.829799999999999
 20
27.702100000000002
 30
0.0
 11
21.829799999999999
 21
29.659600000000001
 31
0.0
  0
LINE
  5
200
  8
0
 10
21.829799999999999
 20
29.659600000000001
 30
0.0
 11
21.829799999999999
 21
27.702100000000002
 31
0.0
  0
LINE
  5
201
  8
0
 10
25.744700000000002
 20
27.702100000000002
 30
0.0
 11
25.744700000000002
 21
29.659600000000001
 31
0.0
  0
LINE
  5
202
  8
0
 10
19.872299999999999
 20
33.5745
 30
0.0
 11
21.829799999999999
 21
33.5745
 31
0.0
  0
LINE
  5
203
  8
0
 10
19.872299999999999
 20
33.5745
 30
0.0
 11
21.829799999999999
 21
33.5745
 31
0.0
  0
LINE
  5
204
  8
0
 10
23.787199999999991
 20
33.5745
 30
0.0
 11
25.744700000000002
 21
33.5745
 31
0.0
  0
LINE
  5
205
  8
0
 10
23.787199999999991
 20
33.5745
 30
0.0
 11
25.744700000000002
 21
33.5745
 31
0.0
  0
LINE
  5
206
  8
0
 10
21.829799999999999
 20
31.61699999999999
 30
0.0
 11
21.829799999999999
 21
33.5745
 31
0.0
  0
LINE
  5
207
  8
0
 10
21.829799999999999
 20
35.5319
 30
0.0
 11
21.829799999999999
 21
37.489400000000003
 31
0.0
  0
LINE
  5
208
  8
0
 10
21.829799999999999
 20
33.5745
 30
0.0
 11
21.829799999999999
 21
31.61699999999999
 31
0.0
  0
LINE
  5
209
  8
0
 10
25.744700000000002
 20
31.61699999999999
 30
0.0
 11
25.744700000000002
 21
33.5745
 31
0.0
  0
LINE
  5
20A
  8
0
 10
19.872299999999999
 20
37.489400000000003
 30
0.0
 11
21.829799999999999
 21
37.489400000000003
 31
0.0
  0
LINE
  5
20B
  8
0
 10
19.872299999999999
 20
41.404299999999999
 30
0.0
 11
21.829799999999999
 21
41.404299999999999
 31
0.0
  0
LINE
  5
20C
  8
0
 10
19.872299999999999
 20
41.404299999999999
 30
0.0
 11
21.829799999999999
 21
41.404299999999999
 31
0.0
  0
LINE
  5
20D
  8
0
 10
19.872299999999999
 20
37.489400000000003
 30
0.0
 11
21.829799999999999
 21
37.489400000000003
 31
0.0
  0
LINE
  5
20E
  8
0
 10
21.829799999999999
 20
39.446800000000003
 30
0.0
 11
21.829799999999999
 21
41.404299999999999
 31
0.0
  0
LINE
  5
20F
  8
0
 10
21.829799999999999
 20
41.404299999999999
 30
0.0
 11
21.829799999999999
 21
39.446800000000003
 31
0.0
  0
LINE
  5
210
  8
0
 10
23.787199999999991
 20
37.489400000000003
 30
0.0
 11
25.744700000000002
 21
37.489400000000003
 31
0.0
  0
LINE
  5
211
  8
0
 10
23.787199999999991
 20
41.404299999999999
 30
0.0
 11
25.744700000000002
 21
41.404299999999999
 31
0.0
  0
LINE
  5
212
  8
0
 10
23.787199999999991
 20
41.404299999999999
 30
0.0
 11
25.744700000000002
 21
41.404299999999999
 31
0.0
  0
LINE
  5
213
  8
0
 10
23.787199999999991
 20
37.489400000000003
 30
0.0
 11
25.744700000000002
 21
37.489400000000003
 31
0.0
  0
LINE
  5
214
  8
0
 10
21.829799999999999
 20
37.489400000000003
 30
0.0
 11
21.829799999999999
 21
35.5319
 31
0.0
  0
LINE
  5
215
  8
0
 10
25.744700000000002
 20
35.5319
 30
0.0
 11
25.744700000000002
 21
37.489400000000003
 31
0.0
  0
LINE
  5
216
  8
0
 10
25.744700000000002
 20
39.446800000000003
 30
0.0
 11
25.744700000000002
 21
41.404299999999999
 31
0.0
  0
LINE
  5
217
  8
0
 10
25.744700000000002
 20
29.659600000000001
 30
0.0
 11
25.744700000000002
 21
27.702100000000002
 31
0.0
  0
LINE
  5
218
  8
0
 10
25.744700000000002
 20
33.5745
 30
0.0
 11
25.744700000000002
 21
31.61699999999999
 31
0.0
  0
LINE
  5
219
  8
0
 10
21.829799999999999
 20
43.361699999999999
 30
0.0
 11
21.829799999999999
 21
45.319099999999992
 31
0.0
  0
LINE
  5
21A
  8
0
 10
21.829799999999999
 20
45.319099999999992
 30
0.0
 11
21.829799999999999
 21
43.361699999999999
 31
0.0
  0
LINE
  5
21B
  8
0
 10
25.744700000000002
 20
43.361699999999999
 30
0.0
 11
25.744700000000002
 21
45.319099999999992
 31
0.0
  0
LINE
  5
21C
  8
0
 10
19.872299999999999
 20
45.319099999999992
 30
0.0
 11
21.829799999999999
 21
45.319099999999992
 31
0.0
  0
LINE
  5
21D
  8
0
 10
19.872299999999999
 20
45.319099999999992
 30
0.0
 11
21.829799999999999
 21
45.319099999999992
 31
0.0
  0
LINE
  5
21E
  8
0
 10
23.787199999999991
 20
45.319099999999992
 30
0.0
 11
25.744700000000002
 21
45.319099999999992
 31
0.0
  0
LINE
  5
21F
  8
0
 10
23.787199999999991
 20
45.319099999999992
 30
0.0
 11
25.744700000000002
 21
45.319099999999992
 31
0.0
  0
LINE
  5
220
  8
0
 10
21.829799999999999
 20
47.276600000000002
 30
0.0
 11
21.829799999999999
 21
49.233999999999988
 31
0.0
  0
LINE
  5
221
  8
0
 10
19.872299999999999
 20
49.233999999999988
 30
0.0
 11
21.829799999999999
 21
49.233999999999988
 31
0.0
  0
LINE
  5
222
  8
0
 10
19.872299999999999
 20
49.233999999999988
 30
0.0
 11
21.829799999999999
 21
49.233999999999988
 31
0.0
  0
LINE
  5
223
  8
0
 10
23.787199999999991
 20
49.233999999999988
 30
0.0
 11
25.744700000000002
 21
49.233999999999988
 31
0.0
  0
LINE
  5
224
  8
0
 10
23.787199999999991
 20
49.233999999999988
 30
0.0
 11
25.744700000000002
 21
49.233999999999988
 31
0.0
  0
LINE
  5
225
  8
0
 10
21.829799999999999
 20
51.191499999999998
 30
0.0
 11
21.829799999999999
 21
53.148899999999998
 31
0.0
  0
LINE
  5
226
  8
0
 10
21.829799999999999
 20
49.233999999999988
 30
0.0
 11
21.829799999999999
 21
47.276600000000002
 31
0.0
  0
LINE
  5
227
  8
0
 10
25.744700000000002
 20
47.276600000000002
 30
0.0
 11
25.744700000000002
 21
49.233999999999988
 31
0.0
  0
LINE
  5
228
  8
0
 10
19.872299999999999
 20
53.148899999999998
 30
0.0
 11
21.829799999999999
 21
53.148899999999998
 31
0.0
  0
LINE
  5
229
  8
0
 10
19.872299999999999
 20
53.148899999999998
 30
0.0
 11
21.829799999999999
 21
53.148899999999998
 31
0.0
  0
LINE
  5
22A
  8
0
 10
21.829799999999999
 20
55.106400000000001
 30
0.0
 11
21.829799999999999
 21
57.063800000000001
 31
0.0
  0
LINE
  5
22B
  8
0
 10
21.829799999999999
 20
57.063800000000001
 30
0.0
 11
21.829799999999999
 21
55.106400000000001
 31
0.0
  0
LINE
  5
22C
  8
0
 10
23.787199999999991
 20
53.148899999999998
 30
0.0
 11
25.744700000000002
 21
53.148899999999998
 31
0.0
  0
LINE
  5
22D
  8
0
 10
23.787199999999991
 20
53.148899999999998
 30
0.0
 11
25.744700000000002
 21
53.148899999999998
 31
0.0
  0
LINE
  5
22E
  8
0
 10
21.829799999999999
 20
53.148899999999998
 30
0.0
 11
21.829799999999999
 21
51.191499999999998
 31
0.0
  0
LINE
  5
22F
  8
0
 10
25.744700000000002
 20
51.191499999999998
 30
0.0
 11
25.744700000000002
 21
53.148899999999998
 31
0.0
  0
LINE
  5
230
  8
0
 10
25.744700000000002
 20
55.106400000000001
 30
0.0
 11
25.744700000000002
 21
57.063800000000001
 31
0.0
  0
LINE
  5
231
  8
0
 10
25.744700000000002
 20
45.319099999999992
 30
0.0
 11
25.744700000000002
 21
43.361699999999999
 31
0.0
  0
LINE
  5
232
  8
0
 10
25.744700000000002
 20
49.233999999999988
 30
0.0
 11
25.744700000000002
 21
47.276600000000002
 31
0.0
  0
LINE
  5
233
  8
0
 10
19.872299999999999
 20
57.063800000000001
 30
0.0
 11
21.829799999999999
 21
57.063800000000001
 31
0.0
  0
LINE
  5
234
  8
0
 10
19.872299999999999
 20
57.063800000000001
 30
0.0
 11
21.829799999999999
 21
57.063800000000001
 31
0.0
  0
LINE
  5
235
  8
0
 10
23.787199999999991
 20
57.063800000000001
 30
0.0
 11
25.744700000000002
 21
57.063800000000001
 31
0.0
  0
LINE
  5
236
  8
0
 10
23.787199999999991
 20
57.063800000000001
 30
0.0
 11
25.744700000000002
 21
57.063800000000001
 31
0.0
  0
LINE
  5
237
  8
0
 10
21.829799999999999
 20
59.021299999999989
 30
0.0
 11
21.829799999999999
 21
60.978700000000003
 31
0.0
  0
LINE
  5
238
  8
0
 10
19.872299999999999
 20
60.978700000000003
 30
0.0
 11
21.829799999999999
 21
60.978700000000003
 31
0.0
  0
LINE
  5
239
  8
0
 10
19.872299999999999
 20
64.893600000000006
 30
0.0
 11
21.829799999999999
 21
64.893600000000006
 31
0.0
  0
LINE
  5
23A
  8
0
 10
19.872299999999999
 20
64.893600000000006
 30
0.0
 11
21.829799999999999
 21
64.893600000000006
 31
0.0
  0
LINE
  5
23B
  8
0
 10
19.872299999999999
 20
60.978700000000003
 30
0.0
 11
21.829799999999999
 21
60.978700000000003
 31
0.0
  0
LINE
  5
23C
  8
0
 10
21.829799999999999
 20
62.936199999999999
 30
0.0
 11
21.829799999999999
 21
64.893600000000006
 31
0.0
  0
LINE
  5
23D
  8
0
 10
21.829799999999999
 20
64.893600000000006
 30
0.0
 11
21.829799999999999
 21
62.936199999999999
 31
0.0
  0
LINE
  5
23E
  8
0
 10
23.787199999999991
 20
60.978700000000003
 30
0.0
 11
25.744700000000002
 21
60.978700000000003
 31
0.0
  0
LINE
  5
23F
  8
0
 10
23.787199999999991
 20
64.893600000000006
 30
0.0
 11
25.744700000000002
 21
64.893600000000006
 31
0.0
  0
LINE
  5
240
  8
0
 10
23.787199999999991
 20
64.893600000000006
 30
0.0
 11
25.744700000000002
 21
64.893600000000006
 31
0.0
  0
LINE
  5
241
  8
0
 10
23.787199999999991
 20
60.978700000000003
 30
0.0
 11
25.744700000000002
 21
60.978700000000003
 31
0.0
  0
LINE
  5
242
  8
0
 10
21.829799999999999
 20
60.978700000000003
 30
0.0
 11
21.829799999999999
 21
59.021299999999989
 31
0.0
  0
LINE
  5
243
  8
0
 10
25.744700000000002
 20
59.021299999999989
 30
0.0
 11
25.744700000000002
 21
60.978700000000003
 31
0.0
  0
LINE
  5
244
  8
0
 10
25.744700000000002
 20
62.936199999999999
 30
0.0
 11
25.744700000000002
 21
64.893600000000006
 31
0.0
  0
LINE
  5
245
  8
0
 10
25.744700000000002
 20
57.063800000000001
 30
0.0
 11
25.744700000000002
 21
55.106400000000001
 31
0.0
  0
LINE
  5
246
  8
0
 10
25.744700000000002
 20
53.148899999999998
 30
0.0
 11
25.744700000000002
 21
51.191499999999998
 31
0.0
  0
LINE
  5
247
  8
0
 10
19.872299999999999
 20
68.808499999999995
 30
0.0
 11
21.829799999999999
 21
68.808499999999995
 31
0.0
  0
LINE
  5
248
  8
0
 10
19.872299999999999
 20
68.808499999999995
 30
0.0
 11
21.829799999999999
 21
68.808499999999995
 31
0.0
  0
LINE
  5
249
  8
0
 10
23.787199999999991
 20
68.808499999999995
 30
0.0
 11
25.744700000000002
 21
68.808499999999995
 31
0.0
  0
LINE
  5
24A
  8
0
 10
23.787199999999991
 20
68.808499999999995
 30
0.0
 11
25.744700000000002
 21
68.808499999999995
 31
0.0
  0
LINE
  5
24B
  8
0
 10
21.829799999999999
 20
66.851100000000002
 30
0.0
 11
21.829799999999999
 21
68.808499999999995
 31
0.0
  0
LINE
  5
24C
  8
0
 10
21.829799999999999
 20
68.808499999999995
 30
0.0
 11
21.829799999999999
 21
66.851100000000002
 31
0.0
  0
LINE
  5
24D
  8
0
 10
25.744700000000002
 20
66.851100000000002
 30
0.0
 11
25.744700000000002
 21
68.808499999999995
 31
0.0
  0
LINE
  5
24E
  8
0
 10
21.829799999999999
 20
70.766000000000005
 30
0.0
 11
21.829799999999999
 21
72.723399999999984
 31
0.0
  0
LINE
  5
24F
  8
0
 10
19.872299999999999
 20
72.723399999999984
 30
0.0
 11
21.829799999999999
 21
72.723399999999984
 31
0.0
  0
LINE
  5
250
  8
0
 10
19.872299999999999
 20
76.638300000000001
 30
0.0
 11
21.829799999999999
 21
76.638300000000001
 31
0.0
  0
LINE
  5
251
  8
0
 10
19.872299999999999
 20
76.638300000000001
 30
0.0
 11
21.829799999999999
 21
76.638300000000001
 31
0.0
  0
LINE
  5
252
  8
0
 10
19.872299999999999
 20
72.723399999999984
 30
0.0
 11
21.829799999999999
 21
72.723399999999984
 31
0.0
  0
LINE
  5
253
  8
0
 10
21.829799999999999
 20
74.680899999999994
 30
0.0
 11
21.829799999999999
 21
76.638300000000001
 31
0.0
  0
LINE
  5
254
  8
0
 10
21.829799999999999
 20
76.638300000000001
 30
0.0
 11
21.829799999999999
 21
74.680899999999994
 31
0.0
  0
LINE
  5
255
  8
0
 10
23.787199999999991
 20
72.723399999999984
 30
0.0
 11
25.744700000000002
 21
72.723399999999984
 31
0.0
  0
LINE
  5
256
  8
0
 10
23.787199999999991
 20
76.638300000000001
 30
0.0
 11
25.744700000000002
 21
76.638300000000001
 31
0.0
  0
LINE
  5
257
  8
0
 10
23.787199999999991
 20
76.638300000000001
 30
0.0
 11
25.744700000000002
 21
76.638300000000001
 31
0.0
  0
LINE
  5
258
  8
0
 10
23.787199999999991
 20
72.723399999999984
 30
0.0
 11
25.744700000000002
 21
72.723399999999984
 31
0.0
  0
LINE
  5
259
  8
0
 10
21.829799999999999
 20
72.723399999999984
 30
0.0
 11
21.829799999999999
 21
70.766000000000005
 31
0.0
  0
LINE
  5
25A
  8
0
 10
25.744700000000002
 20
70.766000000000005
 30
0.0
 11
25.744700000000002
 21
72.723399999999984
 31
0.0
  0
LINE
  5
25B
  8
0
 10
25.744700000000002
 20
74.680899999999994
 30
0.0
 11
25.744700000000002
 21
76.638300000000001
 31
0.0
  0
LINE
  5
25C
  8
0
 10
19.872299999999999
 20
80.553200000000004
 30
0.0
 11
21.829799999999999
 21
80.553200000000004
 31
0.0
  0
LINE
  5
25D
  8
0
 10
19.872299999999999
 20
80.553200000000004
 30
0.0
 11
21.829799999999999
 21
80.553200000000004
 31
0.0
  0
LINE
  5
25E
  8
0
 10
23.787199999999991
 20
80.553200000000004
 30
0.0
 11
25.744700000000002
 21
80.553200000000004
 31
0.0
  0
LINE
  5
25F
  8
0
 10
23.787199999999991
 20
80.553200000000004
 30
0.0
 11
25.744700000000002
 21
80.553200000000004
 31
0.0
  0
LINE
  5
260
  8
0
 10
21.829799999999999
 20
78.595699999999994
 30
0.0
 11
21.829799999999999
 21
80.553200000000004
 31
0.0
  0
LINE
  5
261
  8
0
 10
21.829799999999999
 20
82.510599999999997
 30
0.0
 11
21.829799999999999
 21
84.468100000000007
 31
0.0
  0
LINE
  5
262
  8
0
 10
21.829799999999999
 20
80.553200000000004
 30
0.0
 11
21.829799999999999
 21
78.595699999999994
 31
0.0
  0
LINE
  5
263
  8
0
 10
25.744700000000002
 20
78.595699999999994
 30
0.0
 11
25.744700000000002
 21
80.553200000000004
 31
0.0
  0
LINE
  5
264
  8
0
 10
19.872299999999999
 20
84.468100000000007
 30
0.0
 11
21.829799999999999
 21
84.468100000000007
 31
0.0
  0
LINE
  5
265
  8
0
 10
19.872299999999999
 20
88.382999999999996
 30
0.0
 11
21.829799999999999
 21
88.382999999999996
 31
0.0
  0
LINE
  5
266
  8
0
 10
19.872299999999999
 20
88.382999999999996
 30
0.0
 11
21.829799999999999
 21
88.382999999999996
 31
0.0
  0
LINE
  5
267
  8
0
 10
19.872299999999999
 20
84.468100000000007
 30
0.0
 11
21.829799999999999
 21
84.468100000000007
 31
0.0
  0
LINE
  5
268
  8
0
 10
21.829799999999999
 20
86.425499999999985
 30
0.0
 11
21.829799999999999
 21
88.382999999999996
 31
0.0
  0
LINE
  5
269
  8
0
 10
21.829799999999999
 20
88.382999999999996
 30
0.0
 11
21.829799999999999
 21
86.425499999999985
 31
0.0
  0
LINE
  5
26A
  8
0
 10
23.787199999999991
 20
84.468100000000007
 30
0.0
 11
25.744700000000002
 21
84.468100000000007
 31
0.0
  0
LINE
  5
26B
  8
0
 10
23.787199999999991
 20
88.382999999999996
 30
0.0
 11
25.744700000000002
 21
88.382999999999996
 31
0.0
  0
LINE
  5
26C
  8
0
 10
23.787199999999991
 20
88.382999999999996
 30
0.0
 11
25.744700000000002
 21
88.382999999999996
 31
0.0
  0
LINE
  5
26D
  8
0
 10
23.787199999999991
 20
84.468100000000007
 30
0.0
 11
25.744700000000002
 21
84.468100000000007
 31
0.0
  0
LINE
  5
26E
  8
0
 10
21.829799999999999
 20
84.468100000000007
 30
0.0
 11
21.829799999999999
 21
82.510599999999997
 31
0.0
  0
LINE
  5
26F
  8
0
 10
25.744700000000002
 20
82.510599999999997
 30
0.0
 11
25.744700000000002
 21
84.468100000000007
 31
0.0
  0
LINE
  5
270
  8
0
 10
25.744700000000002
 20
86.425499999999985
 30
0.0
 11
25.744700000000002
 21
88.382999999999996
 31
0.0
  0
LINE
  5
271
  8
0
 10
25.744700000000002
 20
76.638300000000001
 30
0.0
 11
25.744700000000002
 21
74.680899999999994
 31
0.0
  0
LINE
  5
272
  8
0
 10
25.744700000000002
 20
80.553200000000004
 30
0.0
 11
25.744700000000002
 21
78.595699999999994
 31
0.0
  0
LINE
  5
273
  8
0
 10
21.829799999999999
 20
90.340400000000002
 30
0.0
 11
21.829799999999999
 21
92.297899999999984
 31
0.0
  0
LINE
  5
274
  8
0
 10
19.872299999999999
 20
92.297899999999984
 30
0.0
 11
21.829799999999999
 21
92.297899999999984
 31
0.0
  0
LINE
  5
275
  8
0
 10
19.872299999999999
 20
96.212800000000001
 30
0.0
 11
21.829799999999999
 21
96.212800000000001
 31
0.0
  0
LINE
  5
276
  8
0
 10
19.872299999999999
 20
96.212800000000001
 30
0.0
 11
21.829799999999999
 21
96.212800000000001
 31
0.0
  0
LINE
  5
277
  8
0
 10
19.872299999999999
 20
92.297899999999984
 30
0.0
 11
21.829799999999999
 21
92.297899999999984
 31
0.0
  0
LINE
  5
278
  8
0
 10
21.829799999999999
 20
94.255300000000005
 30
0.0
 11
21.829799999999999
 21
96.212800000000001
 31
0.0
  0
LINE
  5
279
  8
0
 10
21.829799999999999
 20
96.212800000000001
 30
0.0
 11
21.829799999999999
 21
94.255300000000005
 31
0.0
  0
LINE
  5
27A
  8
0
 10
23.787199999999991
 20
92.297899999999984
 30
0.0
 11
25.744700000000002
 21
92.297899999999984
 31
0.0
  0
LINE
  5
27B
  8
0
 10
23.787199999999991
 20
96.212800000000001
 30
0.0
 11
25.744700000000002
 21
96.212800000000001
 31
0.0
  0
LINE
  5
27C
  8
0
 10
23.787199999999991
 20
96.212800000000001
 30
0.0
 11
25.744700000000002
 21
96.212800000000001
 31
0.0
  0
LINE
  5
27D
  8
0
 10
23.787199999999991
 20
92.297899999999984
 30
0.0
 11
25.744700000000002
 21
92.297899999999984
 31
0.0
  0
LINE
  5
27E
  8
0
 10
21.829799999999999
 20
92.297899999999984
 30
0.0
 11
21.829799999999999
 21
90.340400000000002
 31
0.0
  0
LINE
  5
27F
  8
0
 10
25.744700000000002
 20
90.340400000000002
 30
0.0
 11
25.744700000000002
 21
92.297899999999984
 31
0.0
  0
LINE
  5
280
  8
0
 10
25.744700000000002
 20
94.255300000000005
 30
0.0
 11
25.744700000000002
 21
96.212800000000001
 31
0.0
  0
LINE
  5
281
  8
0
 10
25.744700000000002
 20
88.382999999999996
 30
0.0
 11
25.744700000000002
 21
86.425499999999985
 31
0.0
  0
LINE
  5
282
  8
0
 10
25.744700000000002
 20
84.468100000000007
 30
0.0
 11
25.744700000000002
 21
82.510599999999997
 31
0.0
  0
LINE
  5
283
  8
0
 10
19.872299999999999
 20
100.1279999999999
 30
0.0
 11
21.829799999999999
 21
100.1279999999999
 31
0.0
  0
LINE
  5
284
  8
0
 10
19.872299999999999
 20
100.1279999999999
 30
0.0
 11
21.829799999999999
 21
100.1279999999999
 31
0.0
  0
LINE
  5
285
  8
0
 10
23.787199999999991
 20
100.1279999999999
 30
0.0
 11
25.744700000000002
 21
100.1279999999999
 31
0.0
  0
LINE
  5
286
  8
0
 10
23.787199999999991
 20
100.1279999999999
 30
0.0
 11
25.744700000000002
 21
100.1279999999999
 31
0.0
  0
LINE
  5
287
  8
0
 10
21.829799999999999
 20
98.170199999999994
 30
0.0
 11
21.829799999999999
 21
100.1279999999999
 31
0.0
  0
LINE
  5
288
  8
0
 10
21.829799999999999
 20
100.1279999999999
 30
0.0
 11
21.829799999999999
 21
98.170199999999994
 31
0.0
  0
LINE
  5
289
  8
0
 10
25.744700000000002
 20
98.170199999999994
 30
0.0
 11
25.744700000000002
 21
100.1279999999999
 31
0.0
  0
LINE
  5
28A
  8
0
 10
21.829799999999999
 20
102.08499999999999
 30
0.0
 11
21.829799999999999
 21
104.04299999999991
 31
0.0
  0
LINE
  5
28B
  8
0
 10
19.872299999999999
 20
104.04299999999991
 30
0.0
 11
21.829799999999999
 21
104.04299999999991
 31
0.0
  0
LINE
  5
28C
  8
0
 10
19.872299999999999
 20
104.04299999999991
 30
0.0
 11
21.829799999999999
 21
104.04299999999991
 31
0.0
  0
LINE
  5
28D
  8
0
 10
21.829799999999999
 20
106.0
 30
0.0
 11
21.829799999999999
 21
108.0
 31
0.0
  0
LINE
  5
28E
  8
0
 10
21.829799999999999
 20
104.04299999999991
 30
0.0
 11
21.829799999999999
 21
102.08499999999999
 31
0.0
  0
LINE
  5
28F
  8
0
 10
23.787199999999991
 20
104.04299999999991
 30
0.0
 11
25.744700000000002
 21
104.04299999999991
 31
0.0
  0
LINE
  5
290
  8
0
 10
23.787199999999991
 20
104.04299999999991
 30
0.0
 11
25.744700000000002
 21
104.04299999999991
 31
0.0
  0
LINE
  5
291
  8
0
 10
23.787199999999991
 20
108.0
 30
0.0
 11
23.787199999999991
 21
12.0
 31
0.0
  0
LINE
  5
292
  8
0
 10
21.829799999999999
 20
108.0
 30
0.0
 11
21.829799999999999
 21
106.0
 31
0.0
  0
LINE
  5
293
  8
0
 10
21.829799999999999
 20
108.0
 30
0.0
 11
23.787199999999991
 21
108.0
 31
0.0
  0
LINE
  5
294
  8
0
 10
21.829799999999999
 20
108.0
 30
0.0
 11
21.829799999999999
 21
12.0
 31
0.0
  0
LINE
  5
295
  8
0
 10
25.744700000000002
 20
102.08499999999999
 30
0.0
 11
25.744700000000002
 21
104.04299999999991
 31
0.0
  0
LINE
  5
296
  8
0
 10
25.744700000000002
 20
106.0
 30
0.0
 11
25.744700000000002
 21
108.0
 31
0.0
  0
LINE
  5
297
  8
0
 10
25.744700000000002
 20
100.1279999999999
 30
0.0
 11
25.744700000000002
 21
98.170199999999994
 31
0.0
  0
LINE
  5
298
  8
0
 10
25.744700000000002
 20
104.04299999999991
 30
0.0
 11
25.744700000000002
 21
102.08499999999999
 31
0.0
  0
LINE
  5
299
  8
0
 10
25.744700000000002
 20
96.212800000000001
 30
0.0
 11
25.744700000000002
 21
94.255300000000005
 31
0.0
  0
LINE
  5
29A
  8
0
 10
25.744700000000002
 20
92.297899999999984
 30
0.0
 11
25.744700000000002
 21
90.340400000000002
 31
0.0
  0
LINE
  5
29B
  8
0
 10
25.744700000000002
 20
68.808499999999995
 30
0.0
 11
25.744700000000002
 21
66.851100000000002
 31
0.0
  0
LINE
  5
29C
  8
0
 10
25.744700000000002
 20
72.723399999999984
 30
0.0
 11
25.744700000000002
 21
70.766000000000005
 31
0.0
  0
LINE
  5
29D
  8
0
 10
25.744700000000002
 20
64.893600000000006
 30
0.0
 11
25.744700000000002
 21
62.936199999999999
 31
0.0
  0
LINE
  5
29E
  8
0
 10
25.744700000000002
 20
60.978700000000003
 30
0.0
 11
25.744700000000002
 21
59.021299999999989
 31
0.0
  0
LINE
  5
29F
  8
0
 10
25.744700000000002
 20
41.404299999999999
 30
0.0
 11
25.744700000000002
 21
39.446800000000003
 31
0.0
  0
LINE
  5
2A0
  8
0
 10
25.744700000000002
 20
37.489400000000003
 30
0.0
 11
25.744700000000002
 21
35.5319
 31
0.0
  0
LINE
  5
2A1
  8
0
 10
25.744700000000002
 20
25.744700000000002
 30
0.0
 11
25.744700000000002
 21
23.787199999999991
 31
0.0
  0
LINE
  5
2A2
  8
0
 10
25.744700000000002
 20
17.914899999999999
 30
0.0
 11
25.744700000000002
 21
15.9574
 31
0.0
  0
LINE
  5
2A3
  8
0
 10
25.744700000000002
 20
14.0
 30
0.0
 11
25.744700000000002
 21
12.0
 31
0.0
  0
LINE
  5
2A4
  8
0
 10
31.61699999999999
 20
14.0
 30
0.0
 11
33.5745
 21
14.0
 31
0.0
  0
LINE
  5
2A5
  8
0
 10
27.702100000000002
 20
14.0
 30
0.0
 11
29.659600000000001
 21
14.0
 31
0.0
  0
LINE
  5
2A6
  8
0
 10
27.702100000000002
 20
14.0
 30
0.0
 11
29.659600000000001
 21
14.0
 31
0.0
  0
LINE
  5
2A7
  8
0
 10
31.61699999999999
 20
14.0
 30
0.0
 11
33.5745
 21
14.0
 31
0.0
  0
LINE
  5
2A8
  8
0
 10
29.659600000000001
 20
14.0
 30
0.0
 11
29.659600000000001
 21
12.0
 31
0.0
  0
LINE
  5
2A9
  8
0
 10
35.5319
 20
14.0
 30
0.0
 11
37.489400000000003
 21
14.0
 31
0.0
  0
LINE
  5
2AA
  8
0
 10
35.5319
 20
14.0
 30
0.0
 11
37.489400000000003
 21
14.0
 31
0.0
  0
LINE
  5
2AB
  8
0
 10
33.5745
 20
14.0
 30
0.0
 11
33.5745
 21
12.0
 31
0.0
  0
LINE
  5
2AC
  8
0
 10
29.659600000000001
 20
15.9574
 30
0.0
 11
29.659600000000001
 21
17.914899999999999
 31
0.0
  0
LINE
  5
2AD
  8
0
 10
33.5745
 20
15.9574
 30
0.0
 11
33.5745
 21
17.914899999999999
 31
0.0
  0
LINE
  5
2AE
  8
0
 10
27.702100000000002
 20
17.914899999999999
 30
0.0
 11
29.659600000000001
 21
17.914899999999999
 31
0.0
  0
LINE
  5
2AF
  8
0
 10
27.702100000000002
 20
17.914899999999999
 30
0.0
 11
29.659600000000001
 21
17.914899999999999
 31
0.0
  0
LINE
  5
2B0
  8
0
 10
27.702100000000002
 20
21.829799999999999
 30
0.0
 11
29.659600000000001
 21
21.829799999999999
 31
0.0
  0
LINE
  5
2B1
  8
0
 10
27.702100000000002
 20
21.829799999999999
 30
0.0
 11
29.659600000000001
 21
21.829799999999999
 31
0.0
  0
LINE
  5
2B2
  8
0
 10
29.659600000000001
 20
19.872299999999999
 30
0.0
 11
29.659600000000001
 21
21.829799999999999
 31
0.0
  0
LINE
  5
2B3
  8
0
 10
31.61699999999999
 20
17.914899999999999
 30
0.0
 11
33.5745
 21
17.914899999999999
 31
0.0
  0
LINE
  5
2B4
  8
0
 10
31.61699999999999
 20
21.829799999999999
 30
0.0
 11
33.5745
 21
21.829799999999999
 31
0.0
  0
LINE
  5
2B5
  8
0
 10
31.61699999999999
 20
21.829799999999999
 30
0.0
 11
33.5745
 21
21.829799999999999
 31
0.0
  0
LINE
  5
2B6
  8
0
 10
31.61699999999999
 20
17.914899999999999
 30
0.0
 11
33.5745
 21
17.914899999999999
 31
0.0
  0
LINE
  5
2B7
  8
0
 10
29.659600000000001
 20
21.829799999999999
 30
0.0
 11
29.659600000000001
 21
19.872299999999999
 31
0.0
  0
LINE
  5
2B8
  8
0
 10
29.659600000000001
 20
17.914899999999999
 30
0.0
 11
29.659600000000001
 21
15.9574
 31
0.0
  0
LINE
  5
2B9
  8
0
 10
33.5745
 20
19.872299999999999
 30
0.0
 11
33.5745
 21
21.829799999999999
 31
0.0
  0
LINE
  5
2BA
  8
0
 10
29.659600000000001
 20
23.787199999999991
 30
0.0
 11
29.659600000000001
 21
25.744700000000002
 31
0.0
  0
LINE
  5
2BB
  8
0
 10
33.5745
 20
23.787199999999991
 30
0.0
 11
33.5745
 21
25.744700000000002
 31
0.0
  0
LINE
  5
2BC
  8
0
 10
33.5745
 20
21.829799999999999
 30
0.0
 11
33.5745
 21
19.872299999999999
 31
0.0
  0
LINE
  5
2BD
  8
0
 10
35.5319
 20
17.914899999999999
 30
0.0
 11
37.489400000000003
 21
17.914899999999999
 31
0.0
  0
LINE
  5
2BE
  8
0
 10
35.5319
 20
21.829799999999999
 30
0.0
 11
37.489400000000003
 21
21.829799999999999
 31
0.0
  0
LINE
  5
2BF
  8
0
 10
35.5319
 20
21.829799999999999
 30
0.0
 11
37.489400000000003
 21
21.829799999999999
 31
0.0
  0
LINE
  5
2C0
  8
0
 10
35.5319
 20
17.914899999999999
 30
0.0
 11
37.489400000000003
 21
17.914899999999999
 31
0.0
  0
LINE
  5
2C1
  8
0
 10
33.5745
 20
17.914899999999999
 30
0.0
 11
33.5745
 21
15.9574
 31
0.0
  0
LINE
  5
2C2
  8
0
 10
31.61699999999999
 20
25.744700000000002
 30
0.0
 11
33.5745
 21
25.744700000000002
 31
0.0
  0
LINE
  5
2C3
  8
0
 10
27.702100000000002
 20
25.744700000000002
 30
0.0
 11
29.659600000000001
 21
25.744700000000002
 31
0.0
  0
LINE
  5
2C4
  8
0
 10
27.702100000000002
 20
25.744700000000002
 30
0.0
 11
29.659600000000001
 21
25.744700000000002
 31
0.0
  0
LINE
  5
2C5
  8
0
 10
31.61699999999999
 20
25.744700000000002
 30
0.0
 11
33.5745
 21
25.744700000000002
 31
0.0
  0
LINE
  5
2C6
  8
0
 10
29.659600000000001
 20
25.744700000000002
 30
0.0
 11
29.659600000000001
 21
23.787199999999991
 31
0.0
  0
LINE
  5
2C7
  8
0
 10
35.5319
 20
25.744700000000002
 30
0.0
 11
37.489400000000003
 21
25.744700000000002
 31
0.0
  0
LINE
  5
2C8
  8
0
 10
35.5319
 20
25.744700000000002
 30
0.0
 11
37.489400000000003
 21
25.744700000000002
 31
0.0
  0
LINE
  5
2C9
  8
0
 10
33.5745
 20
25.744700000000002
 30
0.0
 11
33.5745
 21
23.787199999999991
 31
0.0
  0
LINE
  5
2CA
  8
0
 10
37.489400000000003
 20
23.787199999999991
 30
0.0
 11
37.489400000000003
 21
25.744700000000002
 31
0.0
  0
LINE
  5
2CB
  8
0
 10
37.489400000000003
 20
19.872299999999999
 30
0.0
 11
37.489400000000003
 21
21.829799999999999
 31
0.0
  0
LINE
  5
2CC
  8
0
 10
37.489400000000003
 20
15.9574
 30
0.0
 11
37.489400000000003
 21
17.914899999999999
 31
0.0
  0
LINE
  5
2CD
  8
0
 10
37.489400000000003
 20
21.829799999999999
 30
0.0
 11
37.489400000000003
 21
19.872299999999999
 31
0.0
  0
LINE
  5
2CE
  8
0
 10
27.702100000000002
 20
29.659600000000001
 30
0.0
 11
29.659600000000001
 21
29.659600000000001
 31
0.0
  0
LINE
  5
2CF
  8
0
 10
27.702100000000002
 20
29.659600000000001
 30
0.0
 11
29.659600000000001
 21
29.659600000000001
 31
0.0
  0
LINE
  5
2D0
  8
0
 10
31.61699999999999
 20
29.659600000000001
 30
0.0
 11
33.5745
 21
29.659600000000001
 31
0.0
  0
LINE
  5
2D1
  8
0
 10
31.61699999999999
 20
29.659600000000001
 30
0.0
 11
33.5745
 21
29.659600000000001
 31
0.0
  0
LINE
  5
2D2
  8
0
 10
29.659600000000001
 20
27.702100000000002
 30
0.0
 11
29.659600000000001
 21
29.659600000000001
 31
0.0
  0
LINE
  5
2D3
  8
0
 10
29.659600000000001
 20
29.659600000000001
 30
0.0
 11
29.659600000000001
 21
27.702100000000002
 31
0.0
  0
LINE
  5
2D4
  8
0
 10
35.5319
 20
29.659600000000001
 30
0.0
 11
37.489400000000003
 21
29.659600000000001
 31
0.0
  0
LINE
  5
2D5
  8
0
 10
35.5319
 20
29.659600000000001
 30
0.0
 11
37.489400000000003
 21
29.659600000000001
 31
0.0
  0
LINE
  5
2D6
  8
0
 10
33.5745
 20
27.702100000000002
 30
0.0
 11
33.5745
 21
29.659600000000001
 31
0.0
  0
LINE
  5
2D7
  8
0
 10
33.5745
 20
29.659600000000001
 30
0.0
 11
33.5745
 21
27.702100000000002
 31
0.0
  0
LINE
  5
2D8
  8
0
 10
37.489400000000003
 20
27.702100000000002
 30
0.0
 11
37.489400000000003
 21
29.659600000000001
 31
0.0
  0
LINE
  5
2D9
  8
0
 10
27.702100000000002
 20
33.5745
 30
0.0
 11
29.659600000000001
 21
33.5745
 31
0.0
  0
LINE
  5
2DA
  8
0
 10
27.702100000000002
 20
33.5745
 30
0.0
 11
29.659600000000001
 21
33.5745
 31
0.0
  0
LINE
  5
2DB
  8
0
 10
31.61699999999999
 20
33.5745
 30
0.0
 11
33.5745
 21
33.5745
 31
0.0
  0
LINE
  5
2DC
  8
0
 10
31.61699999999999
 20
33.5745
 30
0.0
 11
33.5745
 21
33.5745
 31
0.0
  0
LINE
  5
2DD
  8
0
 10
29.659600000000001
 20
31.61699999999999
 30
0.0
 11
29.659600000000001
 21
33.5745
 31
0.0
  0
LINE
  5
2DE
  8
0
 10
29.659600000000001
 20
33.5745
 30
0.0
 11
29.659600000000001
 21
31.61699999999999
 31
0.0
  0
LINE
  5
2DF
  8
0
 10
35.5319
 20
33.5745
 30
0.0
 11
37.489400000000003
 21
33.5745
 31
0.0
  0
LINE
  5
2E0
  8
0
 10
35.5319
 20
33.5745
 30
0.0
 11
37.489400000000003
 21
33.5745
 31
0.0
  0
LINE
  5
2E1
  8
0
 10
33.5745
 20
31.61699999999999
 30
0.0
 11
33.5745
 21
33.5745
 31
0.0
  0
LINE
  5
2E2
  8
0
 10
29.659600000000001
 20
35.5319
 30
0.0
 11
29.659600000000001
 21
37.489400000000003
 31
0.0
  0
LINE
  5
2E3
  8
0
 10
33.5745
 20
35.5319
 30
0.0
 11
33.5745
 21
37.489400000000003
 31
0.0
  0
LINE
  5
2E4
  8
0
 10
33.5745
 20
33.5745
 30
0.0
 11
33.5745
 21
31.61699999999999
 31
0.0
  0
LINE
  5
2E5
  8
0
 10
37.489400000000003
 20
31.61699999999999
 30
0.0
 11
37.489400000000003
 21
33.5745
 31
0.0
  0
LINE
  5
2E6
  8
0
 10
31.61699999999999
 20
37.489400000000003
 30
0.0
 11
33.5745
 21
37.489400000000003
 31
0.0
  0
LINE
  5
2E7
  8
0
 10
27.702100000000002
 20
37.489400000000003
 30
0.0
 11
29.659600000000001
 21
37.489400000000003
 31
0.0
  0
LINE
  5
2E8
  8
0
 10
27.702100000000002
 20
37.489400000000003
 30
0.0
 11
29.659600000000001
 21
37.489400000000003
 31
0.0
  0
LINE
  5
2E9
  8
0
 10
31.61699999999999
 20
37.489400000000003
 30
0.0
 11
33.5745
 21
37.489400000000003
 31
0.0
  0
LINE
  5
2EA
  8
0
 10
27.702100000000002
 20
41.404299999999999
 30
0.0
 11
29.659600000000001
 21
41.404299999999999
 31
0.0
  0
LINE
  5
2EB
  8
0
 10
27.702100000000002
 20
41.404299999999999
 30
0.0
 11
29.659600000000001
 21
41.404299999999999
 31
0.0
  0
LINE
  5
2EC
  8
0
 10
29.659600000000001
 20
39.446800000000003
 30
0.0
 11
29.659600000000001
 21
41.404299999999999
 31
0.0
  0
LINE
  5
2ED
  8
0
 10
31.61699999999999
 20
41.404299999999999
 30
0.0
 11
33.5745
 21
41.404299999999999
 31
0.0
  0
LINE
  5
2EE
  8
0
 10
31.61699999999999
 20
41.404299999999999
 30
0.0
 11
33.5745
 21
41.404299999999999
 31
0.0
  0
LINE
  5
2EF
  8
0
 10
29.659600000000001
 20
41.404299999999999
 30
0.0
 11
29.659600000000001
 21
39.446800000000003
 31
0.0
  0
LINE
  5
2F0
  8
0
 10
29.659600000000001
 20
37.489400000000003
 30
0.0
 11
29.659600000000001
 21
35.5319
 31
0.0
  0
LINE
  5
2F1
  8
0
 10
33.5745
 20
39.446800000000003
 30
0.0
 11
33.5745
 21
41.404299999999999
 31
0.0
  0
LINE
  5
2F2
  8
0
 10
33.5745
 20
41.404299999999999
 30
0.0
 11
33.5745
 21
39.446800000000003
 31
0.0
  0
LINE
  5
2F3
  8
0
 10
35.5319
 20
37.489400000000003
 30
0.0
 11
37.489400000000003
 21
37.489400000000003
 31
0.0
  0
LINE
  5
2F4
  8
0
 10
35.5319
 20
41.404299999999999
 30
0.0
 11
37.489400000000003
 21
41.404299999999999
 31
0.0
  0
LINE
  5
2F5
  8
0
 10
35.5319
 20
41.404299999999999
 30
0.0
 11
37.489400000000003
 21
41.404299999999999
 31
0.0
  0
LINE
  5
2F6
  8
0
 10
35.5319
 20
37.489400000000003
 30
0.0
 11
37.489400000000003
 21
37.489400000000003
 31
0.0
  0
LINE
  5
2F7
  8
0
 10
33.5745
 20
37.489400000000003
 30
0.0
 11
33.5745
 21
35.5319
 31
0.0
  0
LINE
  5
2F8
  8
0
 10
37.489400000000003
 20
35.5319
 30
0.0
 11
37.489400000000003
 21
37.489400000000003
 31
0.0
  0
LINE
  5
2F9
  8
0
 10
37.489400000000003
 20
39.446800000000003
 30
0.0
 11
37.489400000000003
 21
41.404299999999999
 31
0.0
  0
LINE
  5
2FA
  8
0
 10
37.489400000000003
 20
29.659600000000001
 30
0.0
 11
37.489400000000003
 21
27.702100000000002
 31
0.0
  0
LINE
  5
2FB
  8
0
 10
37.489400000000003
 20
33.5745
 30
0.0
 11
37.489400000000003
 21
31.61699999999999
 31
0.0
  0
LINE
  5
2FC
  8
0
 10
29.659600000000001
 20
43.361699999999999
 30
0.0
 11
29.659600000000001
 21
45.319099999999992
 31
0.0
  0
LINE
  5
2FD
  8
0
 10
29.659600000000001
 20
45.319099999999992
 30
0.0
 11
29.659600000000001
 21
43.361699999999999
 31
0.0
  0
LINE
  5
2FE
  8
0
 10
33.5745
 20
43.361699999999999
 30
0.0
 11
33.5745
 21
45.319099999999992
 31
0.0
  0
LINE
  5
2FF
  8
0
 10
33.5745
 20
45.319099999999992
 30
0.0
 11
33.5745
 21
43.361699999999999
 31
0.0
  0
LINE
  5
300
  8
0
 10
37.489400000000003
 20
43.361699999999999
 30
0.0
 11
37.489400000000003
 21
45.319099999999992
 31
0.0
  0
LINE
  5
301
  8
0
 10
27.702100000000002
 20
45.319099999999992
 30
0.0
 11
29.659600000000001
 21
45.319099999999992
 31
0.0
  0
LINE
  5
302
  8
0
 10
27.702100000000002
 20
45.319099999999992
 30
0.0
 11
29.659600000000001
 21
45.319099999999992
 31
0.0
  0
LINE
  5
303
  8
0
 10
31.61699999999999
 20
45.319099999999992
 30
0.0
 11
33.5745
 21
45.319099999999992
 31
0.0
  0
LINE
  5
304
  8
0
 10
31.61699999999999
 20
45.319099999999992
 30
0.0
 11
33.5745
 21
45.319099999999992
 31
0.0
  0
LINE
  5
305
  8
0
 10
29.659600000000001
 20
47.276600000000002
 30
0.0
 11
29.659600000000001
 21
49.233999999999988
 31
0.0
  0
LINE
  5
306
  8
0
 10
29.659600000000001
 20
49.233999999999988
 30
0.0
 11
29.659600000000001
 21
47.276600000000002
 31
0.0
  0
LINE
  5
307
  8
0
 10
35.5319
 20
45.319099999999992
 30
0.0
 11
37.489400000000003
 21
45.319099999999992
 31
0.0
  0
LINE
  5
308
  8
0
 10
35.5319
 20
45.319099999999992
 30
0.0
 11
37.489400000000003
 21
45.319099999999992
 31
0.0
  0
LINE
  5
309
  8
0
 10
33.5745
 20
47.276600000000002
 30
0.0
 11
33.5745
 21
49.233999999999988
 31
0.0
  0
LINE
  5
30A
  8
0
 10
31.61699999999999
 20
49.233999999999988
 30
0.0
 11
33.5745
 21
49.233999999999988
 31
0.0
  0
LINE
  5
30B
  8
0
 10
27.702100000000002
 20
49.233999999999988
 30
0.0
 11
29.659600000000001
 21
49.233999999999988
 31
0.0
  0
LINE
  5
30C
  8
0
 10
27.702100000000002
 20
49.233999999999988
 30
0.0
 11
29.659600000000001
 21
49.233999999999988
 31
0.0
  0
LINE
  5
30D
  8
0
 10
31.61699999999999
 20
49.233999999999988
 30
0.0
 11
33.5745
 21
49.233999999999988
 31
0.0
  0
LINE
  5
30E
  8
0
 10
29.659600000000001
 20
51.191499999999998
 30
0.0
 11
29.659600000000001
 21
53.148899999999998
 31
0.0
  0
LINE
  5
30F
  8
0
 10
35.5319
 20
49.233999999999988
 30
0.0
 11
37.489400000000003
 21
49.233999999999988
 31
0.0
  0
LINE
  5
310
  8
0
 10
35.5319
 20
49.233999999999988
 30
0.0
 11
37.489400000000003
 21
49.233999999999988
 31
0.0
  0
LINE
  5
311
  8
0
 10
33.5745
 20
51.191499999999998
 30
0.0
 11
33.5745
 21
53.148899999999998
 31
0.0
  0
LINE
  5
312
  8
0
 10
33.5745
 20
49.233999999999988
 30
0.0
 11
33.5745
 21
47.276600000000002
 31
0.0
  0
LINE
  5
313
  8
0
 10
37.489400000000003
 20
47.276600000000002
 30
0.0
 11
37.489400000000003
 21
49.233999999999988
 31
0.0
  0
LINE
  5
314
  8
0
 10
31.61699999999999
 20
53.148899999999998
 30
0.0
 11
33.5745
 21
53.148899999999998
 31
0.0
  0
LINE
  5
315
  8
0
 10
27.702100000000002
 20
53.148899999999998
 30
0.0
 11
29.659600000000001
 21
53.148899999999998
 31
0.0
  0
LINE
  5
316
  8
0
 10
27.702100000000002
 20
53.148899999999998
 30
0.0
 11
29.659600000000001
 21
53.148899999999998
 31
0.0
  0
LINE
  5
317
  8
0
 10
31.61699999999999
 20
53.148899999999998
 30
0.0
 11
33.5745
 21
53.148899999999998
 31
0.0
  0
LINE
  5
318
  8
0
 10
29.659600000000001
 20
55.106400000000001
 30
0.0
 11
29.659600000000001
 21
57.063800000000001
 31
0.0
  0
LINE
  5
319
  8
0
 10
29.659600000000001
 20
57.063800000000001
 30
0.0
 11
29.659600000000001
 21
55.106400000000001
 31
0.0
  0
LINE
  5
31A
  8
0
 10
29.659600000000001
 20
53.148899999999998
 30
0.0
 11
29.659600000000001
 21
51.191499999999998
 31
0.0
  0
LINE
  5
31B
  8
0
 10
33.5745
 20
55.106400000000001
 30
0.0
 11
33.5745
 21
57.063800000000001
 31
0.0
  0
LINE
  5
31C
  8
0
 10
33.5745
 20
57.063800000000001
 30
0.0
 11
33.5745
 21
55.106400000000001
 31
0.0
  0
LINE
  5
31D
  8
0
 10
35.5319
 20
53.148899999999998
 30
0.0
 11
37.489400000000003
 21
53.148899999999998
 31
0.0
  0
LINE
  5
31E
  8
0
 10
35.5319
 20
53.148899999999998
 30
0.0
 11
37.489400000000003
 21
53.148899999999998
 31
0.0
  0
LINE
  5
31F
  8
0
 10
33.5745
 20
53.148899999999998
 30
0.0
 11
33.5745
 21
51.191499999999998
 31
0.0
  0
LINE
  5
320
  8
0
 10
37.489400000000003
 20
51.191499999999998
 30
0.0
 11
37.489400000000003
 21
53.148899999999998
 31
0.0
  0
LINE
  5
321
  8
0
 10
37.489400000000003
 20
55.106400000000001
 30
0.0
 11
37.489400000000003
 21
57.063800000000001
 31
0.0
  0
LINE
  5
322
  8
0
 10
37.489400000000003
 20
45.319099999999992
 30
0.0
 11
37.489400000000003
 21
43.361699999999999
 31
0.0
  0
LINE
  5
323
  8
0
 10
37.489400000000003
 20
49.233999999999988
 30
0.0
 11
37.489400000000003
 21
47.276600000000002
 31
0.0
  0
LINE
  5
324
  8
0
 10
31.61699999999999
 20
57.063800000000001
 30
0.0
 11
33.5745
 21
57.063800000000001
 31
0.0
  0
LINE
  5
325
  8
0
 10
27.702100000000002
 20
57.063800000000001
 30
0.0
 11
29.659600000000001
 21
57.063800000000001
 31
0.0
  0
LINE
  5
326
  8
0
 10
27.702100000000002
 20
57.063800000000001
 30
0.0
 11
29.659600000000001
 21
57.063800000000001
 31
0.0
  0
LINE
  5
327
  8
0
 10
31.61699999999999
 20
57.063800000000001
 30
0.0
 11
33.5745
 21
57.063800000000001
 31
0.0
  0
LINE
  5
328
  8
0
 10
29.659600000000001
 20
59.021299999999989
 30
0.0
 11
29.659600000000001
 21
60.978700000000003
 31
0.0
  0
LINE
  5
329
  8
0
 10
35.5319
 20
57.063800000000001
 30
0.0
 11
37.489400000000003
 21
57.063800000000001
 31
0.0
  0
LINE
  5
32A
  8
0
 10
35.5319
 20
57.063800000000001
 30
0.0
 11
37.489400000000003
 21
57.063800000000001
 31
0.0
  0
LINE
  5
32B
  8
0
 10
33.5745
 20
59.021299999999989
 30
0.0
 11
33.5745
 21
60.978700000000003
 31
0.0
  0
LINE
  5
32C
  8
0
 10
31.61699999999999
 20
60.978700000000003
 30
0.0
 11
33.5745
 21
60.978700000000003
 31
0.0
  0
LINE
  5
32D
  8
0
 10
27.702100000000002
 20
60.978700000000003
 30
0.0
 11
29.659600000000001
 21
60.978700000000003
 31
0.0
  0
LINE
  5
32E
  8
0
 10
27.702100000000002
 20
60.978700000000003
 30
0.0
 11
29.659600000000001
 21
60.978700000000003
 31
0.0
  0
LINE
  5
32F
  8
0
 10
31.61699999999999
 20
60.978700000000003
 30
0.0
 11
33.5745
 21
60.978700000000003
 31
0.0
  0
LINE
  5
330
  8
0
 10
27.702100000000002
 20
64.893600000000006
 30
0.0
 11
29.659600000000001
 21
64.893600000000006
 31
0.0
  0
LINE
  5
331
  8
0
 10
27.702100000000002
 20
64.893600000000006
 30
0.0
 11
29.659600000000001
 21
64.893600000000006
 31
0.0
  0
LINE
  5
332
  8
0
 10
29.659600000000001
 20
62.936199999999999
 30
0.0
 11
29.659600000000001
 21
64.893600000000006
 31
0.0
  0
LINE
  5
333
  8
0
 10
31.61699999999999
 20
64.893600000000006
 30
0.0
 11
33.5745
 21
64.893600000000006
 31
0.0
  0
LINE
  5
334
  8
0
 10
31.61699999999999
 20
64.893600000000006
 30
0.0
 11
33.5745
 21
64.893600000000006
 31
0.0
  0
LINE
  5
335
  8
0
 10
29.659600000000001
 20
64.893600000000006
 30
0.0
 11
29.659600000000001
 21
62.936199999999999
 31
0.0
  0
LINE
  5
336
  8
0
 10
29.659600000000001
 20
60.978700000000003
 30
0.0
 11
29.659600000000001
 21
59.021299999999989
 31
0.0
  0
LINE
  5
337
  8
0
 10
33.5745
 20
62.936199999999999
 30
0.0
 11
33.5745
 21
64.893600000000006
 31
0.0
  0
LINE
  5
338
  8
0
 10
33.5745
 20
64.893600000000006
 30
0.0
 11
33.5745
 21
62.936199999999999
 31
0.0
  0
LINE
  5
339
  8
0
 10
35.5319
 20
60.978700000000003
 30
0.0
 11
37.489400000000003
 21
60.978700000000003
 31
0.0
  0
LINE
  5
33A
  8
0
 10
35.5319
 20
64.893600000000006
 30
0.0
 11
37.489400000000003
 21
64.893600000000006
 31
0.0
  0
LINE
  5
33B
  8
0
 10
35.5319
 20
64.893600000000006
 30
0.0
 11
37.489400000000003
 21
64.893600000000006
 31
0.0
  0
LINE
  5
33C
  8
0
 10
35.5319
 20
60.978700000000003
 30
0.0
 11
37.489400000000003
 21
60.978700000000003
 31
0.0
  0
LINE
  5
33D
  8
0
 10
33.5745
 20
60.978700000000003
 30
0.0
 11
33.5745
 21
59.021299999999989
 31
0.0
  0
LINE
  5
33E
  8
0
 10
37.489400000000003
 20
59.021299999999989
 30
0.0
 11
37.489400000000003
 21
60.978700000000003
 31
0.0
  0
LINE
  5
33F
  8
0
 10
37.489400000000003
 20
62.936199999999999
 30
0.0
 11
37.489400000000003
 21
64.893600000000006
 31
0.0
  0
LINE
  5
340
  8
0
 10
37.489400000000003
 20
57.063800000000001
 30
0.0
 11
37.489400000000003
 21
55.106400000000001
 31
0.0
  0
LINE
  5
341
  8
0
 10
37.489400000000003
 20
53.148899999999998
 30
0.0
 11
37.489400000000003
 21
51.191499999999998
 31
0.0
  0
LINE
  5
342
  8
0
 10
27.702100000000002
 20
68.808499999999995
 30
0.0
 11
29.659600000000001
 21
68.808499999999995
 31
0.0
  0
LINE
  5
343
  8
0
 10
27.702100000000002
 20
68.808499999999995
 30
0.0
 11
29.659600000000001
 21
68.808499999999995
 31
0.0
  0
LINE
  5
344
  8
0
 10
31.61699999999999
 20
68.808499999999995
 30
0.0
 11
33.5745
 21
68.808499999999995
 31
0.0
  0
LINE
  5
345
  8
0
 10
31.61699999999999
 20
68.808499999999995
 30
0.0
 11
33.5745
 21
68.808499999999995
 31
0.0
  0
LINE
  5
346
  8
0
 10
29.659600000000001
 20
66.851100000000002
 30
0.0
 11
29.659600000000001
 21
68.808499999999995
 31
0.0
  0
LINE
  5
347
  8
0
 10
29.659600000000001
 20
68.808499999999995
 30
0.0
 11
29.659600000000001
 21
66.851100000000002
 31
0.0
  0
LINE
  5
348
  8
0
 10
35.5319
 20
68.808499999999995
 30
0.0
 11
37.489400000000003
 21
68.808499999999995
 31
0.0
  0
LINE
  5
349
  8
0
 10
35.5319
 20
68.808499999999995
 30
0.0
 11
37.489400000000003
 21
68.808499999999995
 31
0.0
  0
LINE
  5
34A
  8
0
 10
33.5745
 20
66.851100000000002
 30
0.0
 11
33.5745
 21
68.808499999999995
 31
0.0
  0
LINE
  5
34B
  8
0
 10
33.5745
 20
68.808499999999995
 30
0.0
 11
33.5745
 21
66.851100000000002
 31
0.0
  0
LINE
  5
34C
  8
0
 10
37.489400000000003
 20
66.851100000000002
 30
0.0
 11
37.489400000000003
 21
68.808499999999995
 31
0.0
  0
LINE
  5
34D
  8
0
 10
29.659600000000001
 20
70.766000000000005
 30
0.0
 11
29.659600000000001
 21
72.723399999999984
 31
0.0
  0
LINE
  5
34E
  8
0
 10
33.5745
 20
70.766000000000005
 30
0.0
 11
33.5745
 21
72.723399999999984
 31
0.0
  0
LINE
  5
34F
  8
0
 10
31.61699999999999
 20
72.723399999999984
 30
0.0
 11
33.5745
 21
72.723399999999984
 31
0.0
  0
LINE
  5
350
  8
0
 10
27.702100000000002
 20
72.723399999999984
 30
0.0
 11
29.659600000000001
 21
72.723399999999984
 31
0.0
  0
LINE
  5
351
  8
0
 10
27.702100000000002
 20
72.723399999999984
 30
0.0
 11
29.659600000000001
 21
72.723399999999984
 31
0.0
  0
LINE
  5
352
  8
0
 10
31.61699999999999
 20
72.723399999999984
 30
0.0
 11
33.5745
 21
72.723399999999984
 31
0.0
  0
LINE
  5
353
  8
0
 10
27.702100000000002
 20
76.638300000000001
 30
0.0
 11
29.659600000000001
 21
76.638300000000001
 31
0.0
  0
LINE
  5
354
  8
0
 10
27.702100000000002
 20
76.638300000000001
 30
0.0
 11
29.659600000000001
 21
76.638300000000001
 31
0.0
  0
LINE
  5
355
  8
0
 10
29.659600000000001
 20
74.680899999999994
 30
0.0
 11
29.659600000000001
 21
76.638300000000001
 31
0.0
  0
LINE
  5
356
  8
0
 10
31.61699999999999
 20
76.638300000000001
 30
0.0
 11
33.5745
 21
76.638300000000001
 31
0.0
  0
LINE
  5
357
  8
0
 10
31.61699999999999
 20
76.638300000000001
 30
0.0
 11
33.5745
 21
76.638300000000001
 31
0.0
  0
LINE
  5
358
  8
0
 10
29.659600000000001
 20
76.638300000000001
 30
0.0
 11
29.659600000000001
 21
74.680899999999994
 31
0.0
  0
LINE
  5
359
  8
0
 10
29.659600000000001
 20
72.723399999999984
 30
0.0
 11
29.659600000000001
 21
70.766000000000005
 31
0.0
  0
LINE
  5
35A
  8
0
 10
33.5745
 20
74.680899999999994
 30
0.0
 11
33.5745
 21
76.638300000000001
 31
0.0
  0
LINE
  5
35B
  8
0
 10
33.5745
 20
76.638300000000001
 30
0.0
 11
33.5745
 21
74.680899999999994
 31
0.0
  0
LINE
  5
35C
  8
0
 10
35.5319
 20
72.723399999999984
 30
0.0
 11
37.489400000000003
 21
72.723399999999984
 31
0.0
  0
LINE
  5
35D
  8
0
 10
35.5319
 20
76.638300000000001
 30
0.0
 11
37.489400000000003
 21
76.638300000000001
 31
0.0
  0
LINE
  5
35E
  8
0
 10
35.5319
 20
76.638300000000001
 30
0.0
 11
37.489400000000003
 21
76.638300000000001
 31
0.0
  0
LINE
  5
35F
  8
0
 10
35.5319
 20
72.723399999999984
 30
0.0
 11
37.489400000000003
 21
72.723399999999984
 31
0.0
  0
LINE
  5
360
  8
0
 10
33.5745
 20
72.723399999999984
 30
0.0
 11
33.5745
 21
70.766000000000005
 31
0.0
  0
LINE
  5
361
  8
0
 10
37.489400000000003
 20
70.766000000000005
 30
0.0
 11
37.489400000000003
 21
72.723399999999984
 31
0.0
  0
LINE
  5
362
  8
0
 10
37.489400000000003
 20
74.680899999999994
 30
0.0
 11
37.489400000000003
 21
76.638300000000001
 31
0.0
  0
LINE
  5
363
  8
0
 10
27.702100000000002
 20
80.553200000000004
 30
0.0
 11
29.659600000000001
 21
80.553200000000004
 31
0.0
  0
LINE
  5
364
  8
0
 10
27.702100000000002
 20
80.553200000000004
 30
0.0
 11
29.659600000000001
 21
80.553200000000004
 31
0.0
  0
LINE
  5
365
  8
0
 10
31.61699999999999
 20
80.553200000000004
 30
0.0
 11
33.5745
 21
80.553200000000004
 31
0.0
  0
LINE
  5
366
  8
0
 10
31.61699999999999
 20
80.553200000000004
 30
0.0
 11
33.5745
 21
80.553200000000004
 31
0.0
  0
LINE
  5
367
  8
0
 10
29.659600000000001
 20
78.595699999999994
 30
0.0
 11
29.659600000000001
 21
80.553200000000004
 31
0.0
  0
LINE
  5
368
  8
0
 10
29.659600000000001
 20
80.553200000000004
 30
0.0
 11
29.659600000000001
 21
78.595699999999994
 31
0.0
  0
LINE
  5
369
  8
0
 10
35.5319
 20
80.553200000000004
 30
0.0
 11
37.489400000000003
 21
80.553200000000004
 31
0.0
  0
LINE
  5
36A
  8
0
 10
35.5319
 20
80.553200000000004
 30
0.0
 11
37.489400000000003
 21
80.553200000000004
 31
0.0
  0
LINE
  5
36B
  8
0
 10
33.5745
 20
78.595699999999994
 30
0.0
 11
33.5745
 21
80.553200000000004
 31
0.0
  0
LINE
  5
36C
  8
0
 10
29.659600000000001
 20
82.510599999999997
 30
0.0
 11
29.659600000000001
 21
84.468100000000007
 31
0.0
  0
LINE
  5
36D
  8
0
 10
33.5745
 20
82.510599999999997
 30
0.0
 11
33.5745
 21
84.468100000000007
 31
0.0
  0
LINE
  5
36E
  8
0
 10
33.5745
 20
80.553200000000004
 30
0.0
 11
33.5745
 21
78.595699999999994
 31
0.0
  0
LINE
  5
36F
  8
0
 10
37.489400000000003
 20
78.595699999999994
 30
0.0
 11
37.489400000000003
 21
80.553200000000004
 31
0.0
  0
LINE
  5
370
  8
0
 10
31.61699999999999
 20
84.468100000000007
 30
0.0
 11
33.5745
 21
84.468100000000007
 31
0.0
  0
LINE
  5
371
  8
0
 10
27.702100000000002
 20
84.468100000000007
 30
0.0
 11
29.659600000000001
 21
84.468100000000007
 31
0.0
  0
LINE
  5
372
  8
0
 10
27.702100000000002
 20
84.468100000000007
 30
0.0
 11
29.659600000000001
 21
84.468100000000007
 31
0.0
  0
LINE
  5
373
  8
0
 10
31.61699999999999
 20
84.468100000000007
 30
0.0
 11
33.5745
 21
84.468100000000007
 31
0.0
  0
LINE
  5
374
  8
0
 10
27.702100000000002
 20
88.382999999999996
 30
0.0
 11
29.659600000000001
 21
88.382999999999996
 31
0.0
  0
LINE
  5
375
  8
0
 10
27.702100000000002
 20
88.382999999999996
 30
0.0
 11
29.659600000000001
 21
88.382999999999996
 31
0.0
  0
LINE
  5
376
  8
0
 10
29.659600000000001
 20
86.425499999999985
 30
0.0
 11
29.659600000000001
 21
88.382999999999996
 31
0.0
  0
LINE
  5
377
  8
0
 10
31.61699999999999
 20
88.382999999999996
 30
0.0
 11
33.5745
 21
88.382999999999996
 31
0.0
  0
LINE
  5
378
  8
0
 10
31.61699999999999
 20
88.382999999999996
 30
0.0
 11
33.5745
 21
88.382999999999996
 31
0.0
  0
LINE
  5
379
  8
0
 10
29.659600000000001
 20
88.382999999999996
 30
0.0
 11
29.659600000000001
 21
86.425499999999985
 31
0.0
  0
LINE
  5
37A
  8
0
 10
29.659600000000001
 20
84.468100000000007
 30
0.0
 11
29.659600000000001
 21
82.510599999999997
 31
0.0
  0
LINE
  5
37B
  8
0
 10
33.5745
 20
86.425499999999985
 30
0.0
 11
33.5745
 21
88.382999999999996
 31
0.0
  0
LINE
  5
37C
  8
0
 10
33.5745
 20
88.382999999999996
 30
0.0
 11
33.5745
 21
86.425499999999985
 31
0.0
  0
LINE
  5
37D
  8
0
 10
35.5319
 20
84.468100000000007
 30
0.0
 11
37.489400000000003
 21
84.468100000000007
 31
0.0
  0
LINE
  5
37E
  8
0
 10
35.5319
 20
88.382999999999996
 30
0.0
 11
37.489400000000003
 21
88.382999999999996
 31
0.0
  0
LINE
  5
37F
  8
0
 10
35.5319
 20
88.382999999999996
 30
0.0
 11
37.489400000000003
 21
88.382999999999996
 31
0.0
  0
LINE
  5
380
  8
0
 10
35.5319
 20
84.468100000000007
 30
0.0
 11
37.489400000000003
 21
84.468100000000007
 31
0.0
  0
LINE
  5
381
  8
0
 10
33.5745
 20
84.468100000000007
 30
0.0
 11
33.5745
 21
82.510599999999997
 31
0.0
  0
LINE
  5
382
  8
0
 10
37.489400000000003
 20
82.510599999999997
 30
0.0
 11
37.489400000000003
 21
84.468100000000007
 31
0.0
  0
LINE
  5
383
  8
0
 10
37.489400000000003
 20
86.425499999999985
 30
0.0
 11
37.489400000000003
 21
88.382999999999996
 31
0.0
  0
LINE
  5
384
  8
0
 10
37.489400000000003
 20
76.638300000000001
 30
0.0
 11
37.489400000000003
 21
74.680899999999994
 31
0.0
  0
LINE
  5
385
  8
0
 10
37.489400000000003
 20
80.553200000000004
 30
0.0
 11
37.489400000000003
 21
78.595699999999994
 31
0.0
  0
LINE
  5
386
  8
0
 10
29.659600000000001
 20
90.340400000000002
 30
0.0
 11
29.659600000000001
 21
92.297899999999984
 31
0.0
  0
LINE
  5
387
  8
0
 10
33.5745
 20
90.340400000000002
 30
0.0
 11
33.5745
 21
92.297899999999984
 31
0.0
  0
LINE
  5
388
  8
0
 10
31.61699999999999
 20
92.297899999999984
 30
0.0
 11
33.5745
 21
92.297899999999984
 31
0.0
  0
LINE
  5
389
  8
0
 10
27.702100000000002
 20
92.297899999999984
 30
0.0
 11
29.659600000000001
 21
92.297899999999984
 31
0.0
  0
LINE
  5
38A
  8
0
 10
27.702100000000002
 20
92.297899999999984
 30
0.0
 11
29.659600000000001
 21
92.297899999999984
 31
0.0
  0
LINE
  5
38B
  8
0
 10
31.61699999999999
 20
92.297899999999984
 30
0.0
 11
33.5745
 21
92.297899999999984
 31
0.0
  0
LINE
  5
38C
  8
0
 10
27.702100000000002
 20
96.212800000000001
 30
0.0
 11
29.659600000000001
 21
96.212800000000001
 31
0.0
  0
LINE
  5
38D
  8
0
 10
27.702100000000002
 20
96.212800000000001
 30
0.0
 11
29.659600000000001
 21
96.212800000000001
 31
0.0
  0
LINE
  5
38E
  8
0
 10
29.659600000000001
 20
94.255300000000005
 30
0.0
 11
29.659600000000001
 21
96.212800000000001
 31
0.0
  0
LINE
  5
38F
  8
0
 10
31.61699999999999
 20
96.212800000000001
 30
0.0
 11
33.5745
 21
96.212800000000001
 31
0.0
  0
LINE
  5
390
  8
0
 10
31.61699999999999
 20
96.212800000000001
 30
0.0
 11
33.5745
 21
96.212800000000001
 31
0.0
  0
LINE
  5
391
  8
0
 10
29.659600000000001
 20
96.212800000000001
 30
0.0
 11
29.659600000000001
 21
94.255300000000005
 31
0.0
  0
LINE
  5
392
  8
0
 10
29.659600000000001
 20
92.297899999999984
 30
0.0
 11
29.659600000000001
 21
90.340400000000002
 31
0.0
  0
LINE
  5
393
  8
0
 10
33.5745
 20
94.255300000000005
 30
0.0
 11
33.5745
 21
96.212800000000001
 31
0.0
  0
LINE
  5
394
  8
0
 10
33.5745
 20
96.212800000000001
 30
0.0
 11
33.5745
 21
94.255300000000005
 31
0.0
  0
LINE
  5
395
  8
0
 10
35.5319
 20
92.297899999999984
 30
0.0
 11
37.489400000000003
 21
92.297899999999984
 31
0.0
  0
LINE
  5
396
  8
0
 10
35.5319
 20
96.212800000000001
 30
0.0
 11
37.489400000000003
 21
96.212800000000001
 31
0.0
  0
LINE
  5
397
  8
0
 10
35.5319
 20
96.212800000000001
 30
0.0
 11
37.489400000000003
 21
96.212800000000001
 31
0.0
  0
LINE
  5
398
  8
0
 10
35.5319
 20
92.297899999999984
 30
0.0
 11
37.489400000000003
 21
92.297899999999984
 31
0.0
  0
LINE
  5
399
  8
0
 10
33.5745
 20
92.297899999999984
 30
0.0
 11
33.5745
 21
90.340400000000002
 31
0.0
  0
LINE
  5
39A
  8
0
 10
37.489400000000003
 20
90.340400000000002
 30
0.0
 11
37.489400000000003
 21
92.297899999999984
 31
0.0
  0
LINE
  5
39B
  8
0
 10
37.489400000000003
 20
94.255300000000005
 30
0.0
 11
37.489400000000003
 21
96.212800000000001
 31
0.0
  0
LINE
  5
39C
  8
0
 10
37.489400000000003
 20
88.382999999999996
 30
0.0
 11
37.489400000000003
 21
86.425499999999985
 31
0.0
  0
LINE
  5
39D
  8
0
 10
37.489400000000003
 20
84.468100000000007
 30
0.0
 11
37.489400000000003
 21
82.510599999999997
 31
0.0
  0
LINE
  5
39E
  8
0
 10
27.702100000000002
 20
100.1279999999999
 30
0.0
 11
29.659600000000001
 21
100.1279999999999
 31
0.0
  0
LINE
  5
39F
  8
0
 10
27.702100000000002
 20
100.1279999999999
 30
0.0
 11
29.659600000000001
 21
100.1279999999999
 31
0.0
  0
LINE
  5
3A0
  8
0
 10
31.61699999999999
 20
100.1279999999999
 30
0.0
 11
33.5745
 21
100.1279999999999
 31
0.0
  0
LINE
  5
3A1
  8
0
 10
31.61699999999999
 20
100.1279999999999
 30
0.0
 11
33.5745
 21
100.1279999999999
 31
0.0
  0
LINE
  5
3A2
  8
0
 10
29.659600000000001
 20
98.170199999999994
 30
0.0
 11
29.659600000000001
 21
100.1279999999999
 31
0.0
  0
LINE
  5
3A3
  8
0
 10
29.659600000000001
 20
100.1279999999999
 30
0.0
 11
29.659600000000001
 21
98.170199999999994
 31
0.0
  0
LINE
  5
3A4
  8
0
 10
35.5319
 20
100.1279999999999
 30
0.0
 11
37.489400000000003
 21
100.1279999999999
 31
0.0
  0
LINE
  5
3A5
  8
0
 10
35.5319
 20
100.1279999999999
 30
0.0
 11
37.489400000000003
 21
100.1279999999999
 31
0.0
  0
LINE
  5
3A6
  8
0
 10
33.5745
 20
98.170199999999994
 30
0.0
 11
33.5745
 21
100.1279999999999
 31
0.0
  0
LINE
  5
3A7
  8
0
 10
33.5745
 20
100.1279999999999
 30
0.0
 11
33.5745
 21
98.170199999999994
 31
0.0
  0
LINE
  5
3A8
  8
0
 10
37.489400000000003
 20
98.170199999999994
 30
0.0
 11
37.489400000000003
 21
100.1279999999999
 31
0.0
  0
LINE
  5
3A9
  8
0
 10
29.659600000000001
 20
102.08499999999999
 30
0.0
 11
29.659600000000001
 21
104.04299999999991
 31
0.0
  0
LINE
  5
3AA
  8
0
 10
33.5745
 20
102.08499999999999
 30
0.0
 11
33.5745
 21
104.04299999999991
 31
0.0
  0
LINE
  5
3AB
  8
0
 10
27.702100000000002
 20
104.04299999999991
 30
0.0
 11
29.659600000000001
 21
104.04299999999991
 31
0.0
  0
LINE
  5
3AC
  8
0
 10
27.702100000000002
 20
104.04299999999991
 30
0.0
 11
29.659600000000001
 21
104.04299999999991
 31
0.0
  0
LINE
  5
3AD
  8
0
 10
31.61699999999999
 20
104.04299999999991
 30
0.0
 11
33.5745
 21
104.04299999999991
 31
0.0
  0
LINE
  5
3AE
  8
0
 10
31.61699999999999
 20
104.04299999999991
 30
0.0
 11
33.5745
 21
104.04299999999991
 31
0.0
  0
LINE
  5
3AF
  8
0
 10
29.659600000000001
 20
104.04299999999991
 30
0.0
 11
29.659600000000001
 21
102.08499999999999
 31
0.0
  0
LINE
  5
3B0
  8
0
 10
31.61699999999999
 20
108.0
 30
0.0
 11
31.61699999999999
 21
12.0
 31
0.0
  0
LINE
  5
3B1
  8
0
 10
29.659600000000001
 20
106.0
 30
0.0
 11
29.659600000000001
 21
108.0
 31
0.0
  0
LINE
  5
3B2
  8
0
 10
29.659600000000001
 20
108.0
 30
0.0
 11
29.659600000000001
 21
106.0
 31
0.0
  0
LINE
  5
3B3
  8
0
 10
29.659600000000001
 20
108.0
 30
0.0
 11
31.61699999999999
 21
108.0
 31
0.0
  0
LINE
  5
3B4
  8
0
 10
29.659600000000001
 20
108.0
 30
0.0
 11
29.659600000000001
 21
12.0
 31
0.0
  0
LINE
  5
3B5
  8
0
 10
33.5745
 20
106.0
 30
0.0
 11
33.5745
 21
108.0
 31
0.0
  0
LINE
  5
3B6
  8
0
 10
33.5745
 20
104.04299999999991
 30
0.0
 11
33.5745
 21
102.08499999999999
 31
0.0
  0
LINE
  5
3B7
  8
0
 10
35.5319
 20
104.04299999999991
 30
0.0
 11
37.489400000000003
 21
104.04299999999991
 31
0.0
  0
LINE
  5
3B8
  8
0
 10
35.5319
 20
104.04299999999991
 30
0.0
 11
37.489400000000003
 21
104.04299999999991
 31
0.0
  0
LINE
  5
3B9
  8
0
 10
35.5319
 20
108.0
 30
0.0
 11
35.5319
 21
12.0
 31
0.0
  0
LINE
  5
3BA
  8
0
 10
33.5745
 20
108.0
 30
0.0
 11
33.5745
 21
106.0
 31
0.0
  0
LINE
  5
3BB
  8
0
 10
33.5745
 20
108.0
 30
0.0
 11
35.5319
 21
108.0
 31
0.0
  0
LINE
  5
3BC
  8
0
 10
33.5745
 20
108.0
 30
0.0
 11
33.5745
 21
12.0
 31
0.0
  0
LINE
  5
3BD
  8
0
 10
37.489400000000003
 20
102.08499999999999
 30
0.0
 11
37.489400000000003
 21
104.04299999999991
 31
0.0
  0
LINE
  5
3BE
  8
0
 10
37.489400000000003
 20
106.0
 30
0.0
 11
37.489400000000003
 21
108.0
 31
0.0
  0
LINE
  5
3BF
  8
0
 10
37.489400000000003
 20
100.1279999999999
 30
0.0
 11
37.489400000000003
 21
98.170199999999994
 31
0.0
  0
LINE
  5
3C0
  8
0
 10
37.489400000000003
 20
104.04299999999991
 30
0.0
 11
37.489400000000003
 21
102.08499999999999
 31
0.0
  0
LINE
  5
3C1
  8
0
 10
37.489400000000003
 20
96.212800000000001
 30
0.0
 11
37.489400000000003
 21
94.255300000000005
 31
0.0
  0
LINE
  5
3C2
  8
0
 10
37.489400000000003
 20
92.297899999999984
 30
0.0
 11
37.489400000000003
 21
90.340400000000002
 31
0.0
  0
LINE
  5
3C3
  8
0
 10
37.489400000000003
 20
68.808499999999995
 30
0.0
 11
37.489400000000003
 21
66.851100000000002
 31
0.0
  0
LINE
  5
3C4
  8
0
 10
37.489400000000003
 20
72.723399999999984
 30
0.0
 11
37.489400000000003
 21
70.766000000000005
 31
0.0
  0
LINE
  5
3C5
  8
0
 10
37.489400000000003
 20
64.893600000000006
 30
0.0
 11
37.489400000000003
 21
62.936199999999999
 31
0.0
  0
LINE
  5
3C6
  8
0
 10
37.489400000000003
 20
60.978700000000003
 30
0.0
 11
37.489400000000003
 21
59.021299999999989
 31
0.0
  0
LINE
  5
3C7
  8
0
 10
37.489400000000003
 20
41.404299999999999
 30
0.0
 11
37.489400000000003
 21
39.446800000000003
 31
0.0
  0
LINE
  5
3C8
  8
0
 10
37.489400000000003
 20
37.489400000000003
 30
0.0
 11
37.489400000000003
 21
35.5319
 31
0.0
  0
LINE
  5
3C9
  8
0
 10
37.489400000000003
 20
25.744700000000002
 30
0.0
 11
37.489400000000003
 21
23.787199999999991
 31
0.0
  0
LINE
  5
3CA
  8
0
 10
37.489400000000003
 20
17.914899999999999
 30
0.0
 11
37.489400000000003
 21
15.9574
 31
0.0
  0
LINE
  5
3CB
  8
0
 10
37.489400000000003
 20
14.0
 30
0.0
 11
37.489400000000003
 21
12.0
 31
0.0
  0
LINE
  5
3CC
  8
0
 10
39.446800000000003
 20
14.0
 30
0.0
 11
41.404299999999999
 21
14.0
 31
0.0
  0
LINE
  5
3CD
  8
0
 10
39.446800000000003
 20
14.0
 30
0.0
 11
41.404299999999999
 21
14.0
 31
0.0
  0
LINE
  5
3CE
  8
0
 10
39.446800000000003
 20
21.829799999999999
 30
0.0
 11
41.404299999999999
 21
21.829799999999999
 31
0.0
  0
LINE
  5
3CF
  8
0
 10
39.446800000000003
 20
21.829799999999999
 30
0.0
 11
41.404299999999999
 21
21.829799999999999
 31
0.0
  0
LINE
  5
3D0
  8
0
 10
39.446800000000003
 20
17.914899999999999
 30
0.0
 11
41.404299999999999
 21
17.914899999999999
 31
0.0
  0
LINE
  5
3D1
  8
0
 10
39.446800000000003
 20
17.914899999999999
 30
0.0
 11
41.404299999999999
 21
17.914899999999999
 31
0.0
  0
LINE
  5
3D2
  8
0
 10
39.446800000000003
 20
25.744700000000002
 30
0.0
 11
41.404299999999999
 21
25.744700000000002
 31
0.0
  0
LINE
  5
3D3
  8
0
 10
39.446800000000003
 20
25.744700000000002
 30
0.0
 11
41.404299999999999
 21
25.744700000000002
 31
0.0
  0
LINE
  5
3D4
  8
0
 10
41.404299999999999
 20
23.787199999999991
 30
0.0
 11
41.404299999999999
 21
25.744700000000002
 31
0.0
  0
LINE
  5
3D5
  8
0
 10
41.404299999999999
 20
19.872299999999999
 30
0.0
 11
41.404299999999999
 21
21.829799999999999
 31
0.0
  0
LINE
  5
3D6
  8
0
 10
41.404299999999999
 20
15.9574
 30
0.0
 11
41.404299999999999
 21
17.914899999999999
 31
0.0
  0
LINE
  5
3D7
  8
0
 10
41.404299999999999
 20
21.829799999999999
 30
0.0
 11
41.404299999999999
 21
19.872299999999999
 31
0.0
  0
LINE
  5
3D8
  8
0
 10
39.446800000000003
 20
29.659600000000001
 30
0.0
 11
41.404299999999999
 21
29.659600000000001
 31
0.0
  0
LINE
  5
3D9
  8
0
 10
39.446800000000003
 20
29.659600000000001
 30
0.0
 11
41.404299999999999
 21
29.659600000000001
 31
0.0
  0
LINE
  5
3DA
  8
0
 10
41.404299999999999
 20
27.702100000000002
 30
0.0
 11
41.404299999999999
 21
29.659600000000001
 31
0.0
  0
LINE
  5
3DB
  8
0
 10
39.446800000000003
 20
33.5745
 30
0.0
 11
41.404299999999999
 21
33.5745
 31
0.0
  0
LINE
  5
3DC
  8
0
 10
39.446800000000003
 20
33.5745
 30
0.0
 11
41.404299999999999
 21
33.5745
 31
0.0
  0
LINE
  5
3DD
  8
0
 10
41.404299999999999
 20
31.61699999999999
 30
0.0
 11
41.404299999999999
 21
33.5745
 31
0.0
  0
LINE
  5
3DE
  8
0
 10
39.446800000000003
 20
41.404299999999999
 30
0.0
 11
41.404299999999999
 21
41.404299999999999
 31
0.0
  0
LINE
  5
3DF
  8
0
 10
39.446800000000003
 20
41.404299999999999
 30
0.0
 11
41.404299999999999
 21
41.404299999999999
 31
0.0
  0
LINE
  5
3E0
  8
0
 10
39.446800000000003
 20
37.489400000000003
 30
0.0
 11
41.404299999999999
 21
37.489400000000003
 31
0.0
  0
LINE
  5
3E1
  8
0
 10
39.446800000000003
 20
37.489400000000003
 30
0.0
 11
41.404299999999999
 21
37.489400000000003
 31
0.0
  0
LINE
  5
3E2
  8
0
 10
41.404299999999999
 20
35.5319
 30
0.0
 11
41.404299999999999
 21
37.489400000000003
 31
0.0
  0
LINE
  5
3E3
  8
0
 10
41.404299999999999
 20
39.446800000000003
 30
0.0
 11
41.404299999999999
 21
41.404299999999999
 31
0.0
  0
LINE
  5
3E4
  8
0
 10
41.404299999999999
 20
29.659600000000001
 30
0.0
 11
41.404299999999999
 21
27.702100000000002
 31
0.0
  0
LINE
  5
3E5
  8
0
 10
41.404299999999999
 20
33.5745
 30
0.0
 11
41.404299999999999
 21
31.61699999999999
 31
0.0
  0
LINE
  5
3E6
  8
0
 10
41.404299999999999
 20
43.361699999999999
 30
0.0
 11
41.404299999999999
 21
45.319099999999992
 31
0.0
  0
LINE
  5
3E7
  8
0
 10
39.446800000000003
 20
45.319099999999992
 30
0.0
 11
41.404299999999999
 21
45.319099999999992
 31
0.0
  0
LINE
  5
3E8
  8
0
 10
39.446800000000003
 20
45.319099999999992
 30
0.0
 11
41.404299999999999
 21
45.319099999999992
 31
0.0
  0
LINE
  5
3E9
  8
0
 10
39.446800000000003
 20
49.233999999999988
 30
0.0
 11
41.404299999999999
 21
49.233999999999988
 31
0.0
  0
LINE
  5
3EA
  8
0
 10
39.446800000000003
 20
49.233999999999988
 30
0.0
 11
41.404299999999999
 21
49.233999999999988
 31
0.0
  0
LINE
  5
3EB
  8
0
 10
41.404299999999999
 20
47.276600000000002
 30
0.0
 11
41.404299999999999
 21
49.233999999999988
 31
0.0
  0
LINE
  5
3EC
  8
0
 10
39.446800000000003
 20
53.148899999999998
 30
0.0
 11
41.404299999999999
 21
53.148899999999998
 31
0.0
  0
LINE
  5
3ED
  8
0
 10
39.446800000000003
 20
53.148899999999998
 30
0.0
 11
41.404299999999999
 21
53.148899999999998
 31
0.0
  0
LINE
  5
3EE
  8
0
 10
41.404299999999999
 20
51.191499999999998
 30
0.0
 11
41.404299999999999
 21
53.148899999999998
 31
0.0
  0
LINE
  5
3EF
  8
0
 10
41.404299999999999
 20
55.106400000000001
 30
0.0
 11
41.404299999999999
 21
57.063800000000001
 31
0.0
  0
LINE
  5
3F0
  8
0
 10
41.404299999999999
 20
45.319099999999992
 30
0.0
 11
41.404299999999999
 21
43.361699999999999
 31
0.0
  0
LINE
  5
3F1
  8
0
 10
41.404299999999999
 20
49.233999999999988
 30
0.0
 11
41.404299999999999
 21
47.276600000000002
 31
0.0
  0
LINE
  5
3F2
  8
0
 10
39.446800000000003
 20
57.063800000000001
 30
0.0
 11
41.404299999999999
 21
57.063800000000001
 31
0.0
  0
LINE
  5
3F3
  8
0
 10
39.446800000000003
 20
57.063800000000001
 30
0.0
 11
41.404299999999999
 21
57.063800000000001
 31
0.0
  0
LINE
  5
3F4
  8
0
 10
39.446800000000003
 20
64.893600000000006
 30
0.0
 11
41.404299999999999
 21
64.893600000000006
 31
0.0
  0
LINE
  5
3F5
  8
0
 10
39.446800000000003
 20
64.893600000000006
 30
0.0
 11
41.404299999999999
 21
64.893600000000006
 31
0.0
  0
LINE
  5
3F6
  8
0
 10
39.446800000000003
 20
60.978700000000003
 30
0.0
 11
41.404299999999999
 21
60.978700000000003
 31
0.0
  0
LINE
  5
3F7
  8
0
 10
39.446800000000003
 20
60.978700000000003
 30
0.0
 11
41.404299999999999
 21
60.978700000000003
 31
0.0
  0
LINE
  5
3F8
  8
0
 10
41.404299999999999
 20
59.021299999999989
 30
0.0
 11
41.404299999999999
 21
60.978700000000003
 31
0.0
  0
LINE
  5
3F9
  8
0
 10
41.404299999999999
 20
62.936199999999999
 30
0.0
 11
41.404299999999999
 21
64.893600000000006
 31
0.0
  0
LINE
  5
3FA
  8
0
 10
41.404299999999999
 20
57.063800000000001
 30
0.0
 11
41.404299999999999
 21
55.106400000000001
 31
0.0
  0
LINE
  5
3FB
  8
0
 10
41.404299999999999
 20
53.148899999999998
 30
0.0
 11
41.404299999999999
 21
51.191499999999998
 31
0.0
  0
LINE
  5
3FC
  8
0
 10
39.446800000000003
 20
68.808499999999995
 30
0.0
 11
41.404299999999999
 21
68.808499999999995
 31
0.0
  0
LINE
  5
3FD
  8
0
 10
39.446800000000003
 20
68.808499999999995
 30
0.0
 11
41.404299999999999
 21
68.808499999999995
 31
0.0
  0
LINE
  5
3FE
  8
0
 10
41.404299999999999
 20
66.851100000000002
 30
0.0
 11
41.404299999999999
 21
68.808499999999995
 31
0.0
  0
LINE
  5
3FF
  8
0
 10
39.446800000000003
 20
76.638300000000001
 30
0.0
 11
41.404299999999999
 21
76.638300000000001
 31
0.0
  0
LINE
  5
400
  8
0
 10
39.446800000000003
 20
76.638300000000001
 30
0.0
 11
41.404299999999999
 21
76.638300000000001
 31
0.0
  0
LINE
  5
401
  8
0
 10
39.446800000000003
 20
72.723399999999984
 30
0.0
 11
41.404299999999999
 21
72.723399999999984
 31
0.0
  0
LINE
  5
402
  8
0
 10
39.446800000000003
 20
72.723399999999984
 30
0.0
 11
41.404299999999999
 21
72.723399999999984
 31
0.0
  0
LINE
  5
403
  8
0
 10
41.404299999999999
 20
70.766000000000005
 30
0.0
 11
41.404299999999999
 21
72.723399999999984
 31
0.0
  0
LINE
  5
404
  8
0
 10
41.404299999999999
 20
74.680899999999994
 30
0.0
 11
41.404299999999999
 21
76.638300000000001
 31
0.0
  0
LINE
  5
405
  8
0
 10
39.446800000000003
 20
80.553200000000004
 30
0.0
 11
41.404299999999999
 21
80.553200000000004
 31
0.0
  0
LINE
  5
406
  8
0
 10
39.446800000000003
 20
80.553200000000004
 30
0.0
 11
41.404299999999999
 21
80.553200000000004
 31
0.0
  0
LINE
  5
407
  8
0
 10
41.404299999999999
 20
78.595699999999994
 30
0.0
 11
41.404299999999999
 21
80.553200000000004
 31
0.0
  0
LINE
  5
408
  8
0
 10
39.446800000000003
 20
88.382999999999996
 30
0.0
 11
41.404299999999999
 21
88.382999999999996
 31
0.0
  0
LINE
  5
409
  8
0
 10
39.446800000000003
 20
88.382999999999996
 30
0.0
 11
41.404299999999999
 21
88.382999999999996
 31
0.0
  0
LINE
  5
40A
  8
0
 10
39.446800000000003
 20
84.468100000000007
 30
0.0
 11
41.404299999999999
 21
84.468100000000007
 31
0.0
  0
LINE
  5
40B
  8
0
 10
39.446800000000003
 20
84.468100000000007
 30
0.0
 11
41.404299999999999
 21
84.468100000000007
 31
0.0
  0
LINE
  5
40C
  8
0
 10
41.404299999999999
 20
82.510599999999997
 30
0.0
 11
41.404299999999999
 21
84.468100000000007
 31
0.0
  0
LINE
  5
40D
  8
0
 10
41.404299999999999
 20
86.425499999999985
 30
0.0
 11
41.404299999999999
 21
88.382999999999996
 31
0.0
  0
LINE
  5
40E
  8
0
 10
41.404299999999999
 20
76.638300000000001
 30
0.0
 11
41.404299999999999
 21
74.680899999999994
 31
0.0
  0
LINE
  5
40F
  8
0
 10
41.404299999999999
 20
80.553200000000004
 30
0.0
 11
41.404299999999999
 21
78.595699999999994
 31
0.0
  0
LINE
  5
410
  8
0
 10
39.446800000000003
 20
96.212800000000001
 30
0.0
 11
41.404299999999999
 21
96.212800000000001
 31
0.0
  0
LINE
  5
411
  8
0
 10
39.446800000000003
 20
96.212800000000001
 30
0.0
 11
41.404299999999999
 21
96.212800000000001
 31
0.0
  0
LINE
  5
412
  8
0
 10
39.446800000000003
 20
92.297899999999984
 30
0.0
 11
41.404299999999999
 21
92.297899999999984
 31
0.0
  0
LINE
  5
413
  8
0
 10
39.446800000000003
 20
92.297899999999984
 30
0.0
 11
41.404299999999999
 21
92.297899999999984
 31
0.0
  0
LINE
  5
414
  8
0
 10
41.404299999999999
 20
90.340400000000002
 30
0.0
 11
41.404299999999999
 21
92.297899999999984
 31
0.0
  0
LINE
  5
415
  8
0
 10
41.404299999999999
 20
94.255300000000005
 30
0.0
 11
41.404299999999999
 21
96.212800000000001
 31
0.0
  0
LINE
  5
416
  8
0
 10
41.404299999999999
 20
88.382999999999996
 30
0.0
 11
41.404299999999999
 21
86.425499999999985
 31
0.0
  0
LINE
  5
417
  8
0
 10
41.404299999999999
 20
84.468100000000007
 30
0.0
 11
41.404299999999999
 21
82.510599999999997
 31
0.0
  0
LINE
  5
418
  8
0
 10
39.446800000000003
 20
100.1279999999999
 30
0.0
 11
41.404299999999999
 21
100.1279999999999
 31
0.0
  0
LINE
  5
419
  8
0
 10
39.446800000000003
 20
100.1279999999999
 30
0.0
 11
41.404299999999999
 21
100.1279999999999
 31
0.0
  0
LINE
  5
41A
  8
0
 10
41.404299999999999
 20
98.170199999999994
 30
0.0
 11
41.404299999999999
 21
100.1279999999999
 31
0.0
  0
LINE
  5
41B
  8
0
 10
39.446800000000003
 20
104.04299999999991
 30
0.0
 11
41.404299999999999
 21
104.04299999999991
 31
0.0
  0
LINE
  5
41C
  8
0
 10
39.446800000000003
 20
104.04299999999991
 30
0.0
 11
41.404299999999999
 21
104.04299999999991
 31
0.0
  0
LINE
  5
41D
  8
0
 10
41.404299999999999
 20
102.08499999999999
 30
0.0
 11
41.404299999999999
 21
104.04299999999991
 31
0.0
  0
LINE
  5
41E
  8
0
 10
41.404299999999999
 20
106.0
 30
0.0
 11
41.404299999999999
 21
108.0
 31
0.0
  0
LINE
  5
41F
  8
0
 10
41.404299999999999
 20
100.1279999999999
 30
0.0
 11
41.404299999999999
 21
98.170199999999994
 31
0.0
  0
LINE
  5
420
  8
0
 10
41.404299999999999
 20
104.04299999999991
 30
0.0
 11
41.404299999999999
 21
102.08499999999999
 31
0.0
  0
LINE
  5
421
  8
0
 10
41.404299999999999
 20
96.212800000000001
 30
0.0
 11
41.404299999999999
 21
94.255300000000005
 31
0.0
  0
LINE
  5
422
  8
0
 10
41.404299999999999
 20
92.297899999999984
 30
0.0
 11
41.404299999999999
 21
90.340400000000002
 31
0.0
  0
LINE
  5
423
  8
0
 10
41.404299999999999
 20
68.808499999999995
 30
0.0
 11
41.404299999999999
 21
66.851100000000002
 31
0.0
  0
LINE
  5
424
  8
0
 10
41.404299999999999
 20
72.723399999999984
 30
0.0
 11
41.404299999999999
 21
70.766000000000005
 31
0.0
  0
LINE
  5
425
  8
0
 10
41.404299999999999
 20
64.893600000000006
 30
0.0
 11
41.404299999999999
 21
62.936199999999999
 31
0.0
  0
LINE
  5
426
  8
0
 10
41.404299999999999
 20
60.978700000000003
 30
0.0
 11
41.404299999999999
 21
59.021299999999989
 31
0.0
  0
LINE
  5
427
  8
0
 10
41.404299999999999
 20
41.404299999999999
 30
0.0
 11
41.404299999999999
 21
39.446800000000003
 31
0.0
  0
LINE
  5
428
  8
0
 10
41.404299999999999
 20
37.489400000000003
 30
0.0
 11
41.404299999999999
 21
35.5319
 31
0.0
  0
LINE
  5
429
  8
0
 10
41.404299999999999
 20
25.744700000000002
 30
0.0
 11
41.404299999999999
 21
23.787199999999991
 31
0.0
  0
LINE
  5
42A
  8
0
 10
41.404299999999999
 20
17.914899999999999
 30
0.0
 11
41.404299999999999
 21
15.9574
 31
0.0
  0
LINE
  5
42B
  8
0
 10
41.404299999999999
 20
14.0
 30
0.0
 11
41.404299999999999
 21
12.0
 31
0.0
  0
LINE
  5
42C
  8
0
 10
43.361699999999999
 20
14.0
 30
0.0
 11
45.319099999999992
 21
14.0
 31
0.0
  0
LINE
  5
42D
  8
0
 10
43.361699999999999
 20
14.0
 30
0.0
 11
45.319099999999992
 21
14.0
 31
0.0
  0
LINE
  5
42E
  8
0
 10
47.276600000000002
 20
14.0
 30
0.0
 11
49.233999999999988
 21
14.0
 31
0.0
  0
LINE
  5
42F
  8
0
 10
51.191499999999998
 20
14.0
 30
0.0
 11
53.148899999999998
 21
14.0
 31
0.0
  0
LINE
  5
430
  8
0
 10
47.276600000000002
 20
14.0
 30
0.0
 11
49.233999999999988
 21
14.0
 31
0.0
  0
LINE
  5
431
  8
0
 10
51.191499999999998
 20
14.0
 30
0.0
 11
53.148899999999998
 21
14.0
 31
0.0
  0
LINE
  5
432
  8
0
 10
45.319099999999992
 20
14.0
 30
0.0
 11
45.319099999999992
 21
12.0
 31
0.0
  0
LINE
  5
433
  8
0
 10
49.233999999999988
 20
14.0
 30
0.0
 11
49.233999999999988
 21
12.0
 31
0.0
  0
LINE
  5
434
  8
0
 10
55.106400000000001
 20
14.0
 30
0.0
 11
57.063800000000001
 21
14.0
 31
0.0
  0
LINE
  5
435
  8
0
 10
55.106400000000001
 20
14.0
 30
0.0
 11
57.063800000000001
 21
14.0
 31
0.0
  0
LINE
  5
436
  8
0
 10
59.021299999999989
 20
14.0
 30
0.0
 11
60.978700000000003
 21
14.0
 31
0.0
  0
LINE
  5
437
  8
0
 10
59.021299999999989
 20
14.0
 30
0.0
 11
60.978700000000003
 21
14.0
 31
0.0
  0
LINE
  5
438
  8
0
 10
57.063800000000001
 20
14.0
 30
0.0
 11
57.063800000000001
 21
12.0
 31
0.0
  0
LINE
  5
439
  8
0
 10
53.148899999999998
 20
14.0
 30
0.0
 11
53.148899999999998
 21
12.0
 31
0.0
  0
LINE
  5
43A
  8
0
 10
45.319099999999992
 20
15.9574
 30
0.0
 11
45.319099999999992
 21
17.914899999999999
 31
0.0
  0
LINE
  5
43B
  8
0
 10
49.233999999999988
 20
15.9574
 30
0.0
 11
49.233999999999988
 21
17.914899999999999
 31
0.0
  0
LINE
  5
43C
  8
0
 10
57.063800000000001
 20
15.9574
 30
0.0
 11
57.063800000000001
 21
17.914899999999999
 31
0.0
  0
LINE
  5
43D
  8
0
 10
53.148899999999998
 20
15.9574
 30
0.0
 11
53.148899999999998
 21
17.914899999999999
 31
0.0
  0
LINE
  5
43E
  8
0
 10
45.319099999999992
 20
17.914899999999999
 30
0.0
 11
45.319099999999992
 21
15.9574
 31
0.0
  0
LINE
  5
43F
  8
0
 10
43.361699999999999
 20
17.914899999999999
 30
0.0
 11
45.319099999999992
 21
17.914899999999999
 31
0.0
  0
LINE
  5
440
  8
0
 10
43.361699999999999
 20
17.914899999999999
 30
0.0
 11
45.319099999999992
 21
17.914899999999999
 31
0.0
  0
LINE
  5
441
  8
0
 10
47.276600000000002
 20
17.914899999999999
 30
0.0
 11
49.233999999999988
 21
17.914899999999999
 31
0.0
  0
LINE
  5
442
  8
0
 10
47.276600000000002
 20
17.914899999999999
 30
0.0
 11
49.233999999999988
 21
17.914899999999999
 31
0.0
  0
LINE
  5
443
  8
0
 10
45.319099999999992
 20
19.872299999999999
 30
0.0
 11
45.319099999999992
 21
21.829799999999999
 31
0.0
  0
LINE
  5
444
  8
0
 10
43.361699999999999
 20
21.829799999999999
 30
0.0
 11
45.319099999999992
 21
21.829799999999999
 31
0.0
  0
LINE
  5
445
  8
0
 10
43.361699999999999
 20
21.829799999999999
 30
0.0
 11
45.319099999999992
 21
21.829799999999999
 31
0.0
  0
LINE
  5
446
  8
0
 10
47.276600000000002
 20
21.829799999999999
 30
0.0
 11
49.233999999999988
 21
21.829799999999999
 31
0.0
  0
LINE
  5
447
  8
0
 10
47.276600000000002
 20
21.829799999999999
 30
0.0
 11
49.233999999999988
 21
21.829799999999999
 31
0.0
  0
LINE
  5
448
  8
0
 10
45.319099999999992
 20
21.829799999999999
 30
0.0
 11
45.319099999999992
 21
19.872299999999999
 31
0.0
  0
LINE
  5
449
  8
0
 10
49.233999999999988
 20
19.872299999999999
 30
0.0
 11
49.233999999999988
 21
21.829799999999999
 31
0.0
  0
LINE
  5
44A
  8
0
 10
51.191499999999998
 20
17.914899999999999
 30
0.0
 11
53.148899999999998
 21
17.914899999999999
 31
0.0
  0
LINE
  5
44B
  8
0
 10
51.191499999999998
 20
21.829799999999999
 30
0.0
 11
53.148899999999998
 21
21.829799999999999
 31
0.0
  0
LINE
  5
44C
  8
0
 10
51.191499999999998
 20
21.829799999999999
 30
0.0
 11
53.148899999999998
 21
21.829799999999999
 31
0.0
  0
LINE
  5
44D
  8
0
 10
51.191499999999998
 20
17.914899999999999
 30
0.0
 11
53.148899999999998
 21
17.914899999999999
 31
0.0
  0
LINE
  5
44E
  8
0
 10
49.233999999999988
 20
21.829799999999999
 30
0.0
 11
49.233999999999988
 21
19.872299999999999
 31
0.0
  0
LINE
  5
44F
  8
0
 10
49.233999999999988
 20
17.914899999999999
 30
0.0
 11
49.233999999999988
 21
15.9574
 31
0.0
  0
LINE
  5
450
  8
0
 10
53.148899999999998
 20
19.872299999999999
 30
0.0
 11
53.148899999999998
 21
21.829799999999999
 31
0.0
  0
LINE
  5
451
  8
0
 10
45.319099999999992
 20
23.787199999999991
 30
0.0
 11
45.319099999999992
 21
25.744700000000002
 31
0.0
  0
LINE
  5
452
  8
0
 10
49.233999999999988
 20
23.787199999999991
 30
0.0
 11
49.233999999999988
 21
25.744700000000002
 31
0.0
  0
LINE
  5
453
  8
0
 10
53.148899999999998
 20
23.787199999999991
 30
0.0
 11
53.148899999999998
 21
25.744700000000002
 31
0.0
  0
LINE
  5
454
  8
0
 10
53.148899999999998
 20
21.829799999999999
 30
0.0
 11
53.148899999999998
 21
19.872299999999999
 31
0.0
  0
LINE
  5
455
  8
0
 10
55.106400000000001
 20
17.914899999999999
 30
0.0
 11
57.063800000000001
 21
17.914899999999999
 31
0.0
  0
LINE
  5
456
  8
0
 10
55.106400000000001
 20
17.914899999999999
 30
0.0
 11
57.063800000000001
 21
17.914899999999999
 31
0.0
  0
LINE
  5
457
  8
0
 10
55.106400000000001
 20
21.829799999999999
 30
0.0
 11
57.063800000000001
 21
21.829799999999999
 31
0.0
  0
LINE
  5
458
  8
0
 10
55.106400000000001
 20
21.829799999999999
 30
0.0
 11
57.063800000000001
 21
21.829799999999999
 31
0.0
  0
LINE
  5
459
  8
0
 10
57.063800000000001
 20
23.787199999999991
 30
0.0
 11
57.063800000000001
 21
25.744700000000002
 31
0.0
  0
LINE
  5
45A
  8
0
 10
57.063800000000001
 20
19.872299999999999
 30
0.0
 11
57.063800000000001
 21
21.829799999999999
 31
0.0
  0
LINE
  5
45B
  8
0
 10
59.021299999999989
 20
17.914899999999999
 30
0.0
 11
60.978700000000003
 21
17.914899999999999
 31
0.0
  0
LINE
  5
45C
  8
0
 10
59.021299999999989
 20
21.829799999999999
 30
0.0
 11
60.978700000000003
 21
21.829799999999999
 31
0.0
  0
LINE
  5
45D
  8
0
 10
59.021299999999989
 20
21.829799999999999
 30
0.0
 11
60.978700000000003
 21
21.829799999999999
 31
0.0
  0
LINE
  5
45E
  8
0
 10
59.021299999999989
 20
17.914899999999999
 30
0.0
 11
60.978700000000003
 21
17.914899999999999
 31
0.0
  0
LINE
  5
45F
  8
0
 10
57.063800000000001
 20
21.829799999999999
 30
0.0
 11
57.063800000000001
 21
19.872299999999999
 31
0.0
  0
LINE
  5
460
  8
0
 10
57.063800000000001
 20
17.914899999999999
 30
0.0
 11
57.063800000000001
 21
15.9574
 31
0.0
  0
LINE
  5
461
  8
0
 10
53.148899999999998
 20
17.914899999999999
 30
0.0
 11
53.148899999999998
 21
15.9574
 31
0.0
  0
LINE
  5
462
  8
0
 10
43.361699999999999
 20
25.744700000000002
 30
0.0
 11
45.319099999999992
 21
25.744700000000002
 31
0.0
  0
LINE
  5
463
  8
0
 10
43.361699999999999
 20
25.744700000000002
 30
0.0
 11
45.319099999999992
 21
25.744700000000002
 31
0.0
  0
LINE
  5
464
  8
0
 10
47.276600000000002
 20
25.744700000000002
 30
0.0
 11
49.233999999999988
 21
25.744700000000002
 31
0.0
  0
LINE
  5
465
  8
0
 10
51.191499999999998
 20
25.744700000000002
 30
0.0
 11
53.148899999999998
 21
25.744700000000002
 31
0.0
  0
LINE
  5
466
  8
0
 10
47.276600000000002
 20
25.744700000000002
 30
0.0
 11
49.233999999999988
 21
25.744700000000002
 31
0.0
  0
LINE
  5
467
  8
0
 10
51.191499999999998
 20
25.744700000000002
 30
0.0
 11
53.148899999999998
 21
25.744700000000002
 31
0.0
  0
LINE
  5
468
  8
0
 10
45.319099999999992
 20
25.744700000000002
 30
0.0
 11
45.319099999999992
 21
23.787199999999991
 31
0.0
  0
LINE
  5
469
  8
0
 10
49.233999999999988
 20
25.744700000000002
 30
0.0
 11
49.233999999999988
 21
23.787199999999991
 31
0.0
  0
LINE
  5
46A
  8
0
 10
55.106400000000001
 20
25.744700000000002
 30
0.0
 11
57.063800000000001
 21
25.744700000000002
 31
0.0
  0
LINE
  5
46B
  8
0
 10
55.106400000000001
 20
25.744700000000002
 30
0.0
 11
57.063800000000001
 21
25.744700000000002
 31
0.0
  0
LINE
  5
46C
  8
0
 10
59.021299999999989
 20
25.744700000000002
 30
0.0
 11
60.978700000000003
 21
25.744700000000002
 31
0.0
  0
LINE
  5
46D
  8
0
 10
59.021299999999989
 20
25.744700000000002
 30
0.0
 11
60.978700000000003
 21
25.744700000000002
 31
0.0
  0
LINE
  5
46E
  8
0
 10
57.063800000000001
 20
25.744700000000002
 30
0.0
 11
57.063800000000001
 21
23.787199999999991
 31
0.0
  0
LINE
  5
46F
  8
0
 10
53.148899999999998
 20
25.744700000000002
 30
0.0
 11
53.148899999999998
 21
23.787199999999991
 31
0.0
  0
LINE
  5
470
  8
0
 10
60.978700000000003
 20
23.787199999999991
 30
0.0
 11
60.978700000000003
 21
25.744700000000002
 31
0.0
  0
LINE
  5
471
  8
0
 10
60.978700000000003
 20
19.872299999999999
 30
0.0
 11
60.978700000000003
 21
21.829799999999999
 31
0.0
  0
LINE
  5
472
  8
0
 10
60.978700000000003
 20
15.9574
 30
0.0
 11
60.978700000000003
 21
17.914899999999999
 31
0.0
  0
LINE
  5
473
  8
0
 10
60.978700000000003
 20
21.829799999999999
 30
0.0
 11
60.978700000000003
 21
19.872299999999999
 31
0.0
  0
LINE
  5
474
  8
0
 10
43.361699999999999
 20
29.659600000000001
 30
0.0
 11
45.319099999999992
 21
29.659600000000001
 31
0.0
  0
LINE
  5
475
  8
0
 10
43.361699999999999
 20
29.659600000000001
 30
0.0
 11
45.319099999999992
 21
29.659600000000001
 31
0.0
  0
LINE
  5
476
  8
0
 10
47.276600000000002
 20
29.659600000000001
 30
0.0
 11
49.233999999999988
 21
29.659600000000001
 31
0.0
  0
LINE
  5
477
  8
0
 10
47.276600000000002
 20
29.659600000000001
 30
0.0
 11
49.233999999999988
 21
29.659600000000001
 31
0.0
  0
LINE
  5
478
  8
0
 10
45.319099999999992
 20
27.702100000000002
 30
0.0
 11
45.319099999999992
 21
29.659600000000001
 31
0.0
  0
LINE
  5
479
  8
0
 10
45.319099999999992
 20
29.659600000000001
 30
0.0
 11
45.319099999999992
 21
27.702100000000002
 31
0.0
  0
LINE
  5
47A
  8
0
 10
51.191499999999998
 20
29.659600000000001
 30
0.0
 11
53.148899999999998
 21
29.659600000000001
 31
0.0
  0
LINE
  5
47B
  8
0
 10
51.191499999999998
 20
29.659600000000001
 30
0.0
 11
53.148899999999998
 21
29.659600000000001
 31
0.0
  0
LINE
  5
47C
  8
0
 10
49.233999999999988
 20
27.702100000000002
 30
0.0
 11
49.233999999999988
 21
29.659600000000001
 31
0.0
  0
LINE
  5
47D
  8
0
 10
49.233999999999988
 20
29.659600000000001
 30
0.0
 11
49.233999999999988
 21
27.702100000000002
 31
0.0
  0
LINE
  5
47E
  8
0
 10
55.106400000000001
 20
29.659600000000001
 30
0.0
 11
57.063800000000001
 21
29.659600000000001
 31
0.0
  0
LINE
  5
47F
  8
0
 10
55.106400000000001
 20
29.659600000000001
 30
0.0
 11
57.063800000000001
 21
29.659600000000001
 31
0.0
  0
LINE
  5
480
  8
0
 10
59.021299999999989
 20
29.659600000000001
 30
0.0
 11
60.978700000000003
 21
29.659600000000001
 31
0.0
  0
LINE
  5
481
  8
0
 10
59.021299999999989
 20
29.659600000000001
 30
0.0
 11
60.978700000000003
 21
29.659600000000001
 31
0.0
  0
LINE
  5
482
  8
0
 10
57.063800000000001
 20
27.702100000000002
 30
0.0
 11
57.063800000000001
 21
29.659600000000001
 31
0.0
  0
LINE
  5
483
  8
0
 10
57.063800000000001
 20
29.659600000000001
 30
0.0
 11
57.063800000000001
 21
27.702100000000002
 31
0.0
  0
LINE
  5
484
  8
0
 10
53.148899999999998
 20
27.702100000000002
 30
0.0
 11
53.148899999999998
 21
29.659600000000001
 31
0.0
  0
LINE
  5
485
  8
0
 10
53.148899999999998
 20
29.659600000000001
 30
0.0
 11
53.148899999999998
 21
27.702100000000002
 31
0.0
  0
LINE
  5
486
  8
0
 10
60.978700000000003
 20
27.702100000000002
 30
0.0
 11
60.978700000000003
 21
29.659600000000001
 31
0.0
  0
LINE
  5
487
  8
0
 10
43.361699999999999
 20
33.5745
 30
0.0
 11
45.319099999999992
 21
33.5745
 31
0.0
  0
LINE
  5
488
  8
0
 10
43.361699999999999
 20
33.5745
 30
0.0
 11
45.319099999999992
 21
33.5745
 31
0.0
  0
LINE
  5
489
  8
0
 10
47.276600000000002
 20
33.5745
 30
0.0
 11
49.233999999999988
 21
33.5745
 31
0.0
  0
LINE
  5
48A
  8
0
 10
47.276600000000002
 20
33.5745
 30
0.0
 11
49.233999999999988
 21
33.5745
 31
0.0
  0
LINE
  5
48B
  8
0
 10
45.319099999999992
 20
31.61699999999999
 30
0.0
 11
45.319099999999992
 21
33.5745
 31
0.0
  0
LINE
  5
48C
  8
0
 10
45.319099999999992
 20
33.5745
 30
0.0
 11
45.319099999999992
 21
31.61699999999999
 31
0.0
  0
LINE
  5
48D
  8
0
 10
51.191499999999998
 20
33.5745
 30
0.0
 11
53.148899999999998
 21
33.5745
 31
0.0
  0
LINE
  5
48E
  8
0
 10
51.191499999999998
 20
33.5745
 30
0.0
 11
53.148899999999998
 21
33.5745
 31
0.0
  0
LINE
  5
48F
  8
0
 10
49.233999999999988
 20
31.61699999999999
 30
0.0
 11
49.233999999999988
 21
33.5745
 31
0.0
  0
LINE
  5
490
  8
0
 10
49.233999999999988
 20
33.5745
 30
0.0
 11
49.233999999999988
 21
31.61699999999999
 31
0.0
  0
LINE
  5
491
  8
0
 10
55.106400000000001
 20
33.5745
 30
0.0
 11
57.063800000000001
 21
33.5745
 31
0.0
  0
LINE
  5
492
  8
0
 10
55.106400000000001
 20
33.5745
 30
0.0
 11
57.063800000000001
 21
33.5745
 31
0.0
  0
LINE
  5
493
  8
0
 10
59.021299999999989
 20
33.5745
 30
0.0
 11
60.978700000000003
 21
33.5745
 31
0.0
  0
LINE
  5
494
  8
0
 10
59.021299999999989
 20
33.5745
 30
0.0
 11
60.978700000000003
 21
33.5745
 31
0.0
  0
LINE
  5
495
  8
0
 10
57.063800000000001
 20
31.61699999999999
 30
0.0
 11
57.063800000000001
 21
33.5745
 31
0.0
  0
LINE
  5
496
  8
0
 10
57.063800000000001
 20
33.5745
 30
0.0
 11
57.063800000000001
 21
31.61699999999999
 31
0.0
  0
LINE
  5
497
  8
0
 10
53.148899999999998
 20
31.61699999999999
 30
0.0
 11
53.148899999999998
 21
33.5745
 31
0.0
  0
LINE
  5
498
  8
0
 10
45.319099999999992
 20
35.5319
 30
0.0
 11
45.319099999999992
 21
37.489400000000003
 31
0.0
  0
LINE
  5
499
  8
0
 10
49.233999999999988
 20
35.5319
 30
0.0
 11
49.233999999999988
 21
37.489400000000003
 31
0.0
  0
LINE
  5
49A
  8
0
 10
57.063800000000001
 20
35.5319
 30
0.0
 11
57.063800000000001
 21
37.489400000000003
 31
0.0
  0
LINE
  5
49B
  8
0
 10
53.148899999999998
 20
35.5319
 30
0.0
 11
53.148899999999998
 21
37.489400000000003
 31
0.0
  0
LINE
  5
49C
  8
0
 10
53.148899999999998
 20
33.5745
 30
0.0
 11
53.148899999999998
 21
31.61699999999999
 31
0.0
  0
LINE
  5
49D
  8
0
 10
60.978700000000003
 20
31.61699999999999
 30
0.0
 11
60.978700000000003
 21
33.5745
 31
0.0
  0
LINE
  5
49E
  8
0
 10
43.361699999999999
 20
37.489400000000003
 30
0.0
 11
45.319099999999992
 21
37.489400000000003
 31
0.0
  0
LINE
  5
49F
  8
0
 10
43.361699999999999
 20
37.489400000000003
 30
0.0
 11
45.319099999999992
 21
37.489400000000003
 31
0.0
  0
LINE
  5
4A0
  8
0
 10
47.276600000000002
 20
37.489400000000003
 30
0.0
 11
49.233999999999988
 21
37.489400000000003
 31
0.0
  0
LINE
  5
4A1
  8
0
 10
51.191499999999998
 20
37.489400000000003
 30
0.0
 11
53.148899999999998
 21
37.489400000000003
 31
0.0
  0
LINE
  5
4A2
  8
0
 10
47.276600000000002
 20
37.489400000000003
 30
0.0
 11
49.233999999999988
 21
37.489400000000003
 31
0.0
  0
LINE
  5
4A3
  8
0
 10
51.191499999999998
 20
37.489400000000003
 30
0.0
 11
53.148899999999998
 21
37.489400000000003
 31
0.0
  0
LINE
  5
4A4
  8
0
 10
45.319099999999992
 20
37.489400000000003
 30
0.0
 11
45.319099999999992
 21
35.5319
 31
0.0
  0
LINE
  5
4A5
  8
0
 10
45.319099999999992
 20
39.446800000000003
 30
0.0
 11
45.319099999999992
 21
41.404299999999999
 31
0.0
  0
LINE
  5
4A6
  8
0
 10
43.361699999999999
 20
41.404299999999999
 30
0.0
 11
45.319099999999992
 21
41.404299999999999
 31
0.0
  0
LINE
  5
4A7
  8
0
 10
43.361699999999999
 20
41.404299999999999
 30
0.0
 11
45.319099999999992
 21
41.404299999999999
 31
0.0
  0
LINE
  5
4A8
  8
0
 10
47.276600000000002
 20
41.404299999999999
 30
0.0
 11
49.233999999999988
 21
41.404299999999999
 31
0.0
  0
LINE
  5
4A9
  8
0
 10
47.276600000000002
 20
41.404299999999999
 30
0.0
 11
49.233999999999988
 21
41.404299999999999
 31
0.0
  0
LINE
  5
4AA
  8
0
 10
45.319099999999992
 20
41.404299999999999
 30
0.0
 11
45.319099999999992
 21
39.446800000000003
 31
0.0
  0
LINE
  5
4AB
  8
0
 10
49.233999999999988
 20
39.446800000000003
 30
0.0
 11
49.233999999999988
 21
41.404299999999999
 31
0.0
  0
LINE
  5
4AC
  8
0
 10
51.191499999999998
 20
41.404299999999999
 30
0.0
 11
53.148899999999998
 21
41.404299999999999
 31
0.0
  0
LINE
  5
4AD
  8
0
 10
51.191499999999998
 20
41.404299999999999
 30
0.0
 11
53.148899999999998
 21
41.404299999999999
 31
0.0
  0
LINE
  5
4AE
  8
0
 10
49.233999999999988
 20
41.404299999999999
 30
0.0
 11
49.233999999999988
 21
39.446800000000003
 31
0.0
  0
LINE
  5
4AF
  8
0
 10
49.233999999999988
 20
37.489400000000003
 30
0.0
 11
49.233999999999988
 21
35.5319
 31
0.0
  0
LINE
  5
4B0
  8
0
 10
53.148899999999998
 20
39.446800000000003
 30
0.0
 11
53.148899999999998
 21
41.404299999999999
 31
0.0
  0
LINE
  5
4B1
  8
0
 10
53.148899999999998
 20
41.404299999999999
 30
0.0
 11
53.148899999999998
 21
39.446800000000003
 31
0.0
  0
LINE
  5
4B2
  8
0
 10
55.106400000000001
 20
37.489400000000003
 30
0.0
 11
57.063800000000001
 21
37.489400000000003
 31
0.0
  0
LINE
  5
4B3
  8
0
 10
55.106400000000001
 20
37.489400000000003
 30
0.0
 11
57.063800000000001
 21
37.489400000000003
 31
0.0
  0
LINE
  5
4B4
  8
0
 10
59.021299999999989
 20
37.489400000000003
 30
0.0
 11
60.978700000000003
 21
37.489400000000003
 31
0.0
  0
LINE
  5
4B5
  8
0
 10
59.021299999999989
 20
37.489400000000003
 30
0.0
 11
60.978700000000003
 21
37.489400000000003
 31
0.0
  0
LINE
  5
4B6
  8
0
 10
55.106400000000001
 20
41.404299999999999
 30
0.0
 11
57.063800000000001
 21
41.404299999999999
 31
0.0
  0
LINE
  5
4B7
  8
0
 10
55.106400000000001
 20
41.404299999999999
 30
0.0
 11
57.063800000000001
 21
41.404299999999999
 31
0.0
  0
LINE
  5
4B8
  8
0
 10
57.063800000000001
 20
39.446800000000003
 30
0.0
 11
57.063800000000001
 21
41.404299999999999
 31
0.0
  0
LINE
  5
4B9
  8
0
 10
59.021299999999989
 20
41.404299999999999
 30
0.0
 11
60.978700000000003
 21
41.404299999999999
 31
0.0
  0
LINE
  5
4BA
  8
0
 10
59.021299999999989
 20
41.404299999999999
 30
0.0
 11
60.978700000000003
 21
41.404299999999999
 31
0.0
  0
LINE
  5
4BB
  8
0
 10
57.063800000000001
 20
41.404299999999999
 30
0.0
 11
57.063800000000001
 21
39.446800000000003
 31
0.0
  0
LINE
  5
4BC
  8
0
 10
57.063800000000001
 20
37.489400000000003
 30
0.0
 11
57.063800000000001
 21
35.5319
 31
0.0
  0
LINE
  5
4BD
  8
0
 10
53.148899999999998
 20
37.489400000000003
 30
0.0
 11
53.148899999999998
 21
35.5319
 31
0.0
  0
LINE
  5
4BE
  8
0
 10
60.978700000000003
 20
35.5319
 30
0.0
 11
60.978700000000003
 21
37.489400000000003
 31
0.0
  0
LINE
  5
4BF
  8
0
 10
60.978700000000003
 20
39.446800000000003
 30
0.0
 11
60.978700000000003
 21
41.404299999999999
 31
0.0
  0
LINE
  5
4C0
  8
0
 10
60.978700000000003
 20
29.659600000000001
 30
0.0
 11
60.978700000000003
 21
27.702100000000002
 31
0.0
  0
LINE
  5
4C1
  8
0
 10
60.978700000000003
 20
33.5745
 30
0.0
 11
60.978700000000003
 21
31.61699999999999
 31
0.0
  0
LINE
  5
4C2
  8
0
 10
45.319099999999992
 20
43.361699999999999
 30
0.0
 11
45.319099999999992
 21
45.319099999999992
 31
0.0
  0
LINE
  5
4C3
  8
0
 10
45.319099999999992
 20
45.319099999999992
 30
0.0
 11
45.319099999999992
 21
43.361699999999999
 31
0.0
  0
LINE
  5
4C4
  8
0
 10
49.233999999999988
 20
43.361699999999999
 30
0.0
 11
49.233999999999988
 21
45.319099999999992
 31
0.0
  0
LINE
  5
4C5
  8
0
 10
49.233999999999988
 20
45.319099999999992
 30
0.0
 11
49.233999999999988
 21
43.361699999999999
 31
0.0
  0
LINE
  5
4C6
  8
0
 10
57.063800000000001
 20
43.361699999999999
 30
0.0
 11
57.063800000000001
 21
45.319099999999992
 31
0.0
  0
LINE
  5
4C7
  8
0
 10
57.063800000000001
 20
45.319099999999992
 30
0.0
 11
57.063800000000001
 21
43.361699999999999
 31
0.0
  0
LINE
  5
4C8
  8
0
 10
53.148899999999998
 20
43.361699999999999
 30
0.0
 11
53.148899999999998
 21
45.319099999999992
 31
0.0
  0
LINE
  5
4C9
  8
0
 10
53.148899999999998
 20
45.319099999999992
 30
0.0
 11
53.148899999999998
 21
43.361699999999999
 31
0.0
  0
LINE
  5
4CA
  8
0
 10
60.978700000000003
 20
43.361699999999999
 30
0.0
 11
60.978700000000003
 21
45.319099999999992
 31
0.0
  0
LINE
  5
4CB
  8
0
 10
43.361699999999999
 20
45.319099999999992
 30
0.0
 11
45.319099999999992
 21
45.319099999999992
 31
0.0
  0
LINE
  5
4CC
  8
0
 10
43.361699999999999
 20
45.319099999999992
 30
0.0
 11
45.319099999999992
 21
45.319099999999992
 31
0.0
  0
LINE
  5
4CD
  8
0
 10
47.276600000000002
 20
45.319099999999992
 30
0.0
 11
49.233999999999988
 21
45.319099999999992
 31
0.0
  0
LINE
  5
4CE
  8
0
 10
47.276600000000002
 20
45.319099999999992
 30
0.0
 11
49.233999999999988
 21
45.319099999999992
 31
0.0
  0
LINE
  5
4CF
  8
0
 10
45.319099999999992
 20
47.276600000000002
 30
0.0
 11
45.319099999999992
 21
49.233999999999988
 31
0.0
  0
LINE
  5
4D0
  8
0
 10
45.319099999999992
 20
49.233999999999988
 30
0.0
 11
45.319099999999992
 21
47.276600000000002
 31
0.0
  0
LINE
  5
4D1
  8
0
 10
51.191499999999998
 20
45.319099999999992
 30
0.0
 11
53.148899999999998
 21
45.319099999999992
 31
0.0
  0
LINE
  5
4D2
  8
0
 10
51.191499999999998
 20
45.319099999999992
 30
0.0
 11
53.148899999999998
 21
45.319099999999992
 31
0.0
  0
LINE
  5
4D3
  8
0
 10
49.233999999999988
 20
47.276600000000002
 30
0.0
 11
49.233999999999988
 21
49.233999999999988
 31
0.0
  0
LINE
  5
4D4
  8
0
 10
49.233999999999988
 20
49.233999999999988
 30
0.0
 11
49.233999999999988
 21
47.276600000000002
 31
0.0
  0
LINE
  5
4D5
  8
0
 10
55.106400000000001
 20
45.319099999999992
 30
0.0
 11
57.063800000000001
 21
45.319099999999992
 31
0.0
  0
LINE
  5
4D6
  8
0
 10
55.106400000000001
 20
45.319099999999992
 30
0.0
 11
57.063800000000001
 21
45.319099999999992
 31
0.0
  0
LINE
  5
4D7
  8
0
 10
59.021299999999989
 20
45.319099999999992
 30
0.0
 11
60.978700000000003
 21
45.319099999999992
 31
0.0
  0
LINE
  5
4D8
  8
0
 10
59.021299999999989
 20
45.319099999999992
 30
0.0
 11
60.978700000000003
 21
45.319099999999992
 31
0.0
  0
LINE
  5
4D9
  8
0
 10
57.063800000000001
 20
47.276600000000002
 30
0.0
 11
57.063800000000001
 21
49.233999999999988
 31
0.0
  0
LINE
  5
4DA
  8
0
 10
57.063800000000001
 20
49.233999999999988
 30
0.0
 11
57.063800000000001
 21
47.276600000000002
 31
0.0
  0
LINE
  5
4DB
  8
0
 10
53.148899999999998
 20
47.276600000000002
 30
0.0
 11
53.148899999999998
 21
49.233999999999988
 31
0.0
  0
LINE
  5
4DC
  8
0
 10
43.361699999999999
 20
49.233999999999988
 30
0.0
 11
45.319099999999992
 21
49.233999999999988
 31
0.0
  0
LINE
  5
4DD
  8
0
 10
43.361699999999999
 20
49.233999999999988
 30
0.0
 11
45.319099999999992
 21
49.233999999999988
 31
0.0
  0
LINE
  5
4DE
  8
0
 10
47.276600000000002
 20
49.233999999999988
 30
0.0
 11
49.233999999999988
 21
49.233999999999988
 31
0.0
  0
LINE
  5
4DF
  8
0
 10
51.191499999999998
 20
49.233999999999988
 30
0.0
 11
53.148899999999998
 21
49.233999999999988
 31
0.0
  0
LINE
  5
4E0
  8
0
 10
47.276600000000002
 20
49.233999999999988
 30
0.0
 11
49.233999999999988
 21
49.233999999999988
 31
0.0
  0
LINE
  5
4E1
  8
0
 10
51.191499999999998
 20
49.233999999999988
 30
0.0
 11
53.148899999999998
 21
49.233999999999988
 31
0.0
  0
LINE
  5
4E2
  8
0
 10
45.319099999999992
 20
51.191499999999998
 30
0.0
 11
45.319099999999992
 21
53.148899999999998
 31
0.0
  0
LINE
  5
4E3
  8
0
 10
49.233999999999988
 20
51.191499999999998
 30
0.0
 11
49.233999999999988
 21
53.148899999999998
 31
0.0
  0
LINE
  5
4E4
  8
0
 10
55.106400000000001
 20
49.233999999999988
 30
0.0
 11
57.063800000000001
 21
49.233999999999988
 31
0.0
  0
LINE
  5
4E5
  8
0
 10
55.106400000000001
 20
49.233999999999988
 30
0.0
 11
57.063800000000001
 21
49.233999999999988
 31
0.0
  0
LINE
  5
4E6
  8
0
 10
59.021299999999989
 20
49.233999999999988
 30
0.0
 11
60.978700000000003
 21
49.233999999999988
 31
0.0
  0
LINE
  5
4E7
  8
0
 10
59.021299999999989
 20
49.233999999999988
 30
0.0
 11
60.978700000000003
 21
49.233999999999988
 31
0.0
  0
LINE
  5
4E8
  8
0
 10
57.063800000000001
 20
51.191499999999998
 30
0.0
 11
57.063800000000001
 21
53.148899999999998
 31
0.0
  0
LINE
  5
4E9
  8
0
 10
53.148899999999998
 20
51.191499999999998
 30
0.0
 11
53.148899999999998
 21
53.148899999999998
 31
0.0
  0
LINE
  5
4EA
  8
0
 10
53.148899999999998
 20
49.233999999999988
 30
0.0
 11
53.148899999999998
 21
47.276600000000002
 31
0.0
  0
LINE
  5
4EB
  8
0
 10
60.978700000000003
 20
47.276600000000002
 30
0.0
 11
60.978700000000003
 21
49.233999999999988
 31
0.0
  0
LINE
  5
4EC
  8
0
 10
43.361699999999999
 20
53.148899999999998
 30
0.0
 11
45.319099999999992
 21
53.148899999999998
 31
0.0
  0
LINE
  5
4ED
  8
0
 10
43.361699999999999
 20
53.148899999999998
 30
0.0
 11
45.319099999999992
 21
53.148899999999998
 31
0.0
  0
LINE
  5
4EE
  8
0
 10
47.276600000000002
 20
53.148899999999998
 30
0.0
 11
49.233999999999988
 21
53.148899999999998
 31
0.0
  0
LINE
  5
4EF
  8
0
 10
51.191499999999998
 20
53.148899999999998
 30
0.0
 11
53.148899999999998
 21
53.148899999999998
 31
0.0
  0
LINE
  5
4F0
  8
0
 10
47.276600000000002
 20
53.148899999999998
 30
0.0
 11
49.233999999999988
 21
53.148899999999998
 31
0.0
  0
LINE
  5
4F1
  8
0
 10
51.191499999999998
 20
53.148899999999998
 30
0.0
 11
53.148899999999998
 21
53.148899999999998
 31
0.0
  0
LINE
  5
4F2
  8
0
 10
45.319099999999992
 20
53.148899999999998
 30
0.0
 11
45.319099999999992
 21
51.191499999999998
 31
0.0
  0
LINE
  5
4F3
  8
0
 10
45.319099999999992
 20
55.106400000000001
 30
0.0
 11
45.319099999999992
 21
57.063800000000001
 31
0.0
  0
LINE
  5
4F4
  8
0
 10
45.319099999999992
 20
57.063800000000001
 30
0.0
 11
45.319099999999992
 21
55.106400000000001
 31
0.0
  0
LINE
  5
4F5
  8
0
 10
49.233999999999988
 20
55.106400000000001
 30
0.0
 11
49.233999999999988
 21
57.063800000000001
 31
0.0
  0
LINE
  5
4F6
  8
0
 10
49.233999999999988
 20
57.063800000000001
 30
0.0
 11
49.233999999999988
 21
55.106400000000001
 31
0.0
  0
LINE
  5
4F7
  8
0
 10
49.233999999999988
 20
53.148899999999998
 30
0.0
 11
49.233999999999988
 21
51.191499999999998
 31
0.0
  0
LINE
  5
4F8
  8
0
 10
53.148899999999998
 20
55.106400000000001
 30
0.0
 11
53.148899999999998
 21
57.063800000000001
 31
0.0
  0
LINE
  5
4F9
  8
0
 10
53.148899999999998
 20
57.063800000000001
 30
0.0
 11
53.148899999999998
 21
55.106400000000001
 31
0.0
  0
LINE
  5
4FA
  8
0
 10
55.106400000000001
 20
53.148899999999998
 30
0.0
 11
57.063800000000001
 21
53.148899999999998
 31
0.0
  0
LINE
  5
4FB
  8
0
 10
55.106400000000001
 20
53.148899999999998
 30
0.0
 11
57.063800000000001
 21
53.148899999999998
 31
0.0
  0
LINE
  5
4FC
  8
0
 10
59.021299999999989
 20
53.148899999999998
 30
0.0
 11
60.978700000000003
 21
53.148899999999998
 31
0.0
  0
LINE
  5
4FD
  8
0
 10
59.021299999999989
 20
53.148899999999998
 30
0.0
 11
60.978700000000003
 21
53.148899999999998
 31
0.0
  0
LINE
  5
4FE
  8
0
 10
57.063800000000001
 20
55.106400000000001
 30
0.0
 11
57.063800000000001
 21
57.063800000000001
 31
0.0
  0
LINE
  5
4FF
  8
0
 10
57.063800000000001
 20
57.063800000000001
 30
0.0
 11
57.063800000000001
 21
55.106400000000001
 31
0.0
  0
LINE
  5
500
  8
0
 10
57.063800000000001
 20
53.148899999999998
 30
0.0
 11
57.063800000000001
 21
51.191499999999998
 31
0.0
  0
LINE
  5
501
  8
0
 10
53.148899999999998
 20
53.148899999999998
 30
0.0
 11
53.148899999999998
 21
51.191499999999998
 31
0.0
  0
LINE
  5
502
  8
0
 10
60.978700000000003
 20
51.191499999999998
 30
0.0
 11
60.978700000000003
 21
53.148899999999998
 31
0.0
  0
LINE
  5
503
  8
0
 10
60.978700000000003
 20
55.106400000000001
 30
0.0
 11
60.978700000000003
 21
57.063800000000001
 31
0.0
  0
LINE
  5
504
  8
0
 10
60.978700000000003
 20
45.319099999999992
 30
0.0
 11
60.978700000000003
 21
43.361699999999999
 31
0.0
  0
LINE
  5
505
  8
0
 10
60.978700000000003
 20
49.233999999999988
 30
0.0
 11
60.978700000000003
 21
47.276600000000002
 31
0.0
  0
LINE
  5
506
  8
0
 10
43.361699999999999
 20
57.063800000000001
 30
0.0
 11
45.319099999999992
 21
57.063800000000001
 31
0.0
  0
LINE
  5
507
  8
0
 10
43.361699999999999
 20
57.063800000000001
 30
0.0
 11
45.319099999999992
 21
57.063800000000001
 31
0.0
  0
LINE
  5
508
  8
0
 10
47.276600000000002
 20
57.063800000000001
 30
0.0
 11
49.233999999999988
 21
57.063800000000001
 31
0.0
  0
LINE
  5
509
  8
0
 10
51.191499999999998
 20
57.063800000000001
 30
0.0
 11
53.148899999999998
 21
57.063800000000001
 31
0.0
  0
LINE
  5
50A
  8
0
 10
47.276600000000002
 20
57.063800000000001
 30
0.0
 11
49.233999999999988
 21
57.063800000000001
 31
0.0
  0
LINE
  5
50B
  8
0
 10
51.191499999999998
 20
57.063800000000001
 30
0.0
 11
53.148899999999998
 21
57.063800000000001
 31
0.0
  0
LINE
  5
50C
  8
0
 10
45.319099999999992
 20
59.021299999999989
 30
0.0
 11
45.319099999999992
 21
60.978700000000003
 31
0.0
  0
LINE
  5
50D
  8
0
 10
49.233999999999988
 20
59.021299999999989
 30
0.0
 11
49.233999999999988
 21
60.978700000000003
 31
0.0
  0
LINE
  5
50E
  8
0
 10
55.106400000000001
 20
57.063800000000001
 30
0.0
 11
57.063800000000001
 21
57.063800000000001
 31
0.0
  0
LINE
  5
50F
  8
0
 10
55.106400000000001
 20
57.063800000000001
 30
0.0
 11
57.063800000000001
 21
57.063800000000001
 31
0.0
  0
LINE
  5
510
  8
0
 10
59.021299999999989
 20
57.063800000000001
 30
0.0
 11
60.978700000000003
 21
57.063800000000001
 31
0.0
  0
LINE
  5
511
  8
0
 10
59.021299999999989
 20
57.063800000000001
 30
0.0
 11
60.978700000000003
 21
57.063800000000001
 31
0.0
  0
LINE
  5
512
  8
0
 10
57.063800000000001
 20
59.021299999999989
 30
0.0
 11
57.063800000000001
 21
60.978700000000003
 31
0.0
  0
LINE
  5
513
  8
0
 10
53.148899999999998
 20
59.021299999999989
 30
0.0
 11
53.148899999999998
 21
60.978700000000003
 31
0.0
  0
LINE
  5
514
  8
0
 10
43.361699999999999
 20
60.978700000000003
 30
0.0
 11
45.319099999999992
 21
60.978700000000003
 31
0.0
  0
LINE
  5
515
  8
0
 10
43.361699999999999
 20
60.978700000000003
 30
0.0
 11
45.319099999999992
 21
60.978700000000003
 31
0.0
  0
LINE
  5
516
  8
0
 10
47.276600000000002
 20
60.978700000000003
 30
0.0
 11
49.233999999999988
 21
60.978700000000003
 31
0.0
  0
LINE
  5
517
  8
0
 10
51.191499999999998
 20
60.978700000000003
 30
0.0
 11
53.148899999999998
 21
60.978700000000003
 31
0.0
  0
LINE
  5
518
  8
0
 10
47.276600000000002
 20
60.978700000000003
 30
0.0
 11
49.233999999999988
 21
60.978700000000003
 31
0.0
  0
LINE
  5
519
  8
0
 10
51.191499999999998
 20
60.978700000000003
 30
0.0
 11
53.148899999999998
 21
60.978700000000003
 31
0.0
  0
LINE
  5
51A
  8
0
 10
45.319099999999992
 20
60.978700000000003
 30
0.0
 11
45.319099999999992
 21
59.021299999999989
 31
0.0
  0
LINE
  5
51B
  8
0
 10
45.319099999999992
 20
62.936199999999999
 30
0.0
 11
45.319099999999992
 21
64.893600000000006
 31
0.0
  0
LINE
  5
51C
  8
0
 10
43.361699999999999
 20
64.893600000000006
 30
0.0
 11
45.319099999999992
 21
64.893600000000006
 31
0.0
  0
LINE
  5
51D
  8
0
 10
43.361699999999999
 20
64.893600000000006
 30
0.0
 11
45.319099999999992
 21
64.893600000000006
 31
0.0
  0
LINE
  5
51E
  8
0
 10
47.276600000000002
 20
64.893600000000006
 30
0.0
 11
49.233999999999988
 21
64.893600000000006
 31
0.0
  0
LINE
  5
51F
  8
0
 10
47.276600000000002
 20
64.893600000000006
 30
0.0
 11
49.233999999999988
 21
64.893600000000006
 31
0.0
  0
LINE
  5
520
  8
0
 10
45.319099999999992
 20
64.893600000000006
 30
0.0
 11
45.319099999999992
 21
62.936199999999999
 31
0.0
  0
LINE
  5
521
  8
0
 10
49.233999999999988
 20
62.936199999999999
 30
0.0
 11
49.233999999999988
 21
64.893600000000006
 31
0.0
  0
LINE
  5
522
  8
0
 10
51.191499999999998
 20
64.893600000000006
 30
0.0
 11
53.148899999999998
 21
64.893600000000006
 31
0.0
  0
LINE
  5
523
  8
0
 10
51.191499999999998
 20
64.893600000000006
 30
0.0
 11
53.148899999999998
 21
64.893600000000006
 31
0.0
  0
LINE
  5
524
  8
0
 10
49.233999999999988
 20
64.893600000000006
 30
0.0
 11
49.233999999999988
 21
62.936199999999999
 31
0.0
  0
LINE
  5
525
  8
0
 10
49.233999999999988
 20
60.978700000000003
 30
0.0
 11
49.233999999999988
 21
59.021299999999989
 31
0.0
  0
LINE
  5
526
  8
0
 10
53.148899999999998
 20
62.936199999999999
 30
0.0
 11
53.148899999999998
 21
64.893600000000006
 31
0.0
  0
LINE
  5
527
  8
0
 10
53.148899999999998
 20
64.893600000000006
 30
0.0
 11
53.148899999999998
 21
62.936199999999999
 31
0.0
  0
LINE
  5
528
  8
0
 10
55.106400000000001
 20
60.978700000000003
 30
0.0
 11
57.063800000000001
 21
60.978700000000003
 31
0.0
  0
LINE
  5
529
  8
0
 10
55.106400000000001
 20
60.978700000000003
 30
0.0
 11
57.063800000000001
 21
60.978700000000003
 31
0.0
  0
LINE
  5
52A
  8
0
 10
59.021299999999989
 20
60.978700000000003
 30
0.0
 11
60.978700000000003
 21
60.978700000000003
 31
0.0
  0
LINE
  5
52B
  8
0
 10
59.021299999999989
 20
60.978700000000003
 30
0.0
 11
60.978700000000003
 21
60.978700000000003
 31
0.0
  0
LINE
  5
52C
  8
0
 10
55.106400000000001
 20
64.893600000000006
 30
0.0
 11
57.063800000000001
 21
64.893600000000006
 31
0.0
  0
LINE
  5
52D
  8
0
 10
55.106400000000001
 20
64.893600000000006
 30
0.0
 11
57.063800000000001
 21
64.893600000000006
 31
0.0
  0
LINE
  5
52E
  8
0
 10
57.063800000000001
 20
62.936199999999999
 30
0.0
 11
57.063800000000001
 21
64.893600000000006
 31
0.0
  0
LINE
  5
52F
  8
0
 10
59.021299999999989
 20
64.893600000000006
 30
0.0
 11
60.978700000000003
 21
64.893600000000006
 31
0.0
  0
LINE
  5
530
  8
0
 10
59.021299999999989
 20
64.893600000000006
 30
0.0
 11
60.978700000000003
 21
64.893600000000006
 31
0.0
  0
LINE
  5
531
  8
0
 10
57.063800000000001
 20
64.893600000000006
 30
0.0
 11
57.063800000000001
 21
62.936199999999999
 31
0.0
  0
LINE
  5
532
  8
0
 10
57.063800000000001
 20
60.978700000000003
 30
0.0
 11
57.063800000000001
 21
59.021299999999989
 31
0.0
  0
LINE
  5
533
  8
0
 10
53.148899999999998
 20
60.978700000000003
 30
0.0
 11
53.148899999999998
 21
59.021299999999989
 31
0.0
  0
LINE
  5
534
  8
0
 10
60.978700000000003
 20
59.021299999999989
 30
0.0
 11
60.978700000000003
 21
60.978700000000003
 31
0.0
  0
LINE
  5
535
  8
0
 10
60.978700000000003
 20
62.936199999999999
 30
0.0
 11
60.978700000000003
 21
64.893600000000006
 31
0.0
  0
LINE
  5
536
  8
0
 10
60.978700000000003
 20
57.063800000000001
 30
0.0
 11
60.978700000000003
 21
55.106400000000001
 31
0.0
  0
LINE
  5
537
  8
0
 10
60.978700000000003
 20
53.148899999999998
 30
0.0
 11
60.978700000000003
 21
51.191499999999998
 31
0.0
  0
LINE
  5
538
  8
0
 10
43.361699999999999
 20
68.808499999999995
 30
0.0
 11
45.319099999999992
 21
68.808499999999995
 31
0.0
  0
LINE
  5
539
  8
0
 10
43.361699999999999
 20
68.808499999999995
 30
0.0
 11
45.319099999999992
 21
68.808499999999995
 31
0.0
  0
LINE
  5
53A
  8
0
 10
47.276600000000002
 20
68.808499999999995
 30
0.0
 11
49.233999999999988
 21
68.808499999999995
 31
0.0
  0
LINE
  5
53B
  8
0
 10
47.276600000000002
 20
68.808499999999995
 30
0.0
 11
49.233999999999988
 21
68.808499999999995
 31
0.0
  0
LINE
  5
53C
  8
0
 10
45.319099999999992
 20
66.851100000000002
 30
0.0
 11
45.319099999999992
 21
68.808499999999995
 31
0.0
  0
LINE
  5
53D
  8
0
 10
45.319099999999992
 20
68.808499999999995
 30
0.0
 11
45.319099999999992
 21
66.851100000000002
 31
0.0
  0
LINE
  5
53E
  8
0
 10
51.191499999999998
 20
68.808499999999995
 30
0.0
 11
53.148899999999998
 21
68.808499999999995
 31
0.0
  0
LINE
  5
53F
  8
0
 10
51.191499999999998
 20
68.808499999999995
 30
0.0
 11
53.148899999999998
 21
68.808499999999995
 31
0.0
  0
LINE
  5
540
  8
0
 10
49.233999999999988
 20
66.851100000000002
 30
0.0
 11
49.233999999999988
 21
68.808499999999995
 31
0.0
  0
LINE
  5
541
  8
0
 10
49.233999999999988
 20
68.808499999999995
 30
0.0
 11
49.233999999999988
 21
66.851100000000002
 31
0.0
  0
LINE
  5
542
  8
0
 10
55.106400000000001
 20
68.808499999999995
 30
0.0
 11
57.063800000000001
 21
68.808499999999995
 31
0.0
  0
LINE
  5
543
  8
0
 10
55.106400000000001
 20
68.808499999999995
 30
0.0
 11
57.063800000000001
 21
68.808499999999995
 31
0.0
  0
LINE
  5
544
  8
0
 10
59.021299999999989
 20
68.808499999999995
 30
0.0
 11
60.978700000000003
 21
68.808499999999995
 31
0.0
  0
LINE
  5
545
  8
0
 10
59.021299999999989
 20
68.808499999999995
 30
0.0
 11
60.978700000000003
 21
68.808499999999995
 31
0.0
  0
LINE
  5
546
  8
0
 10
57.063800000000001
 20
66.851100000000002
 30
0.0
 11
57.063800000000001
 21
68.808499999999995
 31
0.0
  0
LINE
  5
547
  8
0
 10
57.063800000000001
 20
68.808499999999995
 30
0.0
 11
57.063800000000001
 21
66.851100000000002
 31
0.0
  0
LINE
  5
548
  8
0
 10
53.148899999999998
 20
66.851100000000002
 30
0.0
 11
53.148899999999998
 21
68.808499999999995
 31
0.0
  0
LINE
  5
549
  8
0
 10
53.148899999999998
 20
68.808499999999995
 30
0.0
 11
53.148899999999998
 21
66.851100000000002
 31
0.0
  0
LINE
  5
54A
  8
0
 10
60.978700000000003
 20
66.851100000000002
 30
0.0
 11
60.978700000000003
 21
68.808499999999995
 31
0.0
  0
LINE
  5
54B
  8
0
 10
45.319099999999992
 20
70.766000000000005
 30
0.0
 11
45.319099999999992
 21
72.723399999999984
 31
0.0
  0
LINE
  5
54C
  8
0
 10
49.233999999999988
 20
70.766000000000005
 30
0.0
 11
49.233999999999988
 21
72.723399999999984
 31
0.0
  0
LINE
  5
54D
  8
0
 10
57.063800000000001
 20
70.766000000000005
 30
0.0
 11
57.063800000000001
 21
72.723399999999984
 31
0.0
  0
LINE
  5
54E
  8
0
 10
53.148899999999998
 20
70.766000000000005
 30
0.0
 11
53.148899999999998
 21
72.723399999999984
 31
0.0
  0
LINE
  5
54F
  8
0
 10
43.361699999999999
 20
72.723399999999984
 30
0.0
 11
45.319099999999992
 21
72.723399999999984
 31
0.0
  0
LINE
  5
550
  8
0
 10
43.361699999999999
 20
72.723399999999984
 30
0.0
 11
45.319099999999992
 21
72.723399999999984
 31
0.0
  0
LINE
  5
551
  8
0
 10
47.276600000000002
 20
72.723399999999984
 30
0.0
 11
49.233999999999988
 21
72.723399999999984
 31
0.0
  0
LINE
  5
552
  8
0
 10
51.191499999999998
 20
72.723399999999984
 30
0.0
 11
53.148899999999998
 21
72.723399999999984
 31
0.0
  0
LINE
  5
553
  8
0
 10
47.276600000000002
 20
72.723399999999984
 30
0.0
 11
49.233999999999988
 21
72.723399999999984
 31
0.0
  0
LINE
  5
554
  8
0
 10
51.191499999999998
 20
72.723399999999984
 30
0.0
 11
53.148899999999998
 21
72.723399999999984
 31
0.0
  0
LINE
  5
555
  8
0
 10
45.319099999999992
 20
72.723399999999984
 30
0.0
 11
45.319099999999992
 21
70.766000000000005
 31
0.0
  0
LINE
  5
556
  8
0
 10
45.319099999999992
 20
74.680899999999994
 30
0.0
 11
45.319099999999992
 21
76.638300000000001
 31
0.0
  0
LINE
  5
557
  8
0
 10
43.361699999999999
 20
76.638300000000001
 30
0.0
 11
45.319099999999992
 21
76.638300000000001
 31
0.0
  0
LINE
  5
558
  8
0
 10
43.361699999999999
 20
76.638300000000001
 30
0.0
 11
45.319099999999992
 21
76.638300000000001
 31
0.0
  0
LINE
  5
559
  8
0
 10
47.276600000000002
 20
76.638300000000001
 30
0.0
 11
49.233999999999988
 21
76.638300000000001
 31
0.0
  0
LINE
  5
55A
  8
0
 10
47.276600000000002
 20
76.638300000000001
 30
0.0
 11
49.233999999999988
 21
76.638300000000001
 31
0.0
  0
LINE
  5
55B
  8
0
 10
45.319099999999992
 20
76.638300000000001
 30
0.0
 11
45.319099999999992
 21
74.680899999999994
 31
0.0
  0
LINE
  5
55C
  8
0
 10
49.233999999999988
 20
74.680899999999994
 30
0.0
 11
49.233999999999988
 21
76.638300000000001
 31
0.0
  0
LINE
  5
55D
  8
0
 10
51.191499999999998
 20
76.638300000000001
 30
0.0
 11
53.148899999999998
 21
76.638300000000001
 31
0.0
  0
LINE
  5
55E
  8
0
 10
51.191499999999998
 20
76.638300000000001
 30
0.0
 11
53.148899999999998
 21
76.638300000000001
 31
0.0
  0
LINE
  5
55F
  8
0
 10
49.233999999999988
 20
76.638300000000001
 30
0.0
 11
49.233999999999988
 21
74.680899999999994
 31
0.0
  0
LINE
  5
560
  8
0
 10
49.233999999999988
 20
72.723399999999984
 30
0.0
 11
49.233999999999988
 21
70.766000000000005
 31
0.0
  0
LINE
  5
561
  8
0
 10
53.148899999999998
 20
74.680899999999994
 30
0.0
 11
53.148899999999998
 21
76.638300000000001
 31
0.0
  0
LINE
  5
562
  8
0
 10
53.148899999999998
 20
76.638300000000001
 30
0.0
 11
53.148899999999998
 21
74.680899999999994
 31
0.0
  0
LINE
  5
563
  8
0
 10
55.106400000000001
 20
72.723399999999984
 30
0.0
 11
57.063800000000001
 21
72.723399999999984
 31
0.0
  0
LINE
  5
564
  8
0
 10
55.106400000000001
 20
72.723399999999984
 30
0.0
 11
57.063800000000001
 21
72.723399999999984
 31
0.0
  0
LINE
  5
565
  8
0
 10
59.021299999999989
 20
72.723399999999984
 30
0.0
 11
60.978700000000003
 21
72.723399999999984
 31
0.0
  0
LINE
  5
566
  8
0
 10
59.021299999999989
 20
72.723399999999984
 30
0.0
 11
60.978700000000003
 21
72.723399999999984
 31
0.0
  0
LINE
  5
567
  8
0
 10
55.106400000000001
 20
76.638300000000001
 30
0.0
 11
57.063800000000001
 21
76.638300000000001
 31
0.0
  0
LINE
  5
568
  8
0
 10
55.106400000000001
 20
76.638300000000001
 30
0.0
 11
57.063800000000001
 21
76.638300000000001
 31
0.0
  0
LINE
  5
569
  8
0
 10
57.063800000000001
 20
74.680899999999994
 30
0.0
 11
57.063800000000001
 21
76.638300000000001
 31
0.0
  0
LINE
  5
56A
  8
0
 10
59.021299999999989
 20
76.638300000000001
 30
0.0
 11
60.978700000000003
 21
76.638300000000001
 31
0.0
  0
LINE
  5
56B
  8
0
 10
59.021299999999989
 20
76.638300000000001
 30
0.0
 11
60.978700000000003
 21
76.638300000000001
 31
0.0
  0
LINE
  5
56C
  8
0
 10
57.063800000000001
 20
76.638300000000001
 30
0.0
 11
57.063800000000001
 21
74.680899999999994
 31
0.0
  0
LINE
  5
56D
  8
0
 10
57.063800000000001
 20
72.723399999999984
 30
0.0
 11
57.063800000000001
 21
70.766000000000005
 31
0.0
  0
LINE
  5
56E
  8
0
 10
53.148899999999998
 20
72.723399999999984
 30
0.0
 11
53.148899999999998
 21
70.766000000000005
 31
0.0
  0
LINE
  5
56F
  8
0
 10
60.978700000000003
 20
70.766000000000005
 30
0.0
 11
60.978700000000003
 21
72.723399999999984
 31
0.0
  0
LINE
  5
570
  8
0
 10
60.978700000000003
 20
74.680899999999994
 30
0.0
 11
60.978700000000003
 21
76.638300000000001
 31
0.0
  0
LINE
  5
571
  8
0
 10
43.361699999999999
 20
80.553200000000004
 30
0.0
 11
45.319099999999992
 21
80.553200000000004
 31
0.0
  0
LINE
  5
572
  8
0
 10
43.361699999999999
 20
80.553200000000004
 30
0.0
 11
45.319099999999992
 21
80.553200000000004
 31
0.0
  0
LINE
  5
573
  8
0
 10
47.276600000000002
 20
80.553200000000004
 30
0.0
 11
49.233999999999988
 21
80.553200000000004
 31
0.0
  0
LINE
  5
574
  8
0
 10
47.276600000000002
 20
80.553200000000004
 30
0.0
 11
49.233999999999988
 21
80.553200000000004
 31
0.0
  0
LINE
  5
575
  8
0
 10
45.319099999999992
 20
78.595699999999994
 30
0.0
 11
45.319099999999992
 21
80.553200000000004
 31
0.0
  0
LINE
  5
576
  8
0
 10
45.319099999999992
 20
80.553200000000004
 30
0.0
 11
45.319099999999992
 21
78.595699999999994
 31
0.0
  0
LINE
  5
577
  8
0
 10
51.191499999999998
 20
80.553200000000004
 30
0.0
 11
53.148899999999998
 21
80.553200000000004
 31
0.0
  0
LINE
  5
578
  8
0
 10
51.191499999999998
 20
80.553200000000004
 30
0.0
 11
53.148899999999998
 21
80.553200000000004
 31
0.0
  0
LINE
  5
579
  8
0
 10
49.233999999999988
 20
78.595699999999994
 30
0.0
 11
49.233999999999988
 21
80.553200000000004
 31
0.0
  0
LINE
  5
57A
  8
0
 10
49.233999999999988
 20
80.553200000000004
 30
0.0
 11
49.233999999999988
 21
78.595699999999994
 31
0.0
  0
LINE
  5
57B
  8
0
 10
55.106400000000001
 20
80.553200000000004
 30
0.0
 11
57.063800000000001
 21
80.553200000000004
 31
0.0
  0
LINE
  5
57C
  8
0
 10
55.106400000000001
 20
80.553200000000004
 30
0.0
 11
57.063800000000001
 21
80.553200000000004
 31
0.0
  0
LINE
  5
57D
  8
0
 10
59.021299999999989
 20
80.553200000000004
 30
0.0
 11
60.978700000000003
 21
80.553200000000004
 31
0.0
  0
LINE
  5
57E
  8
0
 10
59.021299999999989
 20
80.553200000000004
 30
0.0
 11
60.978700000000003
 21
80.553200000000004
 31
0.0
  0
LINE
  5
57F
  8
0
 10
57.063800000000001
 20
78.595699999999994
 30
0.0
 11
57.063800000000001
 21
80.553200000000004
 31
0.0
  0
LINE
  5
580
  8
0
 10
57.063800000000001
 20
80.553200000000004
 30
0.0
 11
57.063800000000001
 21
78.595699999999994
 31
0.0
  0
LINE
  5
581
  8
0
 10
53.148899999999998
 20
78.595699999999994
 30
0.0
 11
53.148899999999998
 21
80.553200000000004
 31
0.0
  0
LINE
  5
582
  8
0
 10
45.319099999999992
 20
82.510599999999997
 30
0.0
 11
45.319099999999992
 21
84.468100000000007
 31
0.0
  0
LINE
  5
583
  8
0
 10
49.233999999999988
 20
82.510599999999997
 30
0.0
 11
49.233999999999988
 21
84.468100000000007
 31
0.0
  0
LINE
  5
584
  8
0
 10
57.063800000000001
 20
82.510599999999997
 30
0.0
 11
57.063800000000001
 21
84.468100000000007
 31
0.0
  0
LINE
  5
585
  8
0
 10
53.148899999999998
 20
82.510599999999997
 30
0.0
 11
53.148899999999998
 21
84.468100000000007
 31
0.0
  0
LINE
  5
586
  8
0
 10
53.148899999999998
 20
80.553200000000004
 30
0.0
 11
53.148899999999998
 21
78.595699999999994
 31
0.0
  0
LINE
  5
587
  8
0
 10
60.978700000000003
 20
78.595699999999994
 30
0.0
 11
60.978700000000003
 21
80.553200000000004
 31
0.0
  0
LINE
  5
588
  8
0
 10
43.361699999999999
 20
84.468100000000007
 30
0.0
 11
45.319099999999992
 21
84.468100000000007
 31
0.0
  0
LINE
  5
589
  8
0
 10
43.361699999999999
 20
84.468100000000007
 30
0.0
 11
45.319099999999992
 21
84.468100000000007
 31
0.0
  0
LINE
  5
58A
  8
0
 10
47.276600000000002
 20
84.468100000000007
 30
0.0
 11
49.233999999999988
 21
84.468100000000007
 31
0.0
  0
LINE
  5
58B
  8
0
 10
51.191499999999998
 20
84.468100000000007
 30
0.0
 11
53.148899999999998
 21
84.468100000000007
 31
0.0
  0
LINE
  5
58C
  8
0
 10
47.276600000000002
 20
84.468100000000007
 30
0.0
 11
49.233999999999988
 21
84.468100000000007
 31
0.0
  0
LINE
  5
58D
  8
0
 10
51.191499999999998
 20
84.468100000000007
 30
0.0
 11
53.148899999999998
 21
84.468100000000007
 31
0.0
  0
LINE
  5
58E
  8
0
 10
45.319099999999992
 20
84.468100000000007
 30
0.0
 11
45.319099999999992
 21
82.510599999999997
 31
0.0
  0
LINE
  5
58F
  8
0
 10
45.319099999999992
 20
86.425499999999985
 30
0.0
 11
45.319099999999992
 21
88.382999999999996
 31
0.0
  0
LINE
  5
590
  8
0
 10
43.361699999999999
 20
88.382999999999996
 30
0.0
 11
45.319099999999992
 21
88.382999999999996
 31
0.0
  0
LINE
  5
591
  8
0
 10
43.361699999999999
 20
88.382999999999996
 30
0.0
 11
45.319099999999992
 21
88.382999999999996
 31
0.0
  0
LINE
  5
592
  8
0
 10
47.276600000000002
 20
88.382999999999996
 30
0.0
 11
49.233999999999988
 21
88.382999999999996
 31
0.0
  0
LINE
  5
593
  8
0
 10
47.276600000000002
 20
88.382999999999996
 30
0.0
 11
49.233999999999988
 21
88.382999999999996
 31
0.0
  0
LINE
  5
594
  8
0
 10
45.319099999999992
 20
88.382999999999996
 30
0.0
 11
45.319099999999992
 21
86.425499999999985
 31
0.0
  0
LINE
  5
595
  8
0
 10
49.233999999999988
 20
86.425499999999985
 30
0.0
 11
49.233999999999988
 21
88.382999999999996
 31
0.0
  0
LINE
  5
596
  8
0
 10
51.191499999999998
 20
88.382999999999996
 30
0.0
 11
53.148899999999998
 21
88.382999999999996
 31
0.0
  0
LINE
  5
597
  8
0
 10
51.191499999999998
 20
88.382999999999996
 30
0.0
 11
53.148899999999998
 21
88.382999999999996
 31
0.0
  0
LINE
  5
598
  8
0
 10
49.233999999999988
 20
88.382999999999996
 30
0.0
 11
49.233999999999988
 21
86.425499999999985
 31
0.0
  0
LINE
  5
599
  8
0
 10
49.233999999999988
 20
84.468100000000007
 30
0.0
 11
49.233999999999988
 21
82.510599999999997
 31
0.0
  0
LINE
  5
59A
  8
0
 10
53.148899999999998
 20
86.425499999999985
 30
0.0
 11
53.148899999999998
 21
88.382999999999996
 31
0.0
  0
LINE
  5
59B
  8
0
 10
53.148899999999998
 20
88.382999999999996
 30
0.0
 11
53.148899999999998
 21
86.425499999999985
 31
0.0
  0
LINE
  5
59C
  8
0
 10
55.106400000000001
 20
84.468100000000007
 30
0.0
 11
57.063800000000001
 21
84.468100000000007
 31
0.0
  0
LINE
  5
59D
  8
0
 10
55.106400000000001
 20
84.468100000000007
 30
0.0
 11
57.063800000000001
 21
84.468100000000007
 31
0.0
  0
LINE
  5
59E
  8
0
 10
59.021299999999989
 20
84.468100000000007
 30
0.0
 11
60.978700000000003
 21
84.468100000000007
 31
0.0
  0
LINE
  5
59F
  8
0
 10
59.021299999999989
 20
84.468100000000007
 30
0.0
 11
60.978700000000003
 21
84.468100000000007
 31
0.0
  0
LINE
  5
5A0
  8
0
 10
55.106400000000001
 20
88.382999999999996
 30
0.0
 11
57.063800000000001
 21
88.382999999999996
 31
0.0
  0
LINE
  5
5A1
  8
0
 10
55.106400000000001
 20
88.382999999999996
 30
0.0
 11
57.063800000000001
 21
88.382999999999996
 31
0.0
  0
LINE
  5
5A2
  8
0
 10
57.063800000000001
 20
86.425499999999985
 30
0.0
 11
57.063800000000001
 21
88.382999999999996
 31
0.0
  0
LINE
  5
5A3
  8
0
 10
59.021299999999989
 20
88.382999999999996
 30
0.0
 11
60.978700000000003
 21
88.382999999999996
 31
0.0
  0
LINE
  5
5A4
  8
0
 10
59.021299999999989
 20
88.382999999999996
 30
0.0
 11
60.978700000000003
 21
88.382999999999996
 31
0.0
  0
LINE
  5
5A5
  8
0
 10
57.063800000000001
 20
88.382999999999996
 30
0.0
 11
57.063800000000001
 21
86.425499999999985
 31
0.0
  0
LINE
  5
5A6
  8
0
 10
57.063800000000001
 20
84.468100000000007
 30
0.0
 11
57.063800000000001
 21
82.510599999999997
 31
0.0
  0
LINE
  5
5A7
  8
0
 10
53.148899999999998
 20
84.468100000000007
 30
0.0
 11
53.148899999999998
 21
82.510599999999997
 31
0.0
  0
LINE
  5
5A8
  8
0
 10
60.978700000000003
 20
82.510599999999997
 30
0.0
 11
60.978700000000003
 21
84.468100000000007
 31
0.0
  0
LINE
  5
5A9
  8
0
 10
60.978700000000003
 20
86.425499999999985
 30
0.0
 11
60.978700000000003
 21
88.382999999999996
 31
0.0
  0
LINE
  5
5AA
  8
0
 10
60.978700000000003
 20
76.638300000000001
 30
0.0
 11
60.978700000000003
 21
74.680899999999994
 31
0.0
  0
LINE
  5
5AB
  8
0
 10
60.978700000000003
 20
80.553200000000004
 30
0.0
 11
60.978700000000003
 21
78.595699999999994
 31
0.0
  0
LINE
  5
5AC
  8
0
 10
45.319099999999992
 20
90.340400000000002
 30
0.0
 11
45.319099999999992
 21
92.297899999999984
 31
0.0
  0
LINE
  5
5AD
  8
0
 10
49.233999999999988
 20
90.340400000000002
 30
0.0
 11
49.233999999999988
 21
92.297899999999984
 31
0.0
  0
LINE
  5
5AE
  8
0
 10
57.063800000000001
 20
90.340400000000002
 30
0.0
 11
57.063800000000001
 21
92.297899999999984
 31
0.0
  0
LINE
  5
5AF
  8
0
 10
53.148899999999998
 20
90.340400000000002
 30
0.0
 11
53.148899999999998
 21
92.297899999999984
 31
0.0
  0
LINE
  5
5B0
  8
0
 10
43.361699999999999
 20
92.297899999999984
 30
0.0
 11
45.319099999999992
 21
92.297899999999984
 31
0.0
  0
LINE
  5
5B1
  8
0
 10
43.361699999999999
 20
92.297899999999984
 30
0.0
 11
45.319099999999992
 21
92.297899999999984
 31
0.0
  0
LINE
  5
5B2
  8
0
 10
47.276600000000002
 20
92.297899999999984
 30
0.0
 11
49.233999999999988
 21
92.297899999999984
 31
0.0
  0
LINE
  5
5B3
  8
0
 10
51.191499999999998
 20
92.297899999999984
 30
0.0
 11
53.148899999999998
 21
92.297899999999984
 31
0.0
  0
LINE
  5
5B4
  8
0
 10
47.276600000000002
 20
92.297899999999984
 30
0.0
 11
49.233999999999988
 21
92.297899999999984
 31
0.0
  0
LINE
  5
5B5
  8
0
 10
51.191499999999998
 20
92.297899999999984
 30
0.0
 11
53.148899999999998
 21
92.297899999999984
 31
0.0
  0
LINE
  5
5B6
  8
0
 10
45.319099999999992
 20
92.297899999999984
 30
0.0
 11
45.319099999999992
 21
90.340400000000002
 31
0.0
  0
LINE
  5
5B7
  8
0
 10
45.319099999999992
 20
94.255300000000005
 30
0.0
 11
45.319099999999992
 21
96.212800000000001
 31
0.0
  0
LINE
  5
5B8
  8
0
 10
43.361699999999999
 20
96.212800000000001
 30
0.0
 11
45.319099999999992
 21
96.212800000000001
 31
0.0
  0
LINE
  5
5B9
  8
0
 10
43.361699999999999
 20
96.212800000000001
 30
0.0
 11
45.319099999999992
 21
96.212800000000001
 31
0.0
  0
LINE
  5
5BA
  8
0
 10
47.276600000000002
 20
96.212800000000001
 30
0.0
 11
49.233999999999988
 21
96.212800000000001
 31
0.0
  0
LINE
  5
5BB
  8
0
 10
47.276600000000002
 20
96.212800000000001
 30
0.0
 11
49.233999999999988
 21
96.212800000000001
 31
0.0
  0
LINE
  5
5BC
  8
0
 10
45.319099999999992
 20
96.212800000000001
 30
0.0
 11
45.319099999999992
 21
94.255300000000005
 31
0.0
  0
LINE
  5
5BD
  8
0
 10
49.233999999999988
 20
94.255300000000005
 30
0.0
 11
49.233999999999988
 21
96.212800000000001
 31
0.0
  0
LINE
  5
5BE
  8
0
 10
51.191499999999998
 20
96.212800000000001
 30
0.0
 11
53.148899999999998
 21
96.212800000000001
 31
0.0
  0
LINE
  5
5BF
  8
0
 10
51.191499999999998
 20
96.212800000000001
 30
0.0
 11
53.148899999999998
 21
96.212800000000001
 31
0.0
  0
LINE
  5
5C0
  8
0
 10
49.233999999999988
 20
96.212800000000001
 30
0.0
 11
49.233999999999988
 21
94.255300000000005
 31
0.0
  0
LINE
  5
5C1
  8
0
 10
49.233999999999988
 20
92.297899999999984
 30
0.0
 11
49.233999999999988
 21
90.340400000000002
 31
0.0
  0
LINE
  5
5C2
  8
0
 10
53.148899999999998
 20
94.255300000000005
 30
0.0
 11
53.148899999999998
 21
96.212800000000001
 31
0.0
  0
LINE
  5
5C3
  8
0
 10
53.148899999999998
 20
96.212800000000001
 30
0.0
 11
53.148899999999998
 21
94.255300000000005
 31
0.0
  0
LINE
  5
5C4
  8
0
 10
55.106400000000001
 20
92.297899999999984
 30
0.0
 11
57.063800000000001
 21
92.297899999999984
 31
0.0
  0
LINE
  5
5C5
  8
0
 10
55.106400000000001
 20
92.297899999999984
 30
0.0
 11
57.063800000000001
 21
92.297899999999984
 31
0.0
  0
LINE
  5
5C6
  8
0
 10
59.021299999999989
 20
92.297899999999984
 30
0.0
 11
60.978700000000003
 21
92.297899999999984
 31
0.0
  0
LINE
  5
5C7
  8
0
 10
59.021299999999989
 20
92.297899999999984
 30
0.0
 11
60.978700000000003
 21
92.297899999999984
 31
0.0
  0
LINE
  5
5C8
  8
0
 10
55.106400000000001
 20
96.212800000000001
 30
0.0
 11
57.063800000000001
 21
96.212800000000001
 31
0.0
  0
LINE
  5
5C9
  8
0
 10
55.106400000000001
 20
96.212800000000001
 30
0.0
 11
57.063800000000001
 21
96.212800000000001
 31
0.0
  0
LINE
  5
5CA
  8
0
 10
57.063800000000001
 20
94.255300000000005
 30
0.0
 11
57.063800000000001
 21
96.212800000000001
 31
0.0
  0
LINE
  5
5CB
  8
0
 10
59.021299999999989
 20
96.212800000000001
 30
0.0
 11
60.978700000000003
 21
96.212800000000001
 31
0.0
  0
LINE
  5
5CC
  8
0
 10
59.021299999999989
 20
96.212800000000001
 30
0.0
 11
60.978700000000003
 21
96.212800000000001
 31
0.0
  0
LINE
  5
5CD
  8
0
 10
57.063800000000001
 20
96.212800000000001
 30
0.0
 11
57.063800000000001
 21
94.255300000000005
 31
0.0
  0
LINE
  5
5CE
  8
0
 10
57.063800000000001
 20
92.297899999999984
 30
0.0
 11
57.063800000000001
 21
90.340400000000002
 31
0.0
  0
LINE
  5
5CF
  8
0
 10
53.148899999999998
 20
92.297899999999984
 30
0.0
 11
53.148899999999998
 21
90.340400000000002
 31
0.0
  0
LINE
  5
5D0
  8
0
 10
60.978700000000003
 20
90.340400000000002
 30
0.0
 11
60.978700000000003
 21
92.297899999999984
 31
0.0
  0
LINE
  5
5D1
  8
0
 10
60.978700000000003
 20
94.255300000000005
 30
0.0
 11
60.978700000000003
 21
96.212800000000001
 31
0.0
  0
LINE
  5
5D2
  8
0
 10
60.978700000000003
 20
88.382999999999996
 30
0.0
 11
60.978700000000003
 21
86.425499999999985
 31
0.0
  0
LINE
  5
5D3
  8
0
 10
60.978700000000003
 20
84.468100000000007
 30
0.0
 11
60.978700000000003
 21
82.510599999999997
 31
0.0
  0
LINE
  5
5D4
  8
0
 10
43.361699999999999
 20
100.1279999999999
 30
0.0
 11
45.319099999999992
 21
100.1279999999999
 31
0.0
  0
LINE
  5
5D5
  8
0
 10
43.361699999999999
 20
100.1279999999999
 30
0.0
 11
45.319099999999992
 21
100.1279999999999
 31
0.0
  0
LINE
  5
5D6
  8
0
 10
47.276600000000002
 20
100.1279999999999
 30
0.0
 11
49.233999999999988
 21
100.1279999999999
 31
0.0
  0
LINE
  5
5D7
  8
0
 10
47.276600000000002
 20
100.1279999999999
 30
0.0
 11
49.233999999999988
 21
100.1279999999999
 31
0.0
  0
LINE
  5
5D8
  8
0
 10
45.319099999999992
 20
98.170199999999994
 30
0.0
 11
45.319099999999992
 21
100.1279999999999
 31
0.0
  0
LINE
  5
5D9
  8
0
 10
45.319099999999992
 20
100.1279999999999
 30
0.0
 11
45.319099999999992
 21
98.170199999999994
 31
0.0
  0
LINE
  5
5DA
  8
0
 10
51.191499999999998
 20
100.1279999999999
 30
0.0
 11
53.148899999999998
 21
100.1279999999999
 31
0.0
  0
LINE
  5
5DB
  8
0
 10
51.191499999999998
 20
100.1279999999999
 30
0.0
 11
53.148899999999998
 21
100.1279999999999
 31
0.0
  0
LINE
  5
5DC
  8
0
 10
49.233999999999988
 20
98.170199999999994
 30
0.0
 11
49.233999999999988
 21
100.1279999999999
 31
0.0
  0
LINE
  5
5DD
  8
0
 10
49.233999999999988
 20
100.1279999999999
 30
0.0
 11
49.233999999999988
 21
98.170199999999994
 31
0.0
  0
LINE
  5
5DE
  8
0
 10
55.106400000000001
 20
100.1279999999999
 30
0.0
 11
57.063800000000001
 21
100.1279999999999
 31
0.0
  0
LINE
  5
5DF
  8
0
 10
55.106400000000001
 20
100.1279999999999
 30
0.0
 11
57.063800000000001
 21
100.1279999999999
 31
0.0
  0
LINE
  5
5E0
  8
0
 10
59.021299999999989
 20
100.1279999999999
 30
0.0
 11
60.978700000000003
 21
100.1279999999999
 31
0.0
  0
LINE
  5
5E1
  8
0
 10
59.021299999999989
 20
100.1279999999999
 30
0.0
 11
60.978700000000003
 21
100.1279999999999
 31
0.0
  0
LINE
  5
5E2
  8
0
 10
57.063800000000001
 20
98.170199999999994
 30
0.0
 11
57.063800000000001
 21
100.1279999999999
 31
0.0
  0
LINE
  5
5E3
  8
0
 10
57.063800000000001
 20
100.1279999999999
 30
0.0
 11
57.063800000000001
 21
98.170199999999994
 31
0.0
  0
LINE
  5
5E4
  8
0
 10
53.148899999999998
 20
98.170199999999994
 30
0.0
 11
53.148899999999998
 21
100.1279999999999
 31
0.0
  0
LINE
  5
5E5
  8
0
 10
53.148899999999998
 20
100.1279999999999
 30
0.0
 11
53.148899999999998
 21
98.170199999999994
 31
0.0
  0
LINE
  5
5E6
  8
0
 10
60.978700000000003
 20
98.170199999999994
 30
0.0
 11
60.978700000000003
 21
100.1279999999999
 31
0.0
  0
LINE
  5
5E7
  8
0
 10
45.319099999999992
 20
102.08499999999999
 30
0.0
 11
45.319099999999992
 21
104.04299999999991
 31
0.0
  0
LINE
  5
5E8
  8
0
 10
49.233999999999988
 20
102.08499999999999
 30
0.0
 11
49.233999999999988
 21
104.04299999999991
 31
0.0
  0
LINE
  5
5E9
  8
0
 10
57.063800000000001
 20
102.08499999999999
 30
0.0
 11
57.063800000000001
 21
104.04299999999991
 31
0.0
  0
LINE
  5
5EA
  8
0
 10
53.148899999999998
 20
102.08499999999999
 30
0.0
 11
53.148899999999998
 21
104.04299999999991
 31
0.0
  0
LINE
  5
5EB
  8
0
 10
47.276600000000002
 20
104.04299999999991
 30
0.0
 11
49.233999999999988
 21
104.04299999999991
 31
0.0
  0
LINE
  5
5EC
  8
0
 10
43.361699999999999
 20
104.04299999999991
 30
0.0
 11
45.319099999999992
 21
104.04299999999991
 31
0.0
  0
LINE
  5
5ED
  8
0
 10
43.361699999999999
 20
104.04299999999991
 30
0.0
 11
45.319099999999992
 21
104.04299999999991
 31
0.0
  0
LINE
  5
5EE
  8
0
 10
47.276600000000002
 20
104.04299999999991
 30
0.0
 11
49.233999999999988
 21
104.04299999999991
 31
0.0
  0
LINE
  5
5EF
  8
0
 10
45.319099999999992
 20
104.04299999999991
 30
0.0
 11
45.319099999999992
 21
102.08499999999999
 31
0.0
  0
LINE
  5
5F0
  8
0
 10
51.191499999999998
 20
104.04299999999991
 30
0.0
 11
53.148899999999998
 21
104.04299999999991
 31
0.0
  0
LINE
  5
5F1
  8
0
 10
51.191499999999998
 20
104.04299999999991
 30
0.0
 11
53.148899999999998
 21
104.04299999999991
 31
0.0
  0
LINE
  5
5F2
  8
0
 10
49.233999999999988
 20
104.04299999999991
 30
0.0
 11
49.233999999999988
 21
102.08499999999999
 31
0.0
  0
LINE
  5
5F3
  8
0
 10
47.276600000000002
 20
108.0
 30
0.0
 11
47.276600000000002
 21
12.0
 31
0.0
  0
LINE
  5
5F4
  8
0
 10
45.319099999999992
 20
106.0
 30
0.0
 11
45.319099999999992
 21
108.0
 31
0.0
  0
LINE
  5
5F5
  8
0
 10
45.319099999999992
 20
108.0
 30
0.0
 11
45.319099999999992
 21
106.0
 31
0.0
  0
LINE
  5
5F6
  8
0
 10
45.319099999999992
 20
108.0
 30
0.0
 11
47.276600000000002
 21
108.0
 31
0.0
  0
LINE
  5
5F7
  8
0
 10
45.319099999999992
 20
108.0
 30
0.0
 11
45.319099999999992
 21
12.0
 31
0.0
  0
LINE
  5
5F8
  8
0
 10
51.191499999999998
 20
108.0
 30
0.0
 11
51.191499999999998
 21
12.0
 31
0.0
  0
LINE
  5
5F9
  8
0
 10
49.233999999999988
 20
106.0
 30
0.0
 11
49.233999999999988
 21
108.0
 31
0.0
  0
LINE
  5
5FA
  8
0
 10
49.233999999999988
 20
108.0
 30
0.0
 11
49.233999999999988
 21
106.0
 31
0.0
  0
LINE
  5
5FB
  8
0
 10
49.233999999999988
 20
108.0
 30
0.0
 11
51.191499999999998
 21
108.0
 31
0.0
  0
LINE
  5
5FC
  8
0
 10
49.233999999999988
 20
108.0
 30
0.0
 11
49.233999999999988
 21
12.0
 31
0.0
  0
LINE
  5
5FD
  8
0
 10
53.148899999999998
 20
106.0
 30
0.0
 11
53.148899999999998
 21
108.0
 31
0.0
  0
LINE
  5
5FE
  8
0
 10
53.148899999999998
 20
104.04299999999991
 30
0.0
 11
53.148899999999998
 21
102.08499999999999
 31
0.0
  0
LINE
  5
5FF
  8
0
 10
55.106400000000001
 20
104.04299999999991
 30
0.0
 11
57.063800000000001
 21
104.04299999999991
 31
0.0
  0
LINE
  5
600
  8
0
 10
55.106400000000001
 20
104.04299999999991
 30
0.0
 11
57.063800000000001
 21
104.04299999999991
 31
0.0
  0
LINE
  5
601
  8
0
 10
57.063800000000001
 20
106.0
 30
0.0
 11
57.063800000000001
 21
108.0
 31
0.0
  0
LINE
  5
602
  8
0
 10
57.063800000000001
 20
104.04299999999991
 30
0.0
 11
57.063800000000001
 21
102.08499999999999
 31
0.0
  0
LINE
  5
603
  8
0
 10
59.021299999999989
 20
104.04299999999991
 30
0.0
 11
60.978700000000003
 21
104.04299999999991
 31
0.0
  0
LINE
  5
604
  8
0
 10
59.021299999999989
 20
104.04299999999991
 30
0.0
 11
60.978700000000003
 21
104.04299999999991
 31
0.0
  0
LINE
  5
605
  8
0
 10
59.021299999999989
 20
108.0
 30
0.0
 11
59.021299999999989
 21
12.0
 31
0.0
  0
LINE
  5
606
  8
0
 10
57.063800000000001
 20
108.0
 30
0.0
 11
57.063800000000001
 21
106.0
 31
0.0
  0
LINE
  5
607
  8
0
 10
57.063800000000001
 20
108.0
 30
0.0
 11
59.021299999999989
 21
108.0
 31
0.0
  0
LINE
  5
608
  8
0
 10
57.063800000000001
 20
108.0
 30
0.0
 11
57.063800000000001
 21
12.0
 31
0.0
  0
LINE
  5
609
  8
0
 10
55.106400000000001
 20
108.0
 30
0.0
 11
55.106400000000001
 21
12.0
 31
0.0
  0
LINE
  5
60A
  8
0
 10
53.148899999999998
 20
108.0
 30
0.0
 11
53.148899999999998
 21
106.0
 31
0.0
  0
LINE
  5
60B
  8
0
 10
53.148899999999998
 20
108.0
 30
0.0
 11
55.106400000000001
 21
108.0
 31
0.0
  0
LINE
  5
60C
  8
0
 10
53.148899999999998
 20
108.0
 30
0.0
 11
53.148899999999998
 21
12.0
 31
0.0
  0
LINE
  5
60D
  8
0
 10
60.978700000000003
 20
102.08499999999999
 30
0.0
 11
60.978700000000003
 21
104.04299999999991
 31
0.0
  0
LINE
  5
60E
  8
0
 10
60.978700000000003
 20
106.0
 30
0.0
 11
60.978700000000003
 21
108.0
 31
0.0
  0
LINE
  5
60F
  8
0
 10
60.978700000000003
 20
100.1279999999999
 30
0.0
 11
60.978700000000003
 21
98.170199999999994
 31
0.0
  0
LINE
  5
610
  8
0
 10
60.978700000000003
 20
104.04299999999991
 30
0.0
 11
60.978700000000003
 21
102.08499999999999
 31
0.0
  0
LINE
  5
611
  8
0
 10
60.978700000000003
 20
96.212800000000001
 30
0.0
 11
60.978700000000003
 21
94.255300000000005
 31
0.0
  0
LINE
  5
612
  8
0
 10
60.978700000000003
 20
92.297899999999984
 30
0.0
 11
60.978700000000003
 21
90.340400000000002
 31
0.0
  0
LINE
  5
613
  8
0
 10
60.978700000000003
 20
68.808499999999995
 30
0.0
 11
60.978700000000003
 21
66.851100000000002
 31
0.0
  0
LINE
  5
614
  8
0
 10
60.978700000000003
 20
72.723399999999984
 30
0.0
 11
60.978700000000003
 21
70.766000000000005
 31
0.0
  0
LINE
  5
615
  8
0
 10
60.978700000000003
 20
64.893600000000006
 30
0.0
 11
60.978700000000003
 21
62.936199999999999
 31
0.0
  0
LINE
  5
616
  8
0
 10
60.978700000000003
 20
60.978700000000003
 30
0.0
 11
60.978700000000003
 21
59.021299999999989
 31
0.0
  0
LINE
  5
617
  8
0
 10
60.978700000000003
 20
41.404299999999999
 30
0.0
 11
60.978700000000003
 21
39.446800000000003
 31
0.0
  0
LINE
  5
618
  8
0
 10
60.978700000000003
 20
37.489400000000003
 30
0.0
 11
60.978700000000003
 21
35.5319
 31
0.0
  0
LINE
  5
619
  8
0
 10
60.978700000000003
 20
25.744700000000002
 30
0.0
 11
60.978700000000003
 21
23.787199999999991
 31
0.0
  0
LINE
  5
61A
  8
0
 10
60.978700000000003
 20
17.914899999999999
 30
0.0
 11
60.978700000000003
 21
15.9574
 31
0.0
  0
LINE
  5
61B
  8
0
 10
60.978700000000003
 20
14.0
 30
0.0
 11
60.978700000000003
 21
12.0
 31
0.0
  0
LINE
  5
61C
  8
0
 10
62.936199999999999
 20
14.0
 30
0.0
 11
64.893600000000006
 21
14.0
 31
0.0
  0
LINE
  5
61D
  8
0
 10
62.936199999999999
 20
14.0
 30
0.0
 11
64.893600000000006
 21
14.0
 31
0.0
  0
LINE
  5
61E
  8
0
 10
62.936199999999999
 20
21.829799999999999
 30
0.0
 11
64.893600000000006
 21
21.829799999999999
 31
0.0
  0
LINE
  5
61F
  8
0
 10
62.936199999999999
 20
21.829799999999999
 30
0.0
 11
64.893600000000006
 21
21.829799999999999
 31
0.0
  0
LINE
  5
620
  8
0
 10
62.936199999999999
 20
17.914899999999999
 30
0.0
 11
64.893600000000006
 21
17.914899999999999
 31
0.0
  0
LINE
  5
621
  8
0
 10
62.936199999999999
 20
17.914899999999999
 30
0.0
 11
64.893600000000006
 21
17.914899999999999
 31
0.0
  0
LINE
  5
622
  8
0
 10
62.936199999999999
 20
25.744700000000002
 30
0.0
 11
64.893600000000006
 21
25.744700000000002
 31
0.0
  0
LINE
  5
623
  8
0
 10
62.936199999999999
 20
25.744700000000002
 30
0.0
 11
64.893600000000006
 21
25.744700000000002
 31
0.0
  0
LINE
  5
624
  8
0
 10
64.893600000000006
 20
23.787199999999991
 30
0.0
 11
64.893600000000006
 21
25.744700000000002
 31
0.0
  0
LINE
  5
625
  8
0
 10
64.893600000000006
 20
19.872299999999999
 30
0.0
 11
64.893600000000006
 21
21.829799999999999
 31
0.0
  0
LINE
  5
626
  8
0
 10
64.893600000000006
 20
15.9574
 30
0.0
 11
64.893600000000006
 21
17.914899999999999
 31
0.0
  0
LINE
  5
627
  8
0
 10
64.893600000000006
 20
21.829799999999999
 30
0.0
 11
64.893600000000006
 21
19.872299999999999
 31
0.0
  0
LINE
  5
628
  8
0
 10
62.936199999999999
 20
29.659600000000001
 30
0.0
 11
64.893600000000006
 21
29.659600000000001
 31
0.0
  0
LINE
  5
629
  8
0
 10
62.936199999999999
 20
29.659600000000001
 30
0.0
 11
64.893600000000006
 21
29.659600000000001
 31
0.0
  0
LINE
  5
62A
  8
0
 10
64.893600000000006
 20
27.702100000000002
 30
0.0
 11
64.893600000000006
 21
29.659600000000001
 31
0.0
  0
LINE
  5
62B
  8
0
 10
62.936199999999999
 20
33.5745
 30
0.0
 11
64.893600000000006
 21
33.5745
 31
0.0
  0
LINE
  5
62C
  8
0
 10
62.936199999999999
 20
33.5745
 30
0.0
 11
64.893600000000006
 21
33.5745
 31
0.0
  0
LINE
  5
62D
  8
0
 10
64.893600000000006
 20
31.61699999999999
 30
0.0
 11
64.893600000000006
 21
33.5745
 31
0.0
  0
LINE
  5
62E
  8
0
 10
62.936199999999999
 20
41.404299999999999
 30
0.0
 11
64.893600000000006
 21
41.404299999999999
 31
0.0
  0
LINE
  5
62F
  8
0
 10
62.936199999999999
 20
41.404299999999999
 30
0.0
 11
64.893600000000006
 21
41.404299999999999
 31
0.0
  0
LINE
  5
630
  8
0
 10
62.936199999999999
 20
37.489400000000003
 30
0.0
 11
64.893600000000006
 21
37.489400000000003
 31
0.0
  0
LINE
  5
631
  8
0
 10
62.936199999999999
 20
37.489400000000003
 30
0.0
 11
64.893600000000006
 21
37.489400000000003
 31
0.0
  0
LINE
  5
632
  8
0
 10
64.893600000000006
 20
35.5319
 30
0.0
 11
64.893600000000006
 21
37.489400000000003
 31
0.0
  0
LINE
  5
633
  8
0
 10
64.893600000000006
 20
39.446800000000003
 30
0.0
 11
64.893600000000006
 21
41.404299999999999
 31
0.0
  0
LINE
  5
634
  8
0
 10
64.893600000000006
 20
29.659600000000001
 30
0.0
 11
64.893600000000006
 21
27.702100000000002
 31
0.0
  0
LINE
  5
635
  8
0
 10
64.893600000000006
 20
33.5745
 30
0.0
 11
64.893600000000006
 21
31.61699999999999
 31
0.0
  0
LINE
  5
636
  8
0
 10
64.893600000000006
 20
43.361699999999999
 30
0.0
 11
64.893600000000006
 21
45.319099999999992
 31
0.0
  0
LINE
  5
637
  8
0
 10
62.936199999999999
 20
45.319099999999992
 30
0.0
 11
64.893600000000006
 21
45.319099999999992
 31
0.0
  0
LINE
  5
638
  8
0
 10
62.936199999999999
 20
45.319099999999992
 30
0.0
 11
64.893600000000006
 21
45.319099999999992
 31
0.0
  0
LINE
  5
639
  8
0
 10
62.936199999999999
 20
49.233999999999988
 30
0.0
 11
64.893600000000006
 21
49.233999999999988
 31
0.0
  0
LINE
  5
63A
  8
0
 10
62.936199999999999
 20
49.233999999999988
 30
0.0
 11
64.893600000000006
 21
49.233999999999988
 31
0.0
  0
LINE
  5
63B
  8
0
 10
64.893600000000006
 20
47.276600000000002
 30
0.0
 11
64.893600000000006
 21
49.233999999999988
 31
0.0
  0
LINE
  5
63C
  8
0
 10
62.936199999999999
 20
53.148899999999998
 30
0.0
 11
64.893600000000006
 21
53.148899999999998
 31
0.0
  0
LINE
  5
63D
  8
0
 10
62.936199999999999
 20
53.148899999999998
 30
0.0
 11
64.893600000000006
 21
53.148899999999998
 31
0.0
  0
LINE
  5
63E
  8
0
 10
64.893600000000006
 20
51.191499999999998
 30
0.0
 11
64.893600000000006
 21
53.148899999999998
 31
0.0
  0
LINE
  5
63F
  8
0
 10
64.893600000000006
 20
55.106400000000001
 30
0.0
 11
64.893600000000006
 21
57.063800000000001
 31
0.0
  0
LINE
  5
640
  8
0
 10
64.893600000000006
 20
45.319099999999992
 30
0.0
 11
64.893600000000006
 21
43.361699999999999
 31
0.0
  0
LINE
  5
641
  8
0
 10
64.893600000000006
 20
49.233999999999988
 30
0.0
 11
64.893600000000006
 21
47.276600000000002
 31
0.0
  0
LINE
  5
642
  8
0
 10
62.936199999999999
 20
57.063800000000001
 30
0.0
 11
64.893600000000006
 21
57.063800000000001
 31
0.0
  0
LINE
  5
643
  8
0
 10
62.936199999999999
 20
57.063800000000001
 30
0.0
 11
64.893600000000006
 21
57.063800000000001
 31
0.0
  0
LINE
  5
644
  8
0
 10
62.936199999999999
 20
64.893600000000006
 30
0.0
 11
64.893600000000006
 21
64.893600000000006
 31
0.0
  0
LINE
  5
645
  8
0
 10
62.936199999999999
 20
64.893600000000006
 30
0.0
 11
64.893600000000006
 21
64.893600000000006
 31
0.0
  0
LINE
  5
646
  8
0
 10
62.936199999999999
 20
60.978700000000003
 30
0.0
 11
64.893600000000006
 21
60.978700000000003
 31
0.0
  0
LINE
  5
647
  8
0
 10
62.936199999999999
 20
60.978700000000003
 30
0.0
 11
64.893600000000006
 21
60.978700000000003
 31
0.0
  0
LINE
  5
648
  8
0
 10
64.893600000000006
 20
59.021299999999989
 30
0.0
 11
64.893600000000006
 21
60.978700000000003
 31
0.0
  0
LINE
  5
649
  8
0
 10
64.893600000000006
 20
62.936199999999999
 30
0.0
 11
64.893600000000006
 21
64.893600000000006
 31
0.0
  0
LINE
  5
64A
  8
0
 10
64.893600000000006
 20
57.063800000000001
 30
0.0
 11
64.893600000000006
 21
55.106400000000001
 31
0.0
  0
LINE
  5
64B
  8
0
 10
64.893600000000006
 20
53.148899999999998
 30
0.0
 11
64.893600000000006
 21
51.191499999999998
 31
0.0
  0
LINE
  5
64C
  8
0
 10
62.936199999999999
 20
68.808499999999995
 30
0.0
 11
64.893600000000006
 21
68.808499999999995
 31
0.0
  0
LINE
  5
64D
  8
0
 10
62.936199999999999
 20
68.808499999999995
 30
0.0
 11
64.893600000000006
 21
68.808499999999995
 31
0.0
  0
LINE
  5
64E
  8
0
 10
64.893600000000006
 20
66.851100000000002
 30
0.0
 11
64.893600000000006
 21
68.808499999999995
 31
0.0
  0
LINE
  5
64F
  8
0
 10
62.936199999999999
 20
76.638300000000001
 30
0.0
 11
64.893600000000006
 21
76.638300000000001
 31
0.0
  0
LINE
  5
650
  8
0
 10
62.936199999999999
 20
76.638300000000001
 30
0.0
 11
64.893600000000006
 21
76.638300000000001
 31
0.0
  0
LINE
  5
651
  8
0
 10
62.936199999999999
 20
72.723399999999984
 30
0.0
 11
64.893600000000006
 21
72.723399999999984
 31
0.0
  0
LINE
  5
652
  8
0
 10
62.936199999999999
 20
72.723399999999984
 30
0.0
 11
64.893600000000006
 21
72.723399999999984
 31
0.0
  0
LINE
  5
653
  8
0
 10
64.893600000000006
 20
70.766000000000005
 30
0.0
 11
64.893600000000006
 21
72.723399999999984
 31
0.0
  0
LINE
  5
654
  8
0
 10
64.893600000000006
 20
74.680899999999994
 30
0.0
 11
64.893600000000006
 21
76.638300000000001
 31
0.0
  0
LINE
  5
655
  8
0
 10
62.936199999999999
 20
80.553200000000004
 30
0.0
 11
64.893600000000006
 21
80.553200000000004
 31
0.0
  0
LINE
  5
656
  8
0
 10
62.936199999999999
 20
80.553200000000004
 30
0.0
 11
64.893600000000006
 21
80.553200000000004
 31
0.0
  0
LINE
  5
657
  8
0
 10
64.893600000000006
 20
78.595699999999994
 30
0.0
 11
64.893600000000006
 21
80.553200000000004
 31
0.0
  0
LINE
  5
658
  8
0
 10
62.936199999999999
 20
88.382999999999996
 30
0.0
 11
64.893600000000006
 21
88.382999999999996
 31
0.0
  0
LINE
  5
659
  8
0
 10
62.936199999999999
 20
88.382999999999996
 30
0.0
 11
64.893600000000006
 21
88.382999999999996
 31
0.0
  0
LINE
  5
65A
  8
0
 10
62.936199999999999
 20
84.468100000000007
 30
0.0
 11
64.893600000000006
 21
84.468100000000007
 31
0.0
  0
LINE
  5
65B
  8
0
 10
62.936199999999999
 20
84.468100000000007
 30
0.0
 11
64.893600000000006
 21
84.468100000000007
 31
0.0
  0
LINE
  5
65C
  8
0
 10
64.893600000000006
 20
82.510599999999997
 30
0.0
 11
64.893600000000006
 21
84.468100000000007
 31
0.0
  0
LINE
  5
65D
  8
0
 10
64.893600000000006
 20
86.425499999999985
 30
0.0
 11
64.893600000000006
 21
88.382999999999996
 31
0.0
  0
LINE
  5
65E
  8
0
 10
64.893600000000006
 20
76.638300000000001
 30
0.0
 11
64.893600000000006
 21
74.680899999999994
 31
0.0
  0
LINE
  5
65F
  8
0
 10
64.893600000000006
 20
80.553200000000004
 30
0.0
 11
64.893600000000006
 21
78.595699999999994
 31
0.0
  0
LINE
  5
660
  8
0
 10
62.936199999999999
 20
96.212800000000001
 30
0.0
 11
64.893600000000006
 21
96.212800000000001
 31
0.0
  0
LINE
  5
661
  8
0
 10
62.936199999999999
 20
96.212800000000001
 30
0.0
 11
64.893600000000006
 21
96.212800000000001
 31
0.0
  0
LINE
  5
662
  8
0
 10
62.936199999999999
 20
92.297899999999984
 30
0.0
 11
64.893600000000006
 21
92.297899999999984
 31
0.0
  0
LINE
  5
663
  8
0
 10
62.936199999999999
 20
92.297899999999984
 30
0.0
 11
64.893600000000006
 21
92.297899999999984
 31
0.0
  0
LINE
  5
664
  8
0
 10
64.893600000000006
 20
90.340400000000002
 30
0.0
 11
64.893600000000006
 21
92.297899999999984
 31
0.0
  0
LINE
  5
665
  8
0
 10
64.893600000000006
 20
94.255300000000005
 30
0.0
 11
64.893600000000006
 21
96.212800000000001
 31
0.0
  0
LINE
  5
666
  8
0
 10
64.893600000000006
 20
88.382999999999996
 30
0.0
 11
64.893600000000006
 21
86.425499999999985
 31
0.0
  0
LINE
  5
667
  8
0
 10
64.893600000000006
 20
84.468100000000007
 30
0.0
 11
64.893600000000006
 21
82.510599999999997
 31
0.0
  0
LINE
  5
668
  8
0
 10
62.936199999999999
 20
100.1279999999999
 30
0.0
 11
64.893600000000006
 21
100.1279999999999
 31
0.0
  0
LINE
  5
669
  8
0
 10
62.936199999999999
 20
100.1279999999999
 30
0.0
 11
64.893600000000006
 21
100.1279999999999
 31
0.0
  0
LINE
  5
66A
  8
0
 10
64.893600000000006
 20
98.170199999999994
 30
0.0
 11
64.893600000000006
 21
100.1279999999999
 31
0.0
  0
LINE
  5
66B
  8
0
 10
62.936199999999999
 20
104.04299999999991
 30
0.0
 11
64.893600000000006
 21
104.04299999999991
 31
0.0
  0
LINE
  5
66C
  8
0
 10
62.936199999999999
 20
104.04299999999991
 30
0.0
 11
64.893600000000006
 21
104.04299999999991
 31
0.0
  0
LINE
  5
66D
  8
0
 10
64.893600000000006
 20
102.08499999999999
 30
0.0
 11
64.893600000000006
 21
104.04299999999991
 31
0.0
  0
LINE
  5
66E
  8
0
 10
64.893600000000006
 20
106.0
 30
0.0
 11
64.893600000000006
 21
108.0
 31
0.0
  0
LINE
  5
66F
  8
0
 10
64.893600000000006
 20
100.1279999999999
 30
0.0
 11
64.893600000000006
 21
98.170199999999994
 31
0.0
  0
LINE
  5
670
  8
0
 10
64.893600000000006
 20
104.04299999999991
 30
0.0
 11
64.893600000000006
 21
102.08499999999999
 31
0.0
  0
LINE
  5
671
  8
0
 10
64.893600000000006
 20
96.212800000000001
 30
0.0
 11
64.893600000000006
 21
94.255300000000005
 31
0.0
  0
LINE
  5
672
  8
0
 10
64.893600000000006
 20
92.297899999999984
 30
0.0
 11
64.893600000000006
 21
90.340400000000002
 31
0.0
  0
LINE
  5
673
  8
0
 10
64.893600000000006
 20
68.808499999999995
 30
0.0
 11
64.893600000000006
 21
66.851100000000002
 31
0.0
  0
LINE
  5
674
  8
0
 10
64.893600000000006
 20
72.723399999999984
 30
0.0
 11
64.893600000000006
 21
70.766000000000005
 31
0.0
  0
LINE
  5
675
  8
0
 10
64.893600000000006
 20
64.893600000000006
 30
0.0
 11
64.893600000000006
 21
62.936199999999999
 31
0.0
  0
LINE
  5
676
  8
0
 10
64.893600000000006
 20
60.978700000000003
 30
0.0
 11
64.893600000000006
 21
59.021299999999989
 31
0.0
  0
LINE
  5
677
  8
0
 10
64.893600000000006
 20
41.404299999999999
 30
0.0
 11
64.893600000000006
 21
39.446800000000003
 31
0.0
  0
LINE
  5
678
  8
0
 10
64.893600000000006
 20
37.489400000000003
 30
0.0
 11
64.893600000000006
 21
35.5319
 31
0.0
  0
LINE
  5
679
  8
0
 10
64.893600000000006
 20
25.744700000000002
 30
0.0
 11
64.893600000000006
 21
23.787199999999991
 31
0.0
  0
LINE
  5
67A
  8
0
 10
64.893600000000006
 20
17.914899999999999
 30
0.0
 11
64.893600000000006
 21
15.9574
 31
0.0
  0
LINE
  5
67B
  8
0
 10
64.893600000000006
 20
14.0
 30
0.0
 11
64.893600000000006
 21
12.0
 31
0.0
  0
LINE
  5
67C
  8
0
 10
66.851100000000002
 20
14.0
 30
0.0
 11
68.808499999999995
 21
14.0
 31
0.0
  0
LINE
  5
67D
  8
0
 10
70.766000000000005
 20
14.0
 30
0.0
 11
72.723399999999984
 21
14.0
 31
0.0
  0
LINE
  5
67E
  8
0
 10
68.808499999999995
 20
14.0
 30
0.0
 11
68.808499999999995
 21
12.0
 31
0.0
  0
LINE
  5
67F
  8
0
 10
68.808499999999995
 20
15.9574
 30
0.0
 11
68.808499999999995
 21
17.914899999999999
 31
0.0
  0
LINE
  5
680
  8
0
 10
66.851100000000002
 20
21.829799999999999
 30
0.0
 11
68.808499999999995
 21
21.829799999999999
 31
0.0
  0
LINE
  5
681
  8
0
 10
66.851100000000002
 20
17.914899999999999
 30
0.0
 11
68.808499999999995
 21
17.914899999999999
 31
0.0
  0
LINE
  5
682
  8
0
 10
68.808499999999995
 20
19.872299999999999
 30
0.0
 11
68.808499999999995
 21
21.829799999999999
 31
0.0
  0
LINE
  5
683
  8
0
 10
68.808499999999995
 20
23.787199999999991
 30
0.0
 11
68.808499999999995
 21
25.744700000000002
 31
0.0
  0
LINE
  5
684
  8
0
 10
68.808499999999995
 20
21.829799999999999
 30
0.0
 11
68.808499999999995
 21
19.872299999999999
 31
0.0
  0
LINE
  5
685
  8
0
 10
70.766000000000005
 20
21.829799999999999
 30
0.0
 11
72.723399999999984
 21
21.829799999999999
 31
0.0
  0
LINE
  5
686
  8
0
 10
70.766000000000005
 20
17.914899999999999
 30
0.0
 11
72.723399999999984
 21
17.914899999999999
 31
0.0
  0
LINE
  5
687
  8
0
 10
68.808499999999995
 20
17.914899999999999
 30
0.0
 11
68.808499999999995
 21
15.9574
 31
0.0
  0
LINE
  5
688
  8
0
 10
66.851100000000002
 20
25.744700000000002
 30
0.0
 11
68.808499999999995
 21
25.744700000000002
 31
0.0
  0
LINE
  5
689
  8
0
 10
70.766000000000005
 20
25.744700000000002
 30
0.0
 11
72.723399999999984
 21
25.744700000000002
 31
0.0
  0
LINE
  5
68A
  8
0
 10
68.808499999999995
 20
25.744700000000002
 30
0.0
 11
68.808499999999995
 21
23.787199999999991
 31
0.0
  0
LINE
  5
68B
  8
0
 10
72.723399999999984
 20
23.787199999999991
 30
0.0
 11
72.723399999999984
 21
25.744700000000002
 31
0.0
  0
LINE
  5
68C
  8
0
 10
72.723399999999984
 20
19.872299999999999
 30
0.0
 11
72.723399999999984
 21
21.829799999999999
 31
0.0
  0
LINE
  5
68D
  8
0
 10
72.723399999999984
 20
15.9574
 30
0.0
 11
72.723399999999984
 21
17.914899999999999
 31
0.0
  0
LINE
  5
68E
  8
0
 10
72.723399999999984
 20
21.829799999999999
 30
0.0
 11
72.723399999999984
 21
19.872299999999999
 31
0.0
  0
LINE
  5
68F
  8
0
 10
66.851100000000002
 20
29.659600000000001
 30
0.0
 11
68.808499999999995
 21
29.659600000000001
 31
0.0
  0
LINE
  5
690
  8
0
 10
70.766000000000005
 20
29.659600000000001
 30
0.0
 11
72.723399999999984
 21
29.659600000000001
 31
0.0
  0
LINE
  5
691
  8
0
 10
68.808499999999995
 20
27.702100000000002
 30
0.0
 11
68.808499999999995
 21
29.659600000000001
 31
0.0
  0
LINE
  5
692
  8
0
 10
68.808499999999995
 20
29.659600000000001
 30
0.0
 11
68.808499999999995
 21
27.702100000000002
 31
0.0
  0
LINE
  5
693
  8
0
 10
72.723399999999984
 20
27.702100000000002
 30
0.0
 11
72.723399999999984
 21
29.659600000000001
 31
0.0
  0
LINE
  5
694
  8
0
 10
66.851100000000002
 20
33.5745
 30
0.0
 11
68.808499999999995
 21
33.5745
 31
0.0
  0
LINE
  5
695
  8
0
 10
70.766000000000005
 20
33.5745
 30
0.0
 11
72.723399999999984
 21
33.5745
 31
0.0
  0
LINE
  5
696
  8
0
 10
68.808499999999995
 20
31.61699999999999
 30
0.0
 11
68.808499999999995
 21
33.5745
 31
0.0
  0
LINE
  5
697
  8
0
 10
68.808499999999995
 20
35.5319
 30
0.0
 11
68.808499999999995
 21
37.489400000000003
 31
0.0
  0
LINE
  5
698
  8
0
 10
68.808499999999995
 20
33.5745
 30
0.0
 11
68.808499999999995
 21
31.61699999999999
 31
0.0
  0
LINE
  5
699
  8
0
 10
72.723399999999984
 20
31.61699999999999
 30
0.0
 11
72.723399999999984
 21
33.5745
 31
0.0
  0
LINE
  5
69A
  8
0
 10
66.851100000000002
 20
41.404299999999999
 30
0.0
 11
68.808499999999995
 21
41.404299999999999
 31
0.0
  0
LINE
  5
69B
  8
0
 10
66.851100000000002
 20
37.489400000000003
 30
0.0
 11
68.808499999999995
 21
37.489400000000003
 31
0.0
  0
LINE
  5
69C
  8
0
 10
68.808499999999995
 20
39.446800000000003
 30
0.0
 11
68.808499999999995
 21
41.404299999999999
 31
0.0
  0
LINE
  5
69D
  8
0
 10
68.808499999999995
 20
41.404299999999999
 30
0.0
 11
68.808499999999995
 21
39.446800000000003
 31
0.0
  0
LINE
  5
69E
  8
0
 10
70.766000000000005
 20
41.404299999999999
 30
0.0
 11
72.723399999999984
 21
41.404299999999999
 31
0.0
  0
LINE
  5
69F
  8
0
 10
70.766000000000005
 20
37.489400000000003
 30
0.0
 11
72.723399999999984
 21
37.489400000000003
 31
0.0
  0
LINE
  5
6A0
  8
0
 10
68.808499999999995
 20
37.489400000000003
 30
0.0
 11
68.808499999999995
 21
35.5319
 31
0.0
  0
LINE
  5
6A1
  8
0
 10
72.723399999999984
 20
35.5319
 30
0.0
 11
72.723399999999984
 21
37.489400000000003
 31
0.0
  0
LINE
  5
6A2
  8
0
 10
72.723399999999984
 20
39.446800000000003
 30
0.0
 11
72.723399999999984
 21
41.404299999999999
 31
0.0
  0
LINE
  5
6A3
  8
0
 10
72.723399999999984
 20
29.659600000000001
 30
0.0
 11
72.723399999999984
 21
27.702100000000002
 31
0.0
  0
LINE
  5
6A4
  8
0
 10
72.723399999999984
 20
33.5745
 30
0.0
 11
72.723399999999984
 21
31.61699999999999
 31
0.0
  0
LINE
  5
6A5
  8
0
 10
68.808499999999995
 20
43.361699999999999
 30
0.0
 11
68.808499999999995
 21
45.319099999999992
 31
0.0
  0
LINE
  5
6A6
  8
0
 10
68.808499999999995
 20
45.319099999999992
 30
0.0
 11
68.808499999999995
 21
43.361699999999999
 31
0.0
  0
LINE
  5
6A7
  8
0
 10
72.723399999999984
 20
43.361699999999999
 30
0.0
 11
72.723399999999984
 21
45.319099999999992
 31
0.0
  0
LINE
  5
6A8
  8
0
 10
66.851100000000002
 20
45.319099999999992
 30
0.0
 11
68.808499999999995
 21
45.319099999999992
 31
0.0
  0
LINE
  5
6A9
  8
0
 10
70.766000000000005
 20
45.319099999999992
 30
0.0
 11
72.723399999999984
 21
45.319099999999992
 31
0.0
  0
LINE
  5
6AA
  8
0
 10
68.808499999999995
 20
47.276600000000002
 30
0.0
 11
68.808499999999995
 21
49.233999999999988
 31
0.0
  0
LINE
  5
6AB
  8
0
 10
66.851100000000002
 20
49.233999999999988
 30
0.0
 11
68.808499999999995
 21
49.233999999999988
 31
0.0
  0
LINE
  5
6AC
  8
0
 10
70.766000000000005
 20
49.233999999999988
 30
0.0
 11
72.723399999999984
 21
49.233999999999988
 31
0.0
  0
LINE
  5
6AD
  8
0
 10
68.808499999999995
 20
51.191499999999998
 30
0.0
 11
68.808499999999995
 21
53.148899999999998
 31
0.0
  0
LINE
  5
6AE
  8
0
 10
68.808499999999995
 20
49.233999999999988
 30
0.0
 11
68.808499999999995
 21
47.276600000000002
 31
0.0
  0
LINE
  5
6AF
  8
0
 10
72.723399999999984
 20
47.276600000000002
 30
0.0
 11
72.723399999999984
 21
49.233999999999988
 31
0.0
  0
LINE
  5
6B0
  8
0
 10
66.851100000000002
 20
53.148899999999998
 30
0.0
 11
68.808499999999995
 21
53.148899999999998
 31
0.0
  0
LINE
  5
6B1
  8
0
 10
68.808499999999995
 20
55.106400000000001
 30
0.0
 11
68.808499999999995
 21
57.063800000000001
 31
0.0
  0
LINE
  5
6B2
  8
0
 10
68.808499999999995
 20
57.063800000000001
 30
0.0
 11
68.808499999999995
 21
55.106400000000001
 31
0.0
  0
LINE
  5
6B3
  8
0
 10
70.766000000000005
 20
53.148899999999998
 30
0.0
 11
72.723399999999984
 21
53.148899999999998
 31
0.0
  0
LINE
  5
6B4
  8
0
 10
68.808499999999995
 20
53.148899999999998
 30
0.0
 11
68.808499999999995
 21
51.191499999999998
 31
0.0
  0
LINE
  5
6B5
  8
0
 10
72.723399999999984
 20
51.191499999999998
 30
0.0
 11
72.723399999999984
 21
53.148899999999998
 31
0.0
  0
LINE
  5
6B6
  8
0
 10
72.723399999999984
 20
55.106400000000001
 30
0.0
 11
72.723399999999984
 21
57.063800000000001
 31
0.0
  0
LINE
  5
6B7
  8
0
 10
72.723399999999984
 20
45.319099999999992
 30
0.0
 11
72.723399999999984
 21
43.361699999999999
 31
0.0
  0
LINE
  5
6B8
  8
0
 10
72.723399999999984
 20
49.233999999999988
 30
0.0
 11
72.723399999999984
 21
47.276600000000002
 31
0.0
  0
LINE
  5
6B9
  8
0
 10
66.851100000000002
 20
57.063800000000001
 30
0.0
 11
68.808499999999995
 21
57.063800000000001
 31
0.0
  0
LINE
  5
6BA
  8
0
 10
70.766000000000005
 20
57.063800000000001
 30
0.0
 11
72.723399999999984
 21
57.063800000000001
 31
0.0
  0
LINE
  5
6BB
  8
0
 10
68.808499999999995
 20
59.021299999999989
 30
0.0
 11
68.808499999999995
 21
60.978700000000003
 31
0.0
  0
LINE
  5
6BC
  8
0
 10
66.851100000000002
 20
64.893600000000006
 30
0.0
 11
68.808499999999995
 21
64.893600000000006
 31
0.0
  0
LINE
  5
6BD
  8
0
 10
66.851100000000002
 20
60.978700000000003
 30
0.0
 11
68.808499999999995
 21
60.978700000000003
 31
0.0
  0
LINE
  5
6BE
  8
0
 10
68.808499999999995
 20
62.936199999999999
 30
0.0
 11
68.808499999999995
 21
64.893600000000006
 31
0.0
  0
LINE
  5
6BF
  8
0
 10
68.808499999999995
 20
64.893600000000006
 30
0.0
 11
68.808499999999995
 21
62.936199999999999
 31
0.0
  0
LINE
  5
6C0
  8
0
 10
70.766000000000005
 20
64.893600000000006
 30
0.0
 11
72.723399999999984
 21
64.893600000000006
 31
0.0
  0
LINE
  5
6C1
  8
0
 10
70.766000000000005
 20
60.978700000000003
 30
0.0
 11
72.723399999999984
 21
60.978700000000003
 31
0.0
  0
LINE
  5
6C2
  8
0
 10
68.808499999999995
 20
60.978700000000003
 30
0.0
 11
68.808499999999995
 21
59.021299999999989
 31
0.0
  0
LINE
  5
6C3
  8
0
 10
72.723399999999984
 20
59.021299999999989
 30
0.0
 11
72.723399999999984
 21
60.978700000000003
 31
0.0
  0
LINE
  5
6C4
  8
0
 10
72.723399999999984
 20
62.936199999999999
 30
0.0
 11
72.723399999999984
 21
64.893600000000006
 31
0.0
  0
LINE
  5
6C5
  8
0
 10
72.723399999999984
 20
57.063800000000001
 30
0.0
 11
72.723399999999984
 21
55.106400000000001
 31
0.0
  0
LINE
  5
6C6
  8
0
 10
72.723399999999984
 20
53.148899999999998
 30
0.0
 11
72.723399999999984
 21
51.191499999999998
 31
0.0
  0
LINE
  5
6C7
  8
0
 10
66.851100000000002
 20
68.808499999999995
 30
0.0
 11
68.808499999999995
 21
68.808499999999995
 31
0.0
  0
LINE
  5
6C8
  8
0
 10
70.766000000000005
 20
68.808499999999995
 30
0.0
 11
72.723399999999984
 21
68.808499999999995
 31
0.0
  0
LINE
  5
6C9
  8
0
 10
68.808499999999995
 20
66.851100000000002
 30
0.0
 11
68.808499999999995
 21
68.808499999999995
 31
0.0
  0
LINE
  5
6CA
  8
0
 10
68.808499999999995
 20
68.808499999999995
 30
0.0
 11
68.808499999999995
 21
66.851100000000002
 31
0.0
  0
LINE
  5
6CB
  8
0
 10
72.723399999999984
 20
66.851100000000002
 30
0.0
 11
72.723399999999984
 21
68.808499999999995
 31
0.0
  0
LINE
  5
6CC
  8
0
 10
68.808499999999995
 20
70.766000000000005
 30
0.0
 11
68.808499999999995
 21
72.723399999999984
 31
0.0
  0
LINE
  5
6CD
  8
0
 10
66.851100000000002
 20
76.638300000000001
 30
0.0
 11
68.808499999999995
 21
76.638300000000001
 31
0.0
  0
LINE
  5
6CE
  8
0
 10
66.851100000000002
 20
72.723399999999984
 30
0.0
 11
68.808499999999995
 21
72.723399999999984
 31
0.0
  0
LINE
  5
6CF
  8
0
 10
68.808499999999995
 20
74.680899999999994
 30
0.0
 11
68.808499999999995
 21
76.638300000000001
 31
0.0
  0
LINE
  5
6D0
  8
0
 10
68.808499999999995
 20
76.638300000000001
 30
0.0
 11
68.808499999999995
 21
74.680899999999994
 31
0.0
  0
LINE
  5
6D1
  8
0
 10
70.766000000000005
 20
76.638300000000001
 30
0.0
 11
72.723399999999984
 21
76.638300000000001
 31
0.0
  0
LINE
  5
6D2
  8
0
 10
70.766000000000005
 20
72.723399999999984
 30
0.0
 11
72.723399999999984
 21
72.723399999999984
 31
0.0
  0
LINE
  5
6D3
  8
0
 10
68.808499999999995
 20
72.723399999999984
 30
0.0
 11
68.808499999999995
 21
70.766000000000005
 31
0.0
  0
LINE
  5
6D4
  8
0
 10
72.723399999999984
 20
70.766000000000005
 30
0.0
 11
72.723399999999984
 21
72.723399999999984
 31
0.0
  0
LINE
  5
6D5
  8
0
 10
72.723399999999984
 20
74.680899999999994
 30
0.0
 11
72.723399999999984
 21
76.638300000000001
 31
0.0
  0
LINE
  5
6D6
  8
0
 10
66.851100000000002
 20
80.553200000000004
 30
0.0
 11
68.808499999999995
 21
80.553200000000004
 31
0.0
  0
LINE
  5
6D7
  8
0
 10
70.766000000000005
 20
80.553200000000004
 30
0.0
 11
72.723399999999984
 21
80.553200000000004
 31
0.0
  0
LINE
  5
6D8
  8
0
 10
68.808499999999995
 20
78.595699999999994
 30
0.0
 11
68.808499999999995
 21
80.553200000000004
 31
0.0
  0
LINE
  5
6D9
  8
0
 10
68.808499999999995
 20
82.510599999999997
 30
0.0
 11
68.808499999999995
 21
84.468100000000007
 31
0.0
  0
LINE
  5
6DA
  8
0
 10
68.808499999999995
 20
80.553200000000004
 30
0.0
 11
68.808499999999995
 21
78.595699999999994
 31
0.0
  0
LINE
  5
6DB
  8
0
 10
72.723399999999984
 20
78.595699999999994
 30
0.0
 11
72.723399999999984
 21
80.553200000000004
 31
0.0
  0
LINE
  5
6DC
  8
0
 10
66.851100000000002
 20
88.382999999999996
 30
0.0
 11
68.808499999999995
 21
88.382999999999996
 31
0.0
  0
LINE
  5
6DD
  8
0
 10
66.851100000000002
 20
84.468100000000007
 30
0.0
 11
68.808499999999995
 21
84.468100000000007
 31
0.0
  0
LINE
  5
6DE
  8
0
 10
68.808499999999995
 20
86.425499999999985
 30
0.0
 11
68.808499999999995
 21
88.382999999999996
 31
0.0
  0
LINE
  5
6DF
  8
0
 10
68.808499999999995
 20
88.382999999999996
 30
0.0
 11
68.808499999999995
 21
86.425499999999985
 31
0.0
  0
LINE
  5
6E0
  8
0
 10
70.766000000000005
 20
88.382999999999996
 30
0.0
 11
72.723399999999984
 21
88.382999999999996
 31
0.0
  0
LINE
  5
6E1
  8
0
 10
70.766000000000005
 20
84.468100000000007
 30
0.0
 11
72.723399999999984
 21
84.468100000000007
 31
0.0
  0
LINE
  5
6E2
  8
0
 10
68.808499999999995
 20
84.468100000000007
 30
0.0
 11
68.808499999999995
 21
82.510599999999997
 31
0.0
  0
LINE
  5
6E3
  8
0
 10
72.723399999999984
 20
82.510599999999997
 30
0.0
 11
72.723399999999984
 21
84.468100000000007
 31
0.0
  0
LINE
  5
6E4
  8
0
 10
72.723399999999984
 20
86.425499999999985
 30
0.0
 11
72.723399999999984
 21
88.382999999999996
 31
0.0
  0
LINE
  5
6E5
  8
0
 10
72.723399999999984
 20
76.638300000000001
 30
0.0
 11
72.723399999999984
 21
74.680899999999994
 31
0.0
  0
LINE
  5
6E6
  8
0
 10
72.723399999999984
 20
80.553200000000004
 30
0.0
 11
72.723399999999984
 21
78.595699999999994
 31
0.0
  0
LINE
  5
6E7
  8
0
 10
68.808499999999995
 20
90.340400000000002
 30
0.0
 11
68.808499999999995
 21
92.297899999999984
 31
0.0
  0
LINE
  5
6E8
  8
0
 10
66.851100000000002
 20
96.212800000000001
 30
0.0
 11
68.808499999999995
 21
96.212800000000001
 31
0.0
  0
LINE
  5
6E9
  8
0
 10
66.851100000000002
 20
92.297899999999984
 30
0.0
 11
68.808499999999995
 21
92.297899999999984
 31
0.0
  0
LINE
  5
6EA
  8
0
 10
68.808499999999995
 20
94.255300000000005
 30
0.0
 11
68.808499999999995
 21
96.212800000000001
 31
0.0
  0
LINE
  5
6EB
  8
0
 10
68.808499999999995
 20
96.212800000000001
 30
0.0
 11
68.808499999999995
 21
94.255300000000005
 31
0.0
  0
LINE
  5
6EC
  8
0
 10
70.766000000000005
 20
96.212800000000001
 30
0.0
 11
72.723399999999984
 21
96.212800000000001
 31
0.0
  0
LINE
  5
6ED
  8
0
 10
70.766000000000005
 20
92.297899999999984
 30
0.0
 11
72.723399999999984
 21
92.297899999999984
 31
0.0
  0
LINE
  5
6EE
  8
0
 10
68.808499999999995
 20
92.297899999999984
 30
0.0
 11
68.808499999999995
 21
90.340400000000002
 31
0.0
  0
LINE
  5
6EF
  8
0
 10
72.723399999999984
 20
90.340400000000002
 30
0.0
 11
72.723399999999984
 21
92.297899999999984
 31
0.0
  0
LINE
  5
6F0
  8
0
 10
72.723399999999984
 20
94.255300000000005
 30
0.0
 11
72.723399999999984
 21
96.212800000000001
 31
0.0
  0
LINE
  5
6F1
  8
0
 10
72.723399999999984
 20
88.382999999999996
 30
0.0
 11
72.723399999999984
 21
86.425499999999985
 31
0.0
  0
LINE
  5
6F2
  8
0
 10
72.723399999999984
 20
84.468100000000007
 30
0.0
 11
72.723399999999984
 21
82.510599999999997
 31
0.0
  0
LINE
  5
6F3
  8
0
 10
66.851100000000002
 20
100.1279999999999
 30
0.0
 11
68.808499999999995
 21
100.1279999999999
 31
0.0
  0
LINE
  5
6F4
  8
0
 10
70.766000000000005
 20
100.1279999999999
 30
0.0
 11
72.723399999999984
 21
100.1279999999999
 31
0.0
  0
LINE
  5
6F5
  8
0
 10
68.808499999999995
 20
98.170199999999994
 30
0.0
 11
68.808499999999995
 21
100.1279999999999
 31
0.0
  0
LINE
  5
6F6
  8
0
 10
68.808499999999995
 20
100.1279999999999
 30
0.0
 11
68.808499999999995
 21
98.170199999999994
 31
0.0
  0
LINE
  5
6F7
  8
0
 10
72.723399999999984
 20
98.170199999999994
 30
0.0
 11
72.723399999999984
 21
100.1279999999999
 31
0.0
  0
LINE
  5
6F8
  8
0
 10
68.808499999999995
 20
102.08499999999999
 30
0.0
 11
68.808499999999995
 21
104.04299999999991
 31
0.0
  0
LINE
  5
6F9
  8
0
 10
66.851100000000002
 20
104.04299999999991
 30
0.0
 11
68.808499999999995
 21
104.04299999999991
 31
0.0
  0
LINE
  5
6FA
  8
0
 10
68.808499999999995
 20
106.0
 30
0.0
 11
68.808499999999995
 21
108.0
 31
0.0
  0
LINE
  5
6FB
  8
0
 10
68.808499999999995
 20
104.04299999999991
 30
0.0
 11
68.808499999999995
 21
102.08499999999999
 31
0.0
  0
LINE
  5
6FC
  8
0
 10
70.766000000000005
 20
104.04299999999991
 30
0.0
 11
72.723399999999984
 21
104.04299999999991
 31
0.0
  0
LINE
  5
6FD
  8
0
 10
70.766000000000005
 20
108.0
 30
0.0
 11
70.766000000000005
 21
12.0
 31
0.0
  0
LINE
  5
6FE
  8
0
 10
68.808499999999995
 20
108.0
 30
0.0
 11
68.808499999999995
 21
106.0
 31
0.0
  0
LINE
  5
6FF
  8
0
 10
68.808499999999995
 20
108.0
 30
0.0
 11
70.766000000000005
 21
108.0
 31
0.0
  0
LINE
  5
700
  8
0
 10
68.808499999999995
 20
108.0
 30
0.0
 11
68.808499999999995
 21
12.0
 31
0.0
  0
LINE
  5
701
  8
0
 10
72.723399999999984
 20
102.08499999999999
 30
0.0
 11
72.723399999999984
 21
104.04299999999991
 31
0.0
  0
LINE
  5
702
  8
0
 10
72.723399999999984
 20
106.0
 30
0.0
 11
72.723399999999984
 21
108.0
 31
0.0
  0
LINE
  5
703
  8
0
 10
72.723399999999984
 20
100.1279999999999
 30
0.0
 11
72.723399999999984
 21
98.170199999999994
 31
0.0
  0
LINE
  5
704
  8
0
 10
72.723399999999984
 20
104.04299999999991
 30
0.0
 11
72.723399999999984
 21
102.08499999999999
 31
0.0
  0
LINE
  5
705
  8
0
 10
72.723399999999984
 20
96.212800000000001
 30
0.0
 11
72.723399999999984
 21
94.255300000000005
 31
0.0
  0
LINE
  5
706
  8
0
 10
72.723399999999984
 20
92.297899999999984
 30
0.0
 11
72.723399999999984
 21
90.340400000000002
 31
0.0
  0
LINE
  5
707
  8
0
 10
72.723399999999984
 20
68.808499999999995
 30
0.0
 11
72.723399999999984
 21
66.851100000000002
 31
0.0
  0
LINE
  5
708
  8
0
 10
72.723399999999984
 20
72.723399999999984
 30
0.0
 11
72.723399999999984
 21
70.766000000000005
 31
0.0
  0
LINE
  5
709
  8
0
 10
72.723399999999984
 20
64.893600000000006
 30
0.0
 11
72.723399999999984
 21
62.936199999999999
 31
0.0
  0
LINE
  5
70A
  8
0
 10
72.723399999999984
 20
60.978700000000003
 30
0.0
 11
72.723399999999984
 21
59.021299999999989
 31
0.0
  0
LINE
  5
70B
  8
0
 10
72.723399999999984
 20
41.404299999999999
 30
0.0
 11
72.723399999999984
 21
39.446800000000003
 31
0.0
  0
LINE
  5
70C
  8
0
 10
72.723399999999984
 20
37.489400000000003
 30
0.0
 11
72.723399999999984
 21
35.5319
 31
0.0
  0
LINE
  5
70D
  8
0
 10
72.723399999999984
 20
25.744700000000002
 30
0.0
 11
72.723399999999984
 21
23.787199999999991
 31
0.0
  0
LINE
  5
70E
  8
0
 10
72.723399999999984
 20
17.914899999999999
 30
0.0
 11
72.723399999999984
 21
15.9574
 31
0.0
  0
LINE
  5
70F
  8
0
 10
72.723399999999984
 20
14.0
 30
0.0
 11
72.723399999999984
 21
12.0
 31
0.0
  0
LINE
  5
710
  8
0
 10
74.680899999999994
 20
14.0
 30
0.0
 11
76.638300000000001
 21
14.0
 31
0.0
  0
LINE
  5
711
  8
0
 10
74.680899999999994
 20
14.0
 30
0.0
 11
76.638300000000001
 21
14.0
 31
0.0
  0
LINE
  5
712
  8
0
 10
78.595699999999994
 20
14.0
 30
0.0
 11
80.553200000000004
 21
14.0
 31
0.0
  0
LINE
  5
713
  8
0
 10
82.510599999999997
 20
14.0
 30
0.0
 11
84.468100000000007
 21
14.0
 31
0.0
  0
LINE
  5
714
  8
0
 10
76.638300000000001
 20
14.0
 30
0.0
 11
76.638300000000001
 21
12.0
 31
0.0
  0
LINE
  5
715
  8
0
 10
80.553200000000004
 20
14.0
 30
0.0
 11
80.553200000000004
 21
12.0
 31
0.0
  0
LINE
  5
716
  8
0
 10
86.425499999999985
 20
14.0
 30
0.0
 11
88.382999999999996
 21
14.0
 31
0.0
  0
LINE
  5
717
  8
0
 10
86.425499999999985
 20
14.0
 30
0.0
 11
88.382999999999996
 21
14.0
 31
0.0
  0
LINE
  5
718
  8
0
 10
90.340400000000002
 20
14.0
 30
0.0
 11
92.297899999999984
 21
14.0
 31
0.0
  0
LINE
  5
719
  8
0
 10
90.340400000000002
 20
14.0
 30
0.0
 11
92.297899999999984
 21
14.0
 31
0.0
  0
LINE
  5
71A
  8
0
 10
88.382999999999996
 20
14.0
 30
0.0
 11
88.382999999999996
 21
12.0
 31
0.0
  0
LINE
  5
71B
  8
0
 10
84.468100000000007
 20
14.0
 30
0.0
 11
84.468100000000007
 21
12.0
 31
0.0
  0
LINE
  5
71C
  8
0
 10
76.638300000000001
 20
15.9574
 30
0.0
 11
76.638300000000001
 21
17.914899999999999
 31
0.0
  0
LINE
  5
71D
  8
0
 10
80.553200000000004
 20
15.9574
 30
0.0
 11
80.553200000000004
 21
17.914899999999999
 31
0.0
  0
LINE
  5
71E
  8
0
 10
88.382999999999996
 20
15.9574
 30
0.0
 11
88.382999999999996
 21
17.914899999999999
 31
0.0
  0
LINE
  5
71F
  8
0
 10
84.468100000000007
 20
15.9574
 30
0.0
 11
84.468100000000007
 21
17.914899999999999
 31
0.0
  0
LINE
  5
720
  8
0
 10
76.638300000000001
 20
17.914899999999999
 30
0.0
 11
76.638300000000001
 21
15.9574
 31
0.0
  0
LINE
  5
721
  8
0
 10
74.680899999999994
 20
17.914899999999999
 30
0.0
 11
76.638300000000001
 21
17.914899999999999
 31
0.0
  0
LINE
  5
722
  8
0
 10
74.680899999999994
 20
17.914899999999999
 30
0.0
 11
76.638300000000001
 21
17.914899999999999
 31
0.0
  0
LINE
  5
723
  8
0
 10
78.595699999999994
 20
17.914899999999999
 30
0.0
 11
80.553200000000004
 21
17.914899999999999
 31
0.0
  0
LINE
  5
724
  8
0
 10
76.638300000000001
 20
19.872299999999999
 30
0.0
 11
76.638300000000001
 21
21.829799999999999
 31
0.0
  0
LINE
  5
725
  8
0
 10
74.680899999999994
 20
21.829799999999999
 30
0.0
 11
76.638300000000001
 21
21.829799999999999
 31
0.0
  0
LINE
  5
726
  8
0
 10
74.680899999999994
 20
21.829799999999999
 30
0.0
 11
76.638300000000001
 21
21.829799999999999
 31
0.0
  0
LINE
  5
727
  8
0
 10
78.595699999999994
 20
21.829799999999999
 30
0.0
 11
80.553200000000004
 21
21.829799999999999
 31
0.0
  0
LINE
  5
728
  8
0
 10
76.638300000000001
 20
21.829799999999999
 30
0.0
 11
76.638300000000001
 21
19.872299999999999
 31
0.0
  0
LINE
  5
729
  8
0
 10
80.553200000000004
 20
19.872299999999999
 30
0.0
 11
80.553200000000004
 21
21.829799999999999
 31
0.0
  0
LINE
  5
72A
  8
0
 10
82.510599999999997
 20
21.829799999999999
 30
0.0
 11
84.468100000000007
 21
21.829799999999999
 31
0.0
  0
LINE
  5
72B
  8
0
 10
82.510599999999997
 20
17.914899999999999
 30
0.0
 11
84.468100000000007
 21
17.914899999999999
 31
0.0
  0
LINE
  5
72C
  8
0
 10
80.553200000000004
 20
21.829799999999999
 30
0.0
 11
80.553200000000004
 21
19.872299999999999
 31
0.0
  0
LINE
  5
72D
  8
0
 10
80.553200000000004
 20
17.914899999999999
 30
0.0
 11
80.553200000000004
 21
15.9574
 31
0.0
  0
LINE
  5
72E
  8
0
 10
84.468100000000007
 20
19.872299999999999
 30
0.0
 11
84.468100000000007
 21
21.829799999999999
 31
0.0
  0
LINE
  5
72F
  8
0
 10
76.638300000000001
 20
23.787199999999991
 30
0.0
 11
76.638300000000001
 21
25.744700000000002
 31
0.0
  0
LINE
  5
730
  8
0
 10
80.553200000000004
 20
23.787199999999991
 30
0.0
 11
80.553200000000004
 21
25.744700000000002
 31
0.0
  0
LINE
  5
731
  8
0
 10
84.468100000000007
 20
23.787199999999991
 30
0.0
 11
84.468100000000007
 21
25.744700000000002
 31
0.0
  0
LINE
  5
732
  8
0
 10
84.468100000000007
 20
21.829799999999999
 30
0.0
 11
84.468100000000007
 21
19.872299999999999
 31
0.0
  0
LINE
  5
733
  8
0
 10
86.425499999999985
 20
17.914899999999999
 30
0.0
 11
88.382999999999996
 21
17.914899999999999
 31
0.0
  0
LINE
  5
734
  8
0
 10
86.425499999999985
 20
17.914899999999999
 30
0.0
 11
88.382999999999996
 21
17.914899999999999
 31
0.0
  0
LINE
  5
735
  8
0
 10
86.425499999999985
 20
21.829799999999999
 30
0.0
 11
88.382999999999996
 21
21.829799999999999
 31
0.0
  0
LINE
  5
736
  8
0
 10
86.425499999999985
 20
21.829799999999999
 30
0.0
 11
88.382999999999996
 21
21.829799999999999
 31
0.0
  0
LINE
  5
737
  8
0
 10
88.382999999999996
 20
23.787199999999991
 30
0.0
 11
88.382999999999996
 21
25.744700000000002
 31
0.0
  0
LINE
  5
738
  8
0
 10
88.382999999999996
 20
19.872299999999999
 30
0.0
 11
88.382999999999996
 21
21.829799999999999
 31
0.0
  0
LINE
  5
739
  8
0
 10
90.340400000000002
 20
17.914899999999999
 30
0.0
 11
92.297899999999984
 21
17.914899999999999
 31
0.0
  0
LINE
  5
73A
  8
0
 10
90.340400000000002
 20
21.829799999999999
 30
0.0
 11
92.297899999999984
 21
21.829799999999999
 31
0.0
  0
LINE
  5
73B
  8
0
 10
90.340400000000002
 20
21.829799999999999
 30
0.0
 11
92.297899999999984
 21
21.829799999999999
 31
0.0
  0
LINE
  5
73C
  8
0
 10
90.340400000000002
 20
17.914899999999999
 30
0.0
 11
92.297899999999984
 21
17.914899999999999
 31
0.0
  0
LINE
  5
73D
  8
0
 10
88.382999999999996
 20
21.829799999999999
 30
0.0
 11
88.382999999999996
 21
19.872299999999999
 31
0.0
  0
LINE
  5
73E
  8
0
 10
88.382999999999996
 20
17.914899999999999
 30
0.0
 11
88.382999999999996
 21
15.9574
 31
0.0
  0
LINE
  5
73F
  8
0
 10
84.468100000000007
 20
17.914899999999999
 30
0.0
 11
84.468100000000007
 21
15.9574
 31
0.0
  0
LINE
  5
740
  8
0
 10
74.680899999999994
 20
25.744700000000002
 30
0.0
 11
76.638300000000001
 21
25.744700000000002
 31
0.0
  0
LINE
  5
741
  8
0
 10
74.680899999999994
 20
25.744700000000002
 30
0.0
 11
76.638300000000001
 21
25.744700000000002
 31
0.0
  0
LINE
  5
742
  8
0
 10
78.595699999999994
 20
25.744700000000002
 30
0.0
 11
80.553200000000004
 21
25.744700000000002
 31
0.0
  0
LINE
  5
743
  8
0
 10
82.510599999999997
 20
25.744700000000002
 30
0.0
 11
84.468100000000007
 21
25.744700000000002
 31
0.0
  0
LINE
  5
744
  8
0
 10
76.638300000000001
 20
25.744700000000002
 30
0.0
 11
76.638300000000001
 21
23.787199999999991
 31
0.0
  0
LINE
  5
745
  8
0
 10
80.553200000000004
 20
25.744700000000002
 30
0.0
 11
80.553200000000004
 21
23.787199999999991
 31
0.0
  0
LINE
  5
746
  8
0
 10
86.425499999999985
 20
25.744700000000002
 30
0.0
 11
88.382999999999996
 21
25.744700000000002
 31
0.0
  0
LINE
  5
747
  8
0
 10
86.425499999999985
 20
25.744700000000002
 30
0.0
 11
88.382999999999996
 21
25.744700000000002
 31
0.0
  0
LINE
  5
748
  8
0
 10
90.340400000000002
 20
25.744700000000002
 30
0.0
 11
92.297899999999984
 21
25.744700000000002
 31
0.0
  0
LINE
  5
749
  8
0
 10
90.340400000000002
 20
25.744700000000002
 30
0.0
 11
92.297899999999984
 21
25.744700000000002
 31
0.0
  0
LINE
  5
74A
  8
0
 10
88.382999999999996
 20
25.744700000000002
 30
0.0
 11
88.382999999999996
 21
23.787199999999991
 31
0.0
  0
LINE
  5
74B
  8
0
 10
84.468100000000007
 20
25.744700000000002
 30
0.0
 11
84.468100000000007
 21
23.787199999999991
 31
0.0
  0
LINE
  5
74C
  8
0
 10
92.297899999999984
 20
23.787199999999991
 30
0.0
 11
92.297899999999984
 21
25.744700000000002
 31
0.0
  0
LINE
  5
74D
  8
0
 10
92.297899999999984
 20
19.872299999999999
 30
0.0
 11
92.297899999999984
 21
21.829799999999999
 31
0.0
  0
LINE
  5
74E
  8
0
 10
92.297899999999984
 20
15.9574
 30
0.0
 11
92.297899999999984
 21
17.914899999999999
 31
0.0
  0
LINE
  5
74F
  8
0
 10
92.297899999999984
 20
21.829799999999999
 30
0.0
 11
92.297899999999984
 21
19.872299999999999
 31
0.0
  0
LINE
  5
750
  8
0
 10
74.680899999999994
 20
29.659600000000001
 30
0.0
 11
76.638300000000001
 21
29.659600000000001
 31
0.0
  0
LINE
  5
751
  8
0
 10
74.680899999999994
 20
29.659600000000001
 30
0.0
 11
76.638300000000001
 21
29.659600000000001
 31
0.0
  0
LINE
  5
752
  8
0
 10
78.595699999999994
 20
29.659600000000001
 30
0.0
 11
80.553200000000004
 21
29.659600000000001
 31
0.0
  0
LINE
  5
753
  8
0
 10
76.638300000000001
 20
27.702100000000002
 30
0.0
 11
76.638300000000001
 21
29.659600000000001
 31
0.0
  0
LINE
  5
754
  8
0
 10
76.638300000000001
 20
29.659600000000001
 30
0.0
 11
76.638300000000001
 21
27.702100000000002
 31
0.0
  0
LINE
  5
755
  8
0
 10
82.510599999999997
 20
29.659600000000001
 30
0.0
 11
84.468100000000007
 21
29.659600000000001
 31
0.0
  0
LINE
  5
756
  8
0
 10
80.553200000000004
 20
27.702100000000002
 30
0.0
 11
80.553200000000004
 21
29.659600000000001
 31
0.0
  0
LINE
  5
757
  8
0
 10
80.553200000000004
 20
29.659600000000001
 30
0.0
 11
80.553200000000004
 21
27.702100000000002
 31
0.0
  0
LINE
  5
758
  8
0
 10
86.425499999999985
 20
29.659600000000001
 30
0.0
 11
88.382999999999996
 21
29.659600000000001
 31
0.0
  0
LINE
  5
759
  8
0
 10
86.425499999999985
 20
29.659600000000001
 30
0.0
 11
88.382999999999996
 21
29.659600000000001
 31
0.0
  0
LINE
  5
75A
  8
0
 10
90.340400000000002
 20
29.659600000000001
 30
0.0
 11
92.297899999999984
 21
29.659600000000001
 31
0.0
  0
LINE
  5
75B
  8
0
 10
90.340400000000002
 20
29.659600000000001
 30
0.0
 11
92.297899999999984
 21
29.659600000000001
 31
0.0
  0
LINE
  5
75C
  8
0
 10
88.382999999999996
 20
27.702100000000002
 30
0.0
 11
88.382999999999996
 21
29.659600000000001
 31
0.0
  0
LINE
  5
75D
  8
0
 10
88.382999999999996
 20
29.659600000000001
 30
0.0
 11
88.382999999999996
 21
27.702100000000002
 31
0.0
  0
LINE
  5
75E
  8
0
 10
84.468100000000007
 20
27.702100000000002
 30
0.0
 11
84.468100000000007
 21
29.659600000000001
 31
0.0
  0
LINE
  5
75F
  8
0
 10
84.468100000000007
 20
29.659600000000001
 30
0.0
 11
84.468100000000007
 21
27.702100000000002
 31
0.0
  0
LINE
  5
760
  8
0
 10
92.297899999999984
 20
27.702100000000002
 30
0.0
 11
92.297899999999984
 21
29.659600000000001
 31
0.0
  0
LINE
  5
761
  8
0
 10
74.680899999999994
 20
33.5745
 30
0.0
 11
76.638300000000001
 21
33.5745
 31
0.0
  0
LINE
  5
762
  8
0
 10
74.680899999999994
 20
33.5745
 30
0.0
 11
76.638300000000001
 21
33.5745
 31
0.0
  0
LINE
  5
763
  8
0
 10
78.595699999999994
 20
33.5745
 30
0.0
 11
80.553200000000004
 21
33.5745
 31
0.0
  0
LINE
  5
764
  8
0
 10
76.638300000000001
 20
31.61699999999999
 30
0.0
 11
76.638300000000001
 21
33.5745
 31
0.0
  0
LINE
  5
765
  8
0
 10
76.638300000000001
 20
33.5745
 30
0.0
 11
76.638300000000001
 21
31.61699999999999
 31
0.0
  0
LINE
  5
766
  8
0
 10
82.510599999999997
 20
33.5745
 30
0.0
 11
84.468100000000007
 21
33.5745
 31
0.0
  0
LINE
  5
767
  8
0
 10
80.553200000000004
 20
31.61699999999999
 30
0.0
 11
80.553200000000004
 21
33.5745
 31
0.0
  0
LINE
  5
768
  8
0
 10
80.553200000000004
 20
33.5745
 30
0.0
 11
80.553200000000004
 21
31.61699999999999
 31
0.0
  0
LINE
  5
769
  8
0
 10
86.425499999999985
 20
33.5745
 30
0.0
 11
88.382999999999996
 21
33.5745
 31
0.0
  0
LINE
  5
76A
  8
0
 10
86.425499999999985
 20
33.5745
 30
0.0
 11
88.382999999999996
 21
33.5745
 31
0.0
  0
LINE
  5
76B
  8
0
 10
90.340400000000002
 20
33.5745
 30
0.0
 11
92.297899999999984
 21
33.5745
 31
0.0
  0
LINE
  5
76C
  8
0
 10
90.340400000000002
 20
33.5745
 30
0.0
 11
92.297899999999984
 21
33.5745
 31
0.0
  0
LINE
  5
76D
  8
0
 10
88.382999999999996
 20
31.61699999999999
 30
0.0
 11
88.382999999999996
 21
33.5745
 31
0.0
  0
LINE
  5
76E
  8
0
 10
88.382999999999996
 20
33.5745
 30
0.0
 11
88.382999999999996
 21
31.61699999999999
 31
0.0
  0
LINE
  5
76F
  8
0
 10
84.468100000000007
 20
31.61699999999999
 30
0.0
 11
84.468100000000007
 21
33.5745
 31
0.0
  0
LINE
  5
770
  8
0
 10
76.638300000000001
 20
35.5319
 30
0.0
 11
76.638300000000001
 21
37.489400000000003
 31
0.0
  0
LINE
  5
771
  8
0
 10
80.553200000000004
 20
35.5319
 30
0.0
 11
80.553200000000004
 21
37.489400000000003
 31
0.0
  0
LINE
  5
772
  8
0
 10
88.382999999999996
 20
35.5319
 30
0.0
 11
88.382999999999996
 21
37.489400000000003
 31
0.0
  0
LINE
  5
773
  8
0
 10
84.468100000000007
 20
35.5319
 30
0.0
 11
84.468100000000007
 21
37.489400000000003
 31
0.0
  0
LINE
  5
774
  8
0
 10
84.468100000000007
 20
33.5745
 30
0.0
 11
84.468100000000007
 21
31.61699999999999
 31
0.0
  0
LINE
  5
775
  8
0
 10
92.297899999999984
 20
31.61699999999999
 30
0.0
 11
92.297899999999984
 21
33.5745
 31
0.0
  0
LINE
  5
776
  8
0
 10
74.680899999999994
 20
37.489400000000003
 30
0.0
 11
76.638300000000001
 21
37.489400000000003
 31
0.0
  0
LINE
  5
777
  8
0
 10
74.680899999999994
 20
37.489400000000003
 30
0.0
 11
76.638300000000001
 21
37.489400000000003
 31
0.0
  0
LINE
  5
778
  8
0
 10
78.595699999999994
 20
37.489400000000003
 30
0.0
 11
80.553200000000004
 21
37.489400000000003
 31
0.0
  0
LINE
  5
779
  8
0
 10
82.510599999999997
 20
37.489400000000003
 30
0.0
 11
84.468100000000007
 21
37.489400000000003
 31
0.0
  0
LINE
  5
77A
  8
0
 10
76.638300000000001
 20
37.489400000000003
 30
0.0
 11
76.638300000000001
 21
35.5319
 31
0.0
  0
LINE
  5
77B
  8
0
 10
76.638300000000001
 20
39.446800000000003
 30
0.0
 11
76.638300000000001
 21
41.404299999999999
 31
0.0
  0
LINE
  5
77C
  8
0
 10
74.680899999999994
 20
41.404299999999999
 30
0.0
 11
76.638300000000001
 21
41.404299999999999
 31
0.0
  0
LINE
  5
77D
  8
0
 10
74.680899999999994
 20
41.404299999999999
 30
0.0
 11
76.638300000000001
 21
41.404299999999999
 31
0.0
  0
LINE
  5
77E
  8
0
 10
78.595699999999994
 20
41.404299999999999
 30
0.0
 11
80.553200000000004
 21
41.404299999999999
 31
0.0
  0
LINE
  5
77F
  8
0
 10
76.638300000000001
 20
41.404299999999999
 30
0.0
 11
76.638300000000001
 21
39.446800000000003
 31
0.0
  0
LINE
  5
780
  8
0
 10
80.553200000000004
 20
39.446800000000003
 30
0.0
 11
80.553200000000004
 21
41.404299999999999
 31
0.0
  0
LINE
  5
781
  8
0
 10
82.510599999999997
 20
41.404299999999999
 30
0.0
 11
84.468100000000007
 21
41.404299999999999
 31
0.0
  0
LINE
  5
782
  8
0
 10
80.553200000000004
 20
41.404299999999999
 30
0.0
 11
80.553200000000004
 21
39.446800000000003
 31
0.0
  0
LINE
  5
783
  8
0
 10
80.553200000000004
 20
37.489400000000003
 30
0.0
 11
80.553200000000004
 21
35.5319
 31
0.0
  0
LINE
  5
784
  8
0
 10
84.468100000000007
 20
39.446800000000003
 30
0.0
 11
84.468100000000007
 21
41.404299999999999
 31
0.0
  0
LINE
  5
785
  8
0
 10
84.468100000000007
 20
41.404299999999999
 30
0.0
 11
84.468100000000007
 21
39.446800000000003
 31
0.0
  0
LINE
  5
786
  8
0
 10
86.425499999999985
 20
37.489400000000003
 30
0.0
 11
88.382999999999996
 21
37.489400000000003
 31
0.0
  0
LINE
  5
787
  8
0
 10
86.425499999999985
 20
37.489400000000003
 30
0.0
 11
88.382999999999996
 21
37.489400000000003
 31
0.0
  0
LINE
  5
788
  8
0
 10
90.340400000000002
 20
37.489400000000003
 30
0.0
 11
92.297899999999984
 21
37.489400000000003
 31
0.0
  0
LINE
  5
789
  8
0
 10
90.340400000000002
 20
37.489400000000003
 30
0.0
 11
92.297899999999984
 21
37.489400000000003
 31
0.0
  0
LINE
  5
78A
  8
0
 10
86.425499999999985
 20
41.404299999999999
 30
0.0
 11
88.382999999999996
 21
41.404299999999999
 31
0.0
  0
LINE
  5
78B
  8
0
 10
86.425499999999985
 20
41.404299999999999
 30
0.0
 11
88.382999999999996
 21
41.404299999999999
 31
0.0
  0
LINE
  5
78C
  8
0
 10
88.382999999999996
 20
39.446800000000003
 30
0.0
 11
88.382999999999996
 21
41.404299999999999
 31
0.0
  0
LINE
  5
78D
  8
0
 10
90.340400000000002
 20
41.404299999999999
 30
0.0
 11
92.297899999999984
 21
41.404299999999999
 31
0.0
  0
LINE
  5
78E
  8
0
 10
90.340400000000002
 20
41.404299999999999
 30
0.0
 11
92.297899999999984
 21
41.404299999999999
 31
0.0
  0
LINE
  5
78F
  8
0
 10
88.382999999999996
 20
41.404299999999999
 30
0.0
 11
88.382999999999996
 21
39.446800000000003
 31
0.0
  0
LINE
  5
790
  8
0
 10
88.382999999999996
 20
37.489400000000003
 30
0.0
 11
88.382999999999996
 21
35.5319
 31
0.0
  0
LINE
  5
791
  8
0
 10
84.468100000000007
 20
37.489400000000003
 30
0.0
 11
84.468100000000007
 21
35.5319
 31
0.0
  0
LINE
  5
792
  8
0
 10
92.297899999999984
 20
35.5319
 30
0.0
 11
92.297899999999984
 21
37.489400000000003
 31
0.0
  0
LINE
  5
793
  8
0
 10
92.297899999999984
 20
39.446800000000003
 30
0.0
 11
92.297899999999984
 21
41.404299999999999
 31
0.0
  0
LINE
  5
794
  8
0
 10
92.297899999999984
 20
29.659600000000001
 30
0.0
 11
92.297899999999984
 21
27.702100000000002
 31
0.0
  0
LINE
  5
795
  8
0
 10
92.297899999999984
 20
33.5745
 30
0.0
 11
92.297899999999984
 21
31.61699999999999
 31
0.0
  0
LINE
  5
796
  8
0
 10
76.638300000000001
 20
43.361699999999999
 30
0.0
 11
76.638300000000001
 21
45.319099999999992
 31
0.0
  0
LINE
  5
797
  8
0
 10
76.638300000000001
 20
45.319099999999992
 30
0.0
 11
76.638300000000001
 21
43.361699999999999
 31
0.0
  0
LINE
  5
798
  8
0
 10
80.553200000000004
 20
43.361699999999999
 30
0.0
 11
80.553200000000004
 21
45.319099999999992
 31
0.0
  0
LINE
  5
799
  8
0
 10
80.553200000000004
 20
45.319099999999992
 30
0.0
 11
80.553200000000004
 21
43.361699999999999
 31
0.0
  0
LINE
  5
79A
  8
0
 10
88.382999999999996
 20
43.361699999999999
 30
0.0
 11
88.382999999999996
 21
45.319099999999992
 31
0.0
  0
LINE
  5
79B
  8
0
 10
88.382999999999996
 20
45.319099999999992
 30
0.0
 11
88.382999999999996
 21
43.361699999999999
 31
0.0
  0
LINE
  5
79C
  8
0
 10
84.468100000000007
 20
43.361699999999999
 30
0.0
 11
84.468100000000007
 21
45.319099999999992
 31
0.0
  0
LINE
  5
79D
  8
0
 10
84.468100000000007
 20
45.319099999999992
 30
0.0
 11
84.468100000000007
 21
43.361699999999999
 31
0.0
  0
LINE
  5
79E
  8
0
 10
92.297899999999984
 20
43.361699999999999
 30
0.0
 11
92.297899999999984
 21
45.319099999999992
 31
0.0
  0
LINE
  5
79F
  8
0
 10
74.680899999999994
 20
45.319099999999992
 30
0.0
 11
76.638300000000001
 21
45.319099999999992
 31
0.0
  0
LINE
  5
7A0
  8
0
 10
74.680899999999994
 20
45.319099999999992
 30
0.0
 11
76.638300000000001
 21
45.319099999999992
 31
0.0
  0
LINE
  5
7A1
  8
0
 10
78.595699999999994
 20
45.319099999999992
 30
0.0
 11
80.553200000000004
 21
45.319099999999992
 31
0.0
  0
LINE
  5
7A2
  8
0
 10
76.638300000000001
 20
47.276600000000002
 30
0.0
 11
76.638300000000001
 21
49.233999999999988
 31
0.0
  0
LINE
  5
7A3
  8
0
 10
76.638300000000001
 20
49.233999999999988
 30
0.0
 11
76.638300000000001
 21
47.276600000000002
 31
0.0
  0
LINE
  5
7A4
  8
0
 10
82.510599999999997
 20
45.319099999999992
 30
0.0
 11
84.468100000000007
 21
45.319099999999992
 31
0.0
  0
LINE
  5
7A5
  8
0
 10
80.553200000000004
 20
47.276600000000002
 30
0.0
 11
80.553200000000004
 21
49.233999999999988
 31
0.0
  0
LINE
  5
7A6
  8
0
 10
80.553200000000004
 20
49.233999999999988
 30
0.0
 11
80.553200000000004
 21
47.276600000000002
 31
0.0
  0
LINE
  5
7A7
  8
0
 10
86.425499999999985
 20
45.319099999999992
 30
0.0
 11
88.382999999999996
 21
45.319099999999992
 31
0.0
  0
LINE
  5
7A8
  8
0
 10
86.425499999999985
 20
45.319099999999992
 30
0.0
 11
88.382999999999996
 21
45.319099999999992
 31
0.0
  0
LINE
  5
7A9
  8
0
 10
90.340400000000002
 20
45.319099999999992
 30
0.0
 11
92.297899999999984
 21
45.319099999999992
 31
0.0
  0
LINE
  5
7AA
  8
0
 10
90.340400000000002
 20
45.319099999999992
 30
0.0
 11
92.297899999999984
 21
45.319099999999992
 31
0.0
  0
LINE
  5
7AB
  8
0
 10
88.382999999999996
 20
47.276600000000002
 30
0.0
 11
88.382999999999996
 21
49.233999999999988
 31
0.0
  0
LINE
  5
7AC
  8
0
 10
88.382999999999996
 20
49.233999999999988
 30
0.0
 11
88.382999999999996
 21
47.276600000000002
 31
0.0
  0
LINE
  5
7AD
  8
0
 10
84.468100000000007
 20
47.276600000000002
 30
0.0
 11
84.468100000000007
 21
49.233999999999988
 31
0.0
  0
LINE
  5
7AE
  8
0
 10
74.680899999999994
 20
49.233999999999988
 30
0.0
 11
76.638300000000001
 21
49.233999999999988
 31
0.0
  0
LINE
  5
7AF
  8
0
 10
74.680899999999994
 20
49.233999999999988
 30
0.0
 11
76.638300000000001
 21
49.233999999999988
 31
0.0
  0
LINE
  5
7B0
  8
0
 10
78.595699999999994
 20
49.233999999999988
 30
0.0
 11
80.553200000000004
 21
49.233999999999988
 31
0.0
  0
LINE
  5
7B1
  8
0
 10
82.510599999999997
 20
49.233999999999988
 30
0.0
 11
84.468100000000007
 21
49.233999999999988
 31
0.0
  0
LINE
  5
7B2
  8
0
 10
76.638300000000001
 20
51.191499999999998
 30
0.0
 11
76.638300000000001
 21
53.148899999999998
 31
0.0
  0
LINE
  5
7B3
  8
0
 10
80.553200000000004
 20
51.191499999999998
 30
0.0
 11
80.553200000000004
 21
53.148899999999998
 31
0.0
  0
LINE
  5
7B4
  8
0
 10
86.425499999999985
 20
49.233999999999988
 30
0.0
 11
88.382999999999996
 21
49.233999999999988
 31
0.0
  0
LINE
  5
7B5
  8
0
 10
86.425499999999985
 20
49.233999999999988
 30
0.0
 11
88.382999999999996
 21
49.233999999999988
 31
0.0
  0
LINE
  5
7B6
  8
0
 10
90.340400000000002
 20
49.233999999999988
 30
0.0
 11
92.297899999999984
 21
49.233999999999988
 31
0.0
  0
LINE
  5
7B7
  8
0
 10
90.340400000000002
 20
49.233999999999988
 30
0.0
 11
92.297899999999984
 21
49.233999999999988
 31
0.0
  0
LINE
  5
7B8
  8
0
 10
88.382999999999996
 20
51.191499999999998
 30
0.0
 11
88.382999999999996
 21
53.148899999999998
 31
0.0
  0
LINE
  5
7B9
  8
0
 10
84.468100000000007
 20
51.191499999999998
 30
0.0
 11
84.468100000000007
 21
53.148899999999998
 31
0.0
  0
LINE
  5
7BA
  8
0
 10
84.468100000000007
 20
49.233999999999988
 30
0.0
 11
84.468100000000007
 21
47.276600000000002
 31
0.0
  0
LINE
  5
7BB
  8
0
 10
92.297899999999984
 20
47.276600000000002
 30
0.0
 11
92.297899999999984
 21
49.233999999999988
 31
0.0
  0
LINE
  5
7BC
  8
0
 10
74.680899999999994
 20
53.148899999999998
 30
0.0
 11
76.638300000000001
 21
53.148899999999998
 31
0.0
  0
LINE
  5
7BD
  8
0
 10
74.680899999999994
 20
53.148899999999998
 30
0.0
 11
76.638300000000001
 21
53.148899999999998
 31
0.0
  0
LINE
  5
7BE
  8
0
 10
78.595699999999994
 20
53.148899999999998
 30
0.0
 11
80.553200000000004
 21
53.148899999999998
 31
0.0
  0
LINE
  5
7BF
  8
0
 10
82.510599999999997
 20
53.148899999999998
 30
0.0
 11
84.468100000000007
 21
53.148899999999998
 31
0.0
  0
LINE
  5
7C0
  8
0
 10
76.638300000000001
 20
53.148899999999998
 30
0.0
 11
76.638300000000001
 21
51.191499999999998
 31
0.0
  0
LINE
  5
7C1
  8
0
 10
76.638300000000001
 20
55.106400000000001
 30
0.0
 11
76.638300000000001
 21
57.063800000000001
 31
0.0
  0
LINE
  5
7C2
  8
0
 10
76.638300000000001
 20
57.063800000000001
 30
0.0
 11
76.638300000000001
 21
55.106400000000001
 31
0.0
  0
LINE
  5
7C3
  8
0
 10
80.553200000000004
 20
55.106400000000001
 30
0.0
 11
80.553200000000004
 21
57.063800000000001
 31
0.0
  0
LINE
  5
7C4
  8
0
 10
80.553200000000004
 20
57.063800000000001
 30
0.0
 11
80.553200000000004
 21
55.106400000000001
 31
0.0
  0
LINE
  5
7C5
  8
0
 10
80.553200000000004
 20
53.148899999999998
 30
0.0
 11
80.553200000000004
 21
51.191499999999998
 31
0.0
  0
LINE
  5
7C6
  8
0
 10
84.468100000000007
 20
55.106400000000001
 30
0.0
 11
84.468100000000007
 21
57.063800000000001
 31
0.0
  0
LINE
  5
7C7
  8
0
 10
84.468100000000007
 20
57.063800000000001
 30
0.0
 11
84.468100000000007
 21
55.106400000000001
 31
0.0
  0
LINE
  5
7C8
  8
0
 10
86.425499999999985
 20
53.148899999999998
 30
0.0
 11
88.382999999999996
 21
53.148899999999998
 31
0.0
  0
LINE
  5
7C9
  8
0
 10
86.425499999999985
 20
53.148899999999998
 30
0.0
 11
88.382999999999996
 21
53.148899999999998
 31
0.0
  0
LINE
  5
7CA
  8
0
 10
90.340400000000002
 20
53.148899999999998
 30
0.0
 11
92.297899999999984
 21
53.148899999999998
 31
0.0
  0
LINE
  5
7CB
  8
0
 10
90.340400000000002
 20
53.148899999999998
 30
0.0
 11
92.297899999999984
 21
53.148899999999998
 31
0.0
  0
LINE
  5
7CC
  8
0
 10
88.382999999999996
 20
55.106400000000001
 30
0.0
 11
88.382999999999996
 21
57.063800000000001
 31
0.0
  0
LINE
  5
7CD
  8
0
 10
88.382999999999996
 20
57.063800000000001
 30
0.0
 11
88.382999999999996
 21
55.106400000000001
 31
0.0
  0
LINE
  5
7CE
  8
0
 10
88.382999999999996
 20
53.148899999999998
 30
0.0
 11
88.382999999999996
 21
51.191499999999998
 31
0.0
  0
LINE
  5
7CF
  8
0
 10
84.468100000000007
 20
53.148899999999998
 30
0.0
 11
84.468100000000007
 21
51.191499999999998
 31
0.0
  0
LINE
  5
7D0
  8
0
 10
92.297899999999984
 20
51.191499999999998
 30
0.0
 11
92.297899999999984
 21
53.148899999999998
 31
0.0
  0
LINE
  5
7D1
  8
0
 10
92.297899999999984
 20
55.106400000000001
 30
0.0
 11
92.297899999999984
 21
57.063800000000001
 31
0.0
  0
LINE
  5
7D2
  8
0
 10
92.297899999999984
 20
45.319099999999992
 30
0.0
 11
92.297899999999984
 21
43.361699999999999
 31
0.0
  0
LINE
  5
7D3
  8
0
 10
92.297899999999984
 20
49.233999999999988
 30
0.0
 11
92.297899999999984
 21
47.276600000000002
 31
0.0
  0
LINE
  5
7D4
  8
0
 10
74.680899999999994
 20
57.063800000000001
 30
0.0
 11
76.638300000000001
 21
57.063800000000001
 31
0.0
  0
LINE
  5
7D5
  8
0
 10
74.680899999999994
 20
57.063800000000001
 30
0.0
 11
76.638300000000001
 21
57.063800000000001
 31
0.0
  0
LINE
  5
7D6
  8
0
 10
78.595699999999994
 20
57.063800000000001
 30
0.0
 11
80.553200000000004
 21
57.063800000000001
 31
0.0
  0
LINE
  5
7D7
  8
0
 10
82.510599999999997
 20
57.063800000000001
 30
0.0
 11
84.468100000000007
 21
57.063800000000001
 31
0.0
  0
LINE
  5
7D8
  8
0
 10
76.638300000000001
 20
59.021299999999989
 30
0.0
 11
76.638300000000001
 21
60.978700000000003
 31
0.0
  0
LINE
  5
7D9
  8
0
 10
80.553200000000004
 20
59.021299999999989
 30
0.0
 11
80.553200000000004
 21
60.978700000000003
 31
0.0
  0
LINE
  5
7DA
  8
0
 10
86.425499999999985
 20
57.063800000000001
 30
0.0
 11
88.382999999999996
 21
57.063800000000001
 31
0.0
  0
LINE
  5
7DB
  8
0
 10
86.425499999999985
 20
57.063800000000001
 30
0.0
 11
88.382999999999996
 21
57.063800000000001
 31
0.0
  0
LINE
  5
7DC
  8
0
 10
90.340400000000002
 20
57.063800000000001
 30
0.0
 11
92.297899999999984
 21
57.063800000000001
 31
0.0
  0
LINE
  5
7DD
  8
0
 10
90.340400000000002
 20
57.063800000000001
 30
0.0
 11
92.297899999999984
 21
57.063800000000001
 31
0.0
  0
LINE
  5
7DE
  8
0
 10
88.382999999999996
 20
59.021299999999989
 30
0.0
 11
88.382999999999996
 21
60.978700000000003
 31
0.0
  0
LINE
  5
7DF
  8
0
 10
84.468100000000007
 20
59.021299999999989
 30
0.0
 11
84.468100000000007
 21
60.978700000000003
 31
0.0
  0
LINE
  5
7E0
  8
0
 10
74.680899999999994
 20
60.978700000000003
 30
0.0
 11
76.638300000000001
 21
60.978700000000003
 31
0.0
  0
LINE
  5
7E1
  8
0
 10
74.680899999999994
 20
60.978700000000003
 30
0.0
 11
76.638300000000001
 21
60.978700000000003
 31
0.0
  0
LINE
  5
7E2
  8
0
 10
78.595699999999994
 20
60.978700000000003
 30
0.0
 11
80.553200000000004
 21
60.978700000000003
 31
0.0
  0
LINE
  5
7E3
  8
0
 10
82.510599999999997
 20
60.978700000000003
 30
0.0
 11
84.468100000000007
 21
60.978700000000003
 31
0.0
  0
LINE
  5
7E4
  8
0
 10
76.638300000000001
 20
60.978700000000003
 30
0.0
 11
76.638300000000001
 21
59.021299999999989
 31
0.0
  0
LINE
  5
7E5
  8
0
 10
76.638300000000001
 20
62.936199999999999
 30
0.0
 11
76.638300000000001
 21
64.893600000000006
 31
0.0
  0
LINE
  5
7E6
  8
0
 10
74.680899999999994
 20
64.893600000000006
 30
0.0
 11
76.638300000000001
 21
64.893600000000006
 31
0.0
  0
LINE
  5
7E7
  8
0
 10
74.680899999999994
 20
64.893600000000006
 30
0.0
 11
76.638300000000001
 21
64.893600000000006
 31
0.0
  0
LINE
  5
7E8
  8
0
 10
78.595699999999994
 20
64.893600000000006
 30
0.0
 11
80.553200000000004
 21
64.893600000000006
 31
0.0
  0
LINE
  5
7E9
  8
0
 10
76.638300000000001
 20
64.893600000000006
 30
0.0
 11
76.638300000000001
 21
62.936199999999999
 31
0.0
  0
LINE
  5
7EA
  8
0
 10
80.553200000000004
 20
62.936199999999999
 30
0.0
 11
80.553200000000004
 21
64.893600000000006
 31
0.0
  0
LINE
  5
7EB
  8
0
 10
82.510599999999997
 20
64.893600000000006
 30
0.0
 11
84.468100000000007
 21
64.893600000000006
 31
0.0
  0
LINE
  5
7EC
  8
0
 10
80.553200000000004
 20
64.893600000000006
 30
0.0
 11
80.553200000000004
 21
62.936199999999999
 31
0.0
  0
LINE
  5
7ED
  8
0
 10
80.553200000000004
 20
60.978700000000003
 30
0.0
 11
80.553200000000004
 21
59.021299999999989
 31
0.0
  0
LINE
  5
7EE
  8
0
 10
84.468100000000007
 20
62.936199999999999
 30
0.0
 11
84.468100000000007
 21
64.893600000000006
 31
0.0
  0
LINE
  5
7EF
  8
0
 10
84.468100000000007
 20
64.893600000000006
 30
0.0
 11
84.468100000000007
 21
62.936199999999999
 31
0.0
  0
LINE
  5
7F0
  8
0
 10
86.425499999999985
 20
60.978700000000003
 30
0.0
 11
88.382999999999996
 21
60.978700000000003
 31
0.0
  0
LINE
  5
7F1
  8
0
 10
86.425499999999985
 20
60.978700000000003
 30
0.0
 11
88.382999999999996
 21
60.978700000000003
 31
0.0
  0
LINE
  5
7F2
  8
0
 10
90.340400000000002
 20
60.978700000000003
 30
0.0
 11
92.297899999999984
 21
60.978700000000003
 31
0.0
  0
LINE
  5
7F3
  8
0
 10
90.340400000000002
 20
60.978700000000003
 30
0.0
 11
92.297899999999984
 21
60.978700000000003
 31
0.0
  0
LINE
  5
7F4
  8
0
 10
86.425499999999985
 20
64.893600000000006
 30
0.0
 11
88.382999999999996
 21
64.893600000000006
 31
0.0
  0
LINE
  5
7F5
  8
0
 10
86.425499999999985
 20
64.893600000000006
 30
0.0
 11
88.382999999999996
 21
64.893600000000006
 31
0.0
  0
LINE
  5
7F6
  8
0
 10
88.382999999999996
 20
62.936199999999999
 30
0.0
 11
88.382999999999996
 21
64.893600000000006
 31
0.0
  0
LINE
  5
7F7
  8
0
 10
90.340400000000002
 20
64.893600000000006
 30
0.0
 11
92.297899999999984
 21
64.893600000000006
 31
0.0
  0
LINE
  5
7F8
  8
0
 10
90.340400000000002
 20
64.893600000000006
 30
0.0
 11
92.297899999999984
 21
64.893600000000006
 31
0.0
  0
LINE
  5
7F9
  8
0
 10
88.382999999999996
 20
64.893600000000006
 30
0.0
 11
88.382999999999996
 21
62.936199999999999
 31
0.0
  0
LINE
  5
7FA
  8
0
 10
88.382999999999996
 20
60.978700000000003
 30
0.0
 11
88.382999999999996
 21
59.021299999999989
 31
0.0
  0
LINE
  5
7FB
  8
0
 10
84.468100000000007
 20
60.978700000000003
 30
0.0
 11
84.468100000000007
 21
59.021299999999989
 31
0.0
  0
LINE
  5
7FC
  8
0
 10
92.297899999999984
 20
59.021299999999989
 30
0.0
 11
92.297899999999984
 21
60.978700000000003
 31
0.0
  0
LINE
  5
7FD
  8
0
 10
92.297899999999984
 20
62.936199999999999
 30
0.0
 11
92.297899999999984
 21
64.893600000000006
 31
0.0
  0
LINE
  5
7FE
  8
0
 10
92.297899999999984
 20
57.063800000000001
 30
0.0
 11
92.297899999999984
 21
55.106400000000001
 31
0.0
  0
LINE
  5
7FF
  8
0
 10
92.297899999999984
 20
53.148899999999998
 30
0.0
 11
92.297899999999984
 21
51.191499999999998
 31
0.0
  0
LINE
  5
800
  8
0
 10
74.680899999999994
 20
68.808499999999995
 30
0.0
 11
76.638300000000001
 21
68.808499999999995
 31
0.0
  0
LINE
  5
801
  8
0
 10
74.680899999999994
 20
68.808499999999995
 30
0.0
 11
76.638300000000001
 21
68.808499999999995
 31
0.0
  0
LINE
  5
802
  8
0
 10
78.595699999999994
 20
68.808499999999995
 30
0.0
 11
80.553200000000004
 21
68.808499999999995
 31
0.0
  0
LINE
  5
803
  8
0
 10
76.638300000000001
 20
66.851100000000002
 30
0.0
 11
76.638300000000001
 21
68.808499999999995
 31
0.0
  0
LINE
  5
804
  8
0
 10
76.638300000000001
 20
68.808499999999995
 30
0.0
 11
76.638300000000001
 21
66.851100000000002
 31
0.0
  0
LINE
  5
805
  8
0
 10
82.510599999999997
 20
68.808499999999995
 30
0.0
 11
84.468100000000007
 21
68.808499999999995
 31
0.0
  0
LINE
  5
806
  8
0
 10
80.553200000000004
 20
66.851100000000002
 30
0.0
 11
80.553200000000004
 21
68.808499999999995
 31
0.0
  0
LINE
  5
807
  8
0
 10
80.553200000000004
 20
68.808499999999995
 30
0.0
 11
80.553200000000004
 21
66.851100000000002
 31
0.0
  0
LINE
  5
808
  8
0
 10
86.425499999999985
 20
68.808499999999995
 30
0.0
 11
88.382999999999996
 21
68.808499999999995
 31
0.0
  0
LINE
  5
809
  8
0
 10
86.425499999999985
 20
68.808499999999995
 30
0.0
 11
88.382999999999996
 21
68.808499999999995
 31
0.0
  0
LINE
  5
80A
  8
0
 10
90.340400000000002
 20
68.808499999999995
 30
0.0
 11
92.297899999999984
 21
68.808499999999995
 31
0.0
  0
LINE
  5
80B
  8
0
 10
90.340400000000002
 20
68.808499999999995
 30
0.0
 11
92.297899999999984
 21
68.808499999999995
 31
0.0
  0
LINE
  5
80C
  8
0
 10
88.382999999999996
 20
66.851100000000002
 30
0.0
 11
88.382999999999996
 21
68.808499999999995
 31
0.0
  0
LINE
  5
80D
  8
0
 10
88.382999999999996
 20
68.808499999999995
 30
0.0
 11
88.382999999999996
 21
66.851100000000002
 31
0.0
  0
LINE
  5
80E
  8
0
 10
84.468100000000007
 20
66.851100000000002
 30
0.0
 11
84.468100000000007
 21
68.808499999999995
 31
0.0
  0
LINE
  5
80F
  8
0
 10
84.468100000000007
 20
68.808499999999995
 30
0.0
 11
84.468100000000007
 21
66.851100000000002
 31
0.0
  0
LINE
  5
810
  8
0
 10
92.297899999999984
 20
66.851100000000002
 30
0.0
 11
92.297899999999984
 21
68.808499999999995
 31
0.0
  0
LINE
  5
811
  8
0
 10
76.638300000000001
 20
70.766000000000005
 30
0.0
 11
76.638300000000001
 21
72.723399999999984
 31
0.0
  0
LINE
  5
812
  8
0
 10
80.553200000000004
 20
70.766000000000005
 30
0.0
 11
80.553200000000004
 21
72.723399999999984
 31
0.0
  0
LINE
  5
813
  8
0
 10
88.382999999999996
 20
70.766000000000005
 30
0.0
 11
88.382999999999996
 21
72.723399999999984
 31
0.0
  0
LINE
  5
814
  8
0
 10
84.468100000000007
 20
70.766000000000005
 30
0.0
 11
84.468100000000007
 21
72.723399999999984
 31
0.0
  0
LINE
  5
815
  8
0
 10
74.680899999999994
 20
72.723399999999984
 30
0.0
 11
76.638300000000001
 21
72.723399999999984
 31
0.0
  0
LINE
  5
816
  8
0
 10
74.680899999999994
 20
72.723399999999984
 30
0.0
 11
76.638300000000001
 21
72.723399999999984
 31
0.0
  0
LINE
  5
817
  8
0
 10
78.595699999999994
 20
72.723399999999984
 30
0.0
 11
80.553200000000004
 21
72.723399999999984
 31
0.0
  0
LINE
  5
818
  8
0
 10
82.510599999999997
 20
72.723399999999984
 30
0.0
 11
84.468100000000007
 21
72.723399999999984
 31
0.0
  0
LINE
  5
819
  8
0
 10
76.638300000000001
 20
72.723399999999984
 30
0.0
 11
76.638300000000001
 21
70.766000000000005
 31
0.0
  0
LINE
  5
81A
  8
0
 10
76.638300000000001
 20
74.680899999999994
 30
0.0
 11
76.638300000000001
 21
76.638300000000001
 31
0.0
  0
LINE
  5
81B
  8
0
 10
74.680899999999994
 20
76.638300000000001
 30
0.0
 11
76.638300000000001
 21
76.638300000000001
 31
0.0
  0
LINE
  5
81C
  8
0
 10
74.680899999999994
 20
76.638300000000001
 30
0.0
 11
76.638300000000001
 21
76.638300000000001
 31
0.0
  0
LINE
  5
81D
  8
0
 10
78.595699999999994
 20
76.638300000000001
 30
0.0
 11
80.553200000000004
 21
76.638300000000001
 31
0.0
  0
LINE
  5
81E
  8
0
 10
76.638300000000001
 20
76.638300000000001
 30
0.0
 11
76.638300000000001
 21
74.680899999999994
 31
0.0
  0
LINE
  5
81F
  8
0
 10
80.553200000000004
 20
74.680899999999994
 30
0.0
 11
80.553200000000004
 21
76.638300000000001
 31
0.0
  0
LINE
  5
820
  8
0
 10
82.510599999999997
 20
76.638300000000001
 30
0.0
 11
84.468100000000007
 21
76.638300000000001
 31
0.0
  0
LINE
  5
821
  8
0
 10
80.553200000000004
 20
76.638300000000001
 30
0.0
 11
80.553200000000004
 21
74.680899999999994
 31
0.0
  0
LINE
  5
822
  8
0
 10
80.553200000000004
 20
72.723399999999984
 30
0.0
 11
80.553200000000004
 21
70.766000000000005
 31
0.0
  0
LINE
  5
823
  8
0
 10
84.468100000000007
 20
74.680899999999994
 30
0.0
 11
84.468100000000007
 21
76.638300000000001
 31
0.0
  0
LINE
  5
824
  8
0
 10
84.468100000000007
 20
76.638300000000001
 30
0.0
 11
84.468100000000007
 21
74.680899999999994
 31
0.0
  0
LINE
  5
825
  8
0
 10
86.425499999999985
 20
72.723399999999984
 30
0.0
 11
88.382999999999996
 21
72.723399999999984
 31
0.0
  0
LINE
  5
826
  8
0
 10
86.425499999999985
 20
72.723399999999984
 30
0.0
 11
88.382999999999996
 21
72.723399999999984
 31
0.0
  0
LINE
  5
827
  8
0
 10
90.340400000000002
 20
72.723399999999984
 30
0.0
 11
92.297899999999984
 21
72.723399999999984
 31
0.0
  0
LINE
  5
828
  8
0
 10
90.340400000000002
 20
72.723399999999984
 30
0.0
 11
92.297899999999984
 21
72.723399999999984
 31
0.0
  0
LINE
  5
829
  8
0
 10
86.425499999999985
 20
76.638300000000001
 30
0.0
 11
88.382999999999996
 21
76.638300000000001
 31
0.0
  0
LINE
  5
82A
  8
0
 10
86.425499999999985
 20
76.638300000000001
 30
0.0
 11
88.382999999999996
 21
76.638300000000001
 31
0.0
  0
LINE
  5
82B
  8
0
 10
88.382999999999996
 20
74.680899999999994
 30
0.0
 11
88.382999999999996
 21
76.638300000000001
 31
0.0
  0
LINE
  5
82C
  8
0
 10
90.340400000000002
 20
76.638300000000001
 30
0.0
 11
92.297899999999984
 21
76.638300000000001
 31
0.0
  0
LINE
  5
82D
  8
0
 10
90.340400000000002
 20
76.638300000000001
 30
0.0
 11
92.297899999999984
 21
76.638300000000001
 31
0.0
  0
LINE
  5
82E
  8
0
 10
88.382999999999996
 20
76.638300000000001
 30
0.0
 11
88.382999999999996
 21
74.680899999999994
 31
0.0
  0
LINE
  5
82F
  8
0
 10
88.382999999999996
 20
72.723399999999984
 30
0.0
 11
88.382999999999996
 21
70.766000000000005
 31
0.0
  0
LINE
  5
830
  8
0
 10
84.468100000000007
 20
72.723399999999984
 30
0.0
 11
84.468100000000007
 21
70.766000000000005
 31
0.0
  0
LINE
  5
831
  8
0
 10
92.297899999999984
 20
70.766000000000005
 30
0.0
 11
92.297899999999984
 21
72.723399999999984
 31
0.0
  0
LINE
  5
832
  8
0
 10
92.297899999999984
 20
74.680899999999994
 30
0.0
 11
92.297899999999984
 21
76.638300000000001
 31
0.0
  0
LINE
  5
833
  8
0
 10
74.680899999999994
 20
80.553200000000004
 30
0.0
 11
76.638300000000001
 21
80.553200000000004
 31
0.0
  0
LINE
  5
834
  8
0
 10
74.680899999999994
 20
80.553200000000004
 30
0.0
 11
76.638300000000001
 21
80.553200000000004
 31
0.0
  0
LINE
  5
835
  8
0
 10
78.595699999999994
 20
80.553200000000004
 30
0.0
 11
80.553200000000004
 21
80.553200000000004
 31
0.0
  0
LINE
  5
836
  8
0
 10
76.638300000000001
 20
78.595699999999994
 30
0.0
 11
76.638300000000001
 21
80.553200000000004
 31
0.0
  0
LINE
  5
837
  8
0
 10
76.638300000000001
 20
80.553200000000004
 30
0.0
 11
76.638300000000001
 21
78.595699999999994
 31
0.0
  0
LINE
  5
838
  8
0
 10
82.510599999999997
 20
80.553200000000004
 30
0.0
 11
84.468100000000007
 21
80.553200000000004
 31
0.0
  0
LINE
  5
839
  8
0
 10
80.553200000000004
 20
78.595699999999994
 30
0.0
 11
80.553200000000004
 21
80.553200000000004
 31
0.0
  0
LINE
  5
83A
  8
0
 10
80.553200000000004
 20
80.553200000000004
 30
0.0
 11
80.553200000000004
 21
78.595699999999994
 31
0.0
  0
LINE
  5
83B
  8
0
 10
86.425499999999985
 20
80.553200000000004
 30
0.0
 11
88.382999999999996
 21
80.553200000000004
 31
0.0
  0
LINE
  5
83C
  8
0
 10
86.425499999999985
 20
80.553200000000004
 30
0.0
 11
88.382999999999996
 21
80.553200000000004
 31
0.0
  0
LINE
  5
83D
  8
0
 10
90.340400000000002
 20
80.553200000000004
 30
0.0
 11
92.297899999999984
 21
80.553200000000004
 31
0.0
  0
LINE
  5
83E
  8
0
 10
90.340400000000002
 20
80.553200000000004
 30
0.0
 11
92.297899999999984
 21
80.553200000000004
 31
0.0
  0
LINE
  5
83F
  8
0
 10
88.382999999999996
 20
78.595699999999994
 30
0.0
 11
88.382999999999996
 21
80.553200000000004
 31
0.0
  0
LINE
  5
840
  8
0
 10
88.382999999999996
 20
80.553200000000004
 30
0.0
 11
88.382999999999996
 21
78.595699999999994
 31
0.0
  0
LINE
  5
841
  8
0
 10
84.468100000000007
 20
78.595699999999994
 30
0.0
 11
84.468100000000007
 21
80.553200000000004
 31
0.0
  0
LINE
  5
842
  8
0
 10
76.638300000000001
 20
82.510599999999997
 30
0.0
 11
76.638300000000001
 21
84.468100000000007
 31
0.0
  0
LINE
  5
843
  8
0
 10
80.553200000000004
 20
82.510599999999997
 30
0.0
 11
80.553200000000004
 21
84.468100000000007
 31
0.0
  0
LINE
  5
844
  8
0
 10
88.382999999999996
 20
82.510599999999997
 30
0.0
 11
88.382999999999996
 21
84.468100000000007
 31
0.0
  0
LINE
  5
845
  8
0
 10
84.468100000000007
 20
82.510599999999997
 30
0.0
 11
84.468100000000007
 21
84.468100000000007
 31
0.0
  0
LINE
  5
846
  8
0
 10
84.468100000000007
 20
80.553200000000004
 30
0.0
 11
84.468100000000007
 21
78.595699999999994
 31
0.0
  0
LINE
  5
847
  8
0
 10
92.297899999999984
 20
78.595699999999994
 30
0.0
 11
92.297899999999984
 21
80.553200000000004
 31
0.0
  0
LINE
  5
848
  8
0
 10
74.680899999999994
 20
84.468100000000007
 30
0.0
 11
76.638300000000001
 21
84.468100000000007
 31
0.0
  0
LINE
  5
849
  8
0
 10
74.680899999999994
 20
84.468100000000007
 30
0.0
 11
76.638300000000001
 21
84.468100000000007
 31
0.0
  0
LINE
  5
84A
  8
0
 10
78.595699999999994
 20
84.468100000000007
 30
0.0
 11
80.553200000000004
 21
84.468100000000007
 31
0.0
  0
LINE
  5
84B
  8
0
 10
82.510599999999997
 20
84.468100000000007
 30
0.0
 11
84.468100000000007
 21
84.468100000000007
 31
0.0
  0
LINE
  5
84C
  8
0
 10
76.638300000000001
 20
84.468100000000007
 30
0.0
 11
76.638300000000001
 21
82.510599999999997
 31
0.0
  0
LINE
  5
84D
  8
0
 10
76.638300000000001
 20
86.425499999999985
 30
0.0
 11
76.638300000000001
 21
88.382999999999996
 31
0.0
  0
LINE
  5
84E
  8
0
 10
74.680899999999994
 20
88.382999999999996
 30
0.0
 11
76.638300000000001
 21
88.382999999999996
 31
0.0
  0
LINE
  5
84F
  8
0
 10
74.680899999999994
 20
88.382999999999996
 30
0.0
 11
76.638300000000001
 21
88.382999999999996
 31
0.0
  0
LINE
  5
850
  8
0
 10
78.595699999999994
 20
88.382999999999996
 30
0.0
 11
80.553200000000004
 21
88.382999999999996
 31
0.0
  0
LINE
  5
851
  8
0
 10
76.638300000000001
 20
88.382999999999996
 30
0.0
 11
76.638300000000001
 21
86.425499999999985
 31
0.0
  0
LINE
  5
852
  8
0
 10
80.553200000000004
 20
86.425499999999985
 30
0.0
 11
80.553200000000004
 21
88.382999999999996
 31
0.0
  0
LINE
  5
853
  8
0
 10
82.510599999999997
 20
88.382999999999996
 30
0.0
 11
84.468100000000007
 21
88.382999999999996
 31
0.0
  0
LINE
  5
854
  8
0
 10
80.553200000000004
 20
88.382999999999996
 30
0.0
 11
80.553200000000004
 21
86.425499999999985
 31
0.0
  0
LINE
  5
855
  8
0
 10
80.553200000000004
 20
84.468100000000007
 30
0.0
 11
80.553200000000004
 21
82.510599999999997
 31
0.0
  0
LINE
  5
856
  8
0
 10
84.468100000000007
 20
86.425499999999985
 30
0.0
 11
84.468100000000007
 21
88.382999999999996
 31
0.0
  0
LINE
  5
857
  8
0
 10
84.468100000000007
 20
88.382999999999996
 30
0.0
 11
84.468100000000007
 21
86.425499999999985
 31
0.0
  0
LINE
  5
858
  8
0
 10
86.425499999999985
 20
84.468100000000007
 30
0.0
 11
88.382999999999996
 21
84.468100000000007
 31
0.0
  0
LINE
  5
859
  8
0
 10
86.425499999999985
 20
84.468100000000007
 30
0.0
 11
88.382999999999996
 21
84.468100000000007
 31
0.0
  0
LINE
  5
85A
  8
0
 10
90.340400000000002
 20
84.468100000000007
 30
0.0
 11
92.297899999999984
 21
84.468100000000007
 31
0.0
  0
LINE
  5
85B
  8
0
 10
90.340400000000002
 20
84.468100000000007
 30
0.0
 11
92.297899999999984
 21
84.468100000000007
 31
0.0
  0
LINE
  5
85C
  8
0
 10
86.425499999999985
 20
88.382999999999996
 30
0.0
 11
88.382999999999996
 21
88.382999999999996
 31
0.0
  0
LINE
  5
85D
  8
0
 10
86.425499999999985
 20
88.382999999999996
 30
0.0
 11
88.382999999999996
 21
88.382999999999996
 31
0.0
  0
LINE
  5
85E
  8
0
 10
88.382999999999996
 20
86.425499999999985
 30
0.0
 11
88.382999999999996
 21
88.382999999999996
 31
0.0
  0
LINE
  5
85F
  8
0
 10
90.340400000000002
 20
88.382999999999996
 30
0.0
 11
92.297899999999984
 21
88.382999999999996
 31
0.0
  0
LINE
  5
860
  8
0
 10
90.340400000000002
 20
88.382999999999996
 30
0.0
 11
92.297899999999984
 21
88.382999999999996
 31
0.0
  0
LINE
  5
861
  8
0
 10
88.382999999999996
 20
88.382999999999996
 30
0.0
 11
88.382999999999996
 21
86.425499999999985
 31
0.0
  0
LINE
  5
862
  8
0
 10
88.382999999999996
 20
84.468100000000007
 30
0.0
 11
88.382999999999996
 21
82.510599999999997
 31
0.0
  0
LINE
  5
863
  8
0
 10
84.468100000000007
 20
84.468100000000007
 30
0.0
 11
84.468100000000007
 21
82.510599999999997
 31
0.0
  0
LINE
  5
864
  8
0
 10
92.297899999999984
 20
82.510599999999997
 30
0.0
 11
92.297899999999984
 21
84.468100000000007
 31
0.0
  0
LINE
  5
865
  8
0
 10
92.297899999999984
 20
86.425499999999985
 30
0.0
 11
92.297899999999984
 21
88.382999999999996
 31
0.0
  0
LINE
  5
866
  8
0
 10
92.297899999999984
 20
76.638300000000001
 30
0.0
 11
92.297899999999984
 21
74.680899999999994
 31
0.0
  0
LINE
  5
867
  8
0
 10
92.297899999999984
 20
80.553200000000004
 30
0.0
 11
92.297899999999984
 21
78.595699999999994
 31
0.0
  0
LINE
  5
868
  8
0
 10
76.638300000000001
 20
90.340400000000002
 30
0.0
 11
76.638300000000001
 21
92.297899999999984
 31
0.0
  0
LINE
  5
869
  8
0
 10
80.553200000000004
 20
90.340400000000002
 30
0.0
 11
80.553200000000004
 21
92.297899999999984
 31
0.0
  0
LINE
  5
86A
  8
0
 10
88.382999999999996
 20
90.340400000000002
 30
0.0
 11
88.382999999999996
 21
92.297899999999984
 31
0.0
  0
LINE
  5
86B
  8
0
 10
84.468100000000007
 20
90.340400000000002
 30
0.0
 11
84.468100000000007
 21
92.297899999999984
 31
0.0
  0
LINE
  5
86C
  8
0
 10
74.680899999999994
 20
92.297899999999984
 30
0.0
 11
76.638300000000001
 21
92.297899999999984
 31
0.0
  0
LINE
  5
86D
  8
0
 10
74.680899999999994
 20
92.297899999999984
 30
0.0
 11
76.638300000000001
 21
92.297899999999984
 31
0.0
  0
LINE
  5
86E
  8
0
 10
78.595699999999994
 20
92.297899999999984
 30
0.0
 11
80.553200000000004
 21
92.297899999999984
 31
0.0
  0
LINE
  5
86F
  8
0
 10
82.510599999999997
 20
92.297899999999984
 30
0.0
 11
84.468100000000007
 21
92.297899999999984
 31
0.0
  0
LINE
  5
870
  8
0
 10
76.638300000000001
 20
92.297899999999984
 30
0.0
 11
76.638300000000001
 21
90.340400000000002
 31
0.0
  0
LINE
  5
871
  8
0
 10
76.638300000000001
 20
94.255300000000005
 30
0.0
 11
76.638300000000001
 21
96.212800000000001
 31
0.0
  0
LINE
  5
872
  8
0
 10
74.680899999999994
 20
96.212800000000001
 30
0.0
 11
76.638300000000001
 21
96.212800000000001
 31
0.0
  0
LINE
  5
873
  8
0
 10
74.680899999999994
 20
96.212800000000001
 30
0.0
 11
76.638300000000001
 21
96.212800000000001
 31
0.0
  0
LINE
  5
874
  8
0
 10
78.595699999999994
 20
96.212800000000001
 30
0.0
 11
80.553200000000004
 21
96.212800000000001
 31
0.0
  0
LINE
  5
875
  8
0
 10
76.638300000000001
 20
96.212800000000001
 30
0.0
 11
76.638300000000001
 21
94.255300000000005
 31
0.0
  0
LINE
  5
876
  8
0
 10
80.553200000000004
 20
94.255300000000005
 30
0.0
 11
80.553200000000004
 21
96.212800000000001
 31
0.0
  0
LINE
  5
877
  8
0
 10
82.510599999999997
 20
96.212800000000001
 30
0.0
 11
84.468100000000007
 21
96.212800000000001
 31
0.0
  0
LINE
  5
878
  8
0
 10
80.553200000000004
 20
96.212800000000001
 30
0.0
 11
80.553200000000004
 21
94.255300000000005
 31
0.0
  0
LINE
  5
879
  8
0
 10
80.553200000000004
 20
92.297899999999984
 30
0.0
 11
80.553200000000004
 21
90.340400000000002
 31
0.0
  0
LINE
  5
87A
  8
0
 10
84.468100000000007
 20
94.255300000000005
 30
0.0
 11
84.468100000000007
 21
96.212800000000001
 31
0.0
  0
LINE
  5
87B
  8
0
 10
84.468100000000007
 20
96.212800000000001
 30
0.0
 11
84.468100000000007
 21
94.255300000000005
 31
0.0
  0
LINE
  5
87C
  8
0
 10
86.425499999999985
 20
92.297899999999984
 30
0.0
 11
88.382999999999996
 21
92.297899999999984
 31
0.0
  0
LINE
  5
87D
  8
0
 10
86.425499999999985
 20
92.297899999999984
 30
0.0
 11
88.382999999999996
 21
92.297899999999984
 31
0.0
  0
LINE
  5
87E
  8
0
 10
90.340400000000002
 20
92.297899999999984
 30
0.0
 11
92.297899999999984
 21
92.297899999999984
 31
0.0
  0
LINE
  5
87F
  8
0
 10
90.340400000000002
 20
92.297899999999984
 30
0.0
 11
92.297899999999984
 21
92.297899999999984
 31
0.0
  0
LINE
  5
880
  8
0
 10
86.425499999999985
 20
96.212800000000001
 30
0.0
 11
88.382999999999996
 21
96.212800000000001
 31
0.0
  0
LINE
  5
881
  8
0
 10
86.425499999999985
 20
96.212800000000001
 30
0.0
 11
88.382999999999996
 21
96.212800000000001
 31
0.0
  0
LINE
  5
882
  8
0
 10
88.382999999999996
 20
94.255300000000005
 30
0.0
 11
88.382999999999996
 21
96.212800000000001
 31
0.0
  0
LINE
  5
883
  8
0
 10
90.340400000000002
 20
96.212800000000001
 30
0.0
 11
92.297899999999984
 21
96.212800000000001
 31
0.0
  0
LINE
  5
884
  8
0
 10
90.340400000000002
 20
96.212800000000001
 30
0.0
 11
92.297899999999984
 21
96.212800000000001
 31
0.0
  0
LINE
  5
885
  8
0
 10
88.382999999999996
 20
96.212800000000001
 30
0.0
 11
88.382999999999996
 21
94.255300000000005
 31
0.0
  0
LINE
  5
886
  8
0
 10
88.382999999999996
 20
92.297899999999984
 30
0.0
 11
88.382999999999996
 21
90.340400000000002
 31
0.0
  0
LINE
  5
887
  8
0
 10
84.468100000000007
 20
92.297899999999984
 30
0.0
 11
84.468100000000007
 21
90.340400000000002
 31
0.0
  0
LINE
  5
888
  8
0
 10
92.297899999999984
 20
90.340400000000002
 30
0.0
 11
92.297899999999984
 21
92.297899999999984
 31
0.0
  0
LINE
  5
889
  8
0
 10
92.297899999999984
 20
94.255300000000005
 30
0.0
 11
92.297899999999984
 21
96.212800000000001
 31
0.0
  0
LINE
  5
88A
  8
0
 10
92.297899999999984
 20
88.382999999999996
 30
0.0
 11
92.297899999999984
 21
86.425499999999985
 31
0.0
  0
LINE
  5
88B
  8
0
 10
92.297899999999984
 20
84.468100000000007
 30
0.0
 11
92.297899999999984
 21
82.510599999999997
 31
0.0
  0
LINE
  5
88C
  8
0
 10
74.680899999999994
 20
100.1279999999999
 30
0.0
 11
76.638300000000001
 21
100.1279999999999
 31
0.0
  0
LINE
  5
88D
  8
0
 10
74.680899999999994
 20
100.1279999999999
 30
0.0
 11
76.638300000000001
 21
100.1279999999999
 31
0.0
  0
LINE
  5
88E
  8
0
 10
78.595699999999994
 20
100.1279999999999
 30
0.0
 11
80.553200000000004
 21
100.1279999999999
 31
0.0
  0
LINE
  5
88F
  8
0
 10
76.638300000000001
 20
98.170199999999994
 30
0.0
 11
76.638300000000001
 21
100.1279999999999
 31
0.0
  0
LINE
  5
890
  8
0
 10
76.638300000000001
 20
100.1279999999999
 30
0.0
 11
76.638300000000001
 21
98.170199999999994
 31
0.0
  0
LINE
  5
891
  8
0
 10
82.510599999999997
 20
100.1279999999999
 30
0.0
 11
84.468100000000007
 21
100.1279999999999
 31
0.0
  0
LINE
  5
892
  8
0
 10
80.553200000000004
 20
98.170199999999994
 30
0.0
 11
80.553200000000004
 21
100.1279999999999
 31
0.0
  0
LINE
  5
893
  8
0
 10
80.553200000000004
 20
100.1279999999999
 30
0.0
 11
80.553200000000004
 21
98.170199999999994
 31
0.0
  0
LINE
  5
894
  8
0
 10
86.425499999999985
 20
100.1279999999999
 30
0.0
 11
88.382999999999996
 21
100.1279999999999
 31
0.0
  0
LINE
  5
895
  8
0
 10
86.425499999999985
 20
100.1279999999999
 30
0.0
 11
88.382999999999996
 21
100.1279999999999
 31
0.0
  0
LINE
  5
896
  8
0
 10
90.340400000000002
 20
100.1279999999999
 30
0.0
 11
92.297899999999984
 21
100.1279999999999
 31
0.0
  0
LINE
  5
897
  8
0
 10
90.340400000000002
 20
100.1279999999999
 30
0.0
 11
92.297899999999984
 21
100.1279999999999
 31
0.0
  0
LINE
  5
898
  8
0
 10
88.382999999999996
 20
98.170199999999994
 30
0.0
 11
88.382999999999996
 21
100.1279999999999
 31
0.0
  0
LINE
  5
899
  8
0
 10
88.382999999999996
 20
100.1279999999999
 30
0.0
 11
88.382999999999996
 21
98.170199999999994
 31
0.0
  0
LINE
  5
89A
  8
0
 10
84.468100000000007
 20
98.170199999999994
 30
0.0
 11
84.468100000000007
 21
100.1279999999999
 31
0.0
  0
LINE
  5
89B
  8
0
 10
84.468100000000007
 20
100.1279999999999
 30
0.0
 11
84.468100000000007
 21
98.170199999999994
 31
0.0
  0
LINE
  5
89C
  8
0
 10
92.297899999999984
 20
98.170199999999994
 30
0.0
 11
92.297899999999984
 21
100.1279999999999
 31
0.0
  0
LINE
  5
89D
  8
0
 10
76.638300000000001
 20
102.08499999999999
 30
0.0
 11
76.638300000000001
 21
104.04299999999991
 31
0.0
  0
LINE
  5
89E
  8
0
 10
80.553200000000004
 20
102.08499999999999
 30
0.0
 11
80.553200000000004
 21
104.04299999999991
 31
0.0
  0
LINE
  5
89F
  8
0
 10
88.382999999999996
 20
102.08499999999999
 30
0.0
 11
88.382999999999996
 21
104.04299999999991
 31
0.0
  0
LINE
  5
8A0
  8
0
 10
84.468100000000007
 20
102.08499999999999
 30
0.0
 11
84.468100000000007
 21
104.04299999999991
 31
0.0
  0
LINE
  5
8A1
  8
0
 10
74.680899999999994
 20
104.04299999999991
 30
0.0
 11
76.638300000000001
 21
104.04299999999991
 31
0.0
  0
LINE
  5
8A2
  8
0
 10
74.680899999999994
 20
104.04299999999991
 30
0.0
 11
76.638300000000001
 21
104.04299999999991
 31
0.0
  0
LINE
  5
8A3
  8
0
 10
78.595699999999994
 20
104.04299999999991
 30
0.0
 11
80.553200000000004
 21
104.04299999999991
 31
0.0
  0
LINE
  5
8A4
  8
0
 10
76.638300000000001
 20
104.04299999999991
 30
0.0
 11
76.638300000000001
 21
102.08499999999999
 31
0.0
  0
LINE
  5
8A5
  8
0
 10
82.510599999999997
 20
104.04299999999991
 30
0.0
 11
84.468100000000007
 21
104.04299999999991
 31
0.0
  0
LINE
  5
8A6
  8
0
 10
80.553200000000004
 20
104.04299999999991
 30
0.0
 11
80.553200000000004
 21
102.08499999999999
 31
0.0
  0
LINE
  5
8A7
  8
0
 10
78.595699999999994
 20
108.0
 30
0.0
 11
78.595699999999994
 21
12.0
 31
0.0
  0
LINE
  5
8A8
  8
0
 10
76.638300000000001
 20
106.0
 30
0.0
 11
76.638300000000001
 21
108.0
 31
0.0
  0
LINE
  5
8A9
  8
0
 10
76.638300000000001
 20
108.0
 30
0.0
 11
76.638300000000001
 21
106.0
 31
0.0
  0
LINE
  5
8AA
  8
0
 10
76.638300000000001
 20
108.0
 30
0.0
 11
78.595699999999994
 21
108.0
 31
0.0
  0
LINE
  5
8AB
  8
0
 10
76.638300000000001
 20
108.0
 30
0.0
 11
76.638300000000001
 21
12.0
 31
0.0
  0
LINE
  5
8AC
  8
0
 10
82.510599999999997
 20
108.0
 30
0.0
 11
82.510599999999997
 21
12.0
 31
0.0
  0
LINE
  5
8AD
  8
0
 10
80.553200000000004
 20
106.0
 30
0.0
 11
80.553200000000004
 21
108.0
 31
0.0
  0
LINE
  5
8AE
  8
0
 10
80.553200000000004
 20
108.0
 30
0.0
 11
80.553200000000004
 21
106.0
 31
0.0
  0
LINE
  5
8AF
  8
0
 10
80.553200000000004
 20
108.0
 30
0.0
 11
82.510599999999997
 21
108.0
 31
0.0
  0
LINE
  5
8B0
  8
0
 10
80.553200000000004
 20
108.0
 30
0.0
 11
80.553200000000004
 21
12.0
 31
0.0
  0
LINE
  5
8B1
  8
0
 10
84.468100000000007
 20
106.0
 30
0.0
 11
84.468100000000007
 21
108.0
 31
0.0
  0
LINE
  5
8B2
  8
0
 10
84.468100000000007
 20
104.04299999999991
 30
0.0
 11
84.468100000000007
 21
102.08499999999999
 31
0.0
  0
LINE
  5
8B3
  8
0
 10
86.425499999999985
 20
104.04299999999991
 30
0.0
 11
88.382999999999996
 21
104.04299999999991
 31
0.0
  0
LINE
  5
8B4
  8
0
 10
86.425499999999985
 20
104.04299999999991
 30
0.0
 11
88.382999999999996
 21
104.04299999999991
 31
0.0
  0
LINE
  5
8B5
  8
0
 10
88.382999999999996
 20
106.0
 30
0.0
 11
88.382999999999996
 21
108.0
 31
0.0
  0
LINE
  5
8B6
  8
0
 10
88.382999999999996
 20
104.04299999999991
 30
0.0
 11
88.382999999999996
 21
102.08499999999999
 31
0.0
  0
LINE
  5
8B7
  8
0
 10
90.340400000000002
 20
104.04299999999991
 30
0.0
 11
92.297899999999984
 21
104.04299999999991
 31
0.0
  0
LINE
  5
8B8
  8
0
 10
90.340400000000002
 20
104.04299999999991
 30
0.0
 11
92.297899999999984
 21
104.04299999999991
 31
0.0
  0
LINE
  5
8B9
  8
0
 10
90.340400000000002
 20
108.0
 30
0.0
 11
90.340400000000002
 21
12.0
 31
0.0
  0
LINE
  5
8BA
  8
0
 10
88.382999999999996
 20
108.0
 30
0.0
 11
88.382999999999996
 21
106.0
 31
0.0
  0
LINE
  5
8BB
  8
0
 10
88.382999999999996
 20
108.0
 30
0.0
 11
90.340400000000002
 21
108.0
 31
0.0
  0
LINE
  5
8BC
  8
0
 10
88.382999999999996
 20
108.0
 30
0.0
 11
88.382999999999996
 21
12.0
 31
0.0
  0
LINE
  5
8BD
  8
0
 10
86.425499999999985
 20
108.0
 30
0.0
 11
86.425499999999985
 21
12.0
 31
0.0
  0
LINE
  5
8BE
  8
0
 10
84.468100000000007
 20
108.0
 30
0.0
 11
84.468100000000007
 21
106.0
 31
0.0
  0
LINE
  5
8BF
  8
0
 10
84.468100000000007
 20
108.0
 30
0.0
 11
86.425499999999985
 21
108.0
 31
0.0
  0
LINE
  5
8C0
  8
0
 10
84.468100000000007
 20
108.0
 30
0.0
 11
84.468100000000007
 21
12.0
 31
0.0
  0
LINE
  5
8C1
  8
0
 10
92.297899999999984
 20
102.08499999999999
 30
0.0
 11
92.297899999999984
 21
104.04299999999991
 31
0.0
  0
LINE
  5
8C2
  8
0
 10
92.297899999999984
 20
106.0
 30
0.0
 11
92.297899999999984
 21
108.0
 31
0.0
  0
LINE
  5
8C3
  8
0
 10
92.297899999999984
 20
100.1279999999999
 30
0.0
 11
92.297899999999984
 21
98.170199999999994
 31
0.0
  0
LINE
  5
8C4
  8
0
 10
92.297899999999984
 20
104.04299999999991
 30
0.0
 11
92.297899999999984
 21
102.08499999999999
 31
0.0
  0
LINE
  5
8C5
  8
0
 10
92.297899999999984
 20
96.212800000000001
 30
0.0
 11
92.297899999999984
 21
94.255300000000005
 31
0.0
  0
LINE
  5
8C6
  8
0
 10
92.297899999999984
 20
92.297899999999984
 30
0.0
 11
92.297899999999984
 21
90.340400000000002
 31
0.0
  0
LINE
  5
8C7
  8
0
 10
92.297899999999984
 20
68.808499999999995
 30
0.0
 11
92.297899999999984
 21
66.851100000000002
 31
0.0
  0
LINE
  5
8C8
  8
0
 10
92.297899999999984
 20
72.723399999999984
 30
0.0
 11
92.297899999999984
 21
70.766000000000005
 31
0.0
  0
LINE
  5
8C9
  8
0
 10
92.297899999999984
 20
64.893600000000006
 30
0.0
 11
92.297899999999984
 21
62.936199999999999
 31
0.0
  0
LINE
  5
8CA
  8
0
 10
92.297899999999984
 20
60.978700000000003
 30
0.0
 11
92.297899999999984
 21
59.021299999999989
 31
0.0
  0
LINE
  5
8CB
  8
0
 10
92.297899999999984
 20
41.404299999999999
 30
0.0
 11
92.297899999999984
 21
39.446800000000003
 31
0.0
  0
LINE
  5
8CC
  8
0
 10
92.297899999999984
 20
37.489400000000003
 30
0.0
 11
92.297899999999984
 21
35.5319
 31
0.0
  0
LINE
  5
8CD
  8
0
 10
92.297899999999984
 20
25.744700000000002
 30
0.0
 11
92.297899999999984
 21
23.787199999999991
 31
0.0
  0
LINE
  5
8CE
  8
0
 10
92.297899999999984
 20
17.914899999999999
 30
0.0
 11
92.297899999999984
 21
15.9574
 31
0.0
  0
LINE
  5
8CF
  8
0
 10
92.297899999999984
 20
14.0
 30
0.0
 11
92.297899999999984
 21
12.0
 31
0.0
  0
LINE
  5
8D0
  8
0
 10
94.255300000000005
 20
14.0
 30
0.0
 11
96.212800000000001
 21
14.0
 31
0.0
  0
LINE
  5
8D1
  8
0
 10
94.255300000000005
 20
21.829799999999999
 30
0.0
 11
96.212800000000001
 21
21.829799999999999
 31
0.0
  0
LINE
  5
8D2
  8
0
 10
94.255300000000005
 20
17.914899999999999
 30
0.0
 11
96.212800000000001
 21
17.914899999999999
 31
0.0
  0
LINE
  5
8D3
  8
0
 10
94.255300000000005
 20
25.744700000000002
 30
0.0
 11
96.212800000000001
 21
25.744700000000002
 31
0.0
  0
LINE
  5
8D4
  8
0
 10
96.212800000000001
 20
23.787199999999991
 30
0.0
 11
96.212800000000001
 21
25.744700000000002
 31
0.0
  0
LINE
  5
8D5
  8
0
 10
96.212800000000001
 20
19.872299999999999
 30
0.0
 11
96.212800000000001
 21
21.829799999999999
 31
0.0
  0
LINE
  5
8D6
  8
0
 10
96.212800000000001
 20
15.9574
 30
0.0
 11
96.212800000000001
 21
17.914899999999999
 31
0.0
  0
LINE
  5
8D7
  8
0
 10
96.212800000000001
 20
21.829799999999999
 30
0.0
 11
96.212800000000001
 21
19.872299999999999
 31
0.0
  0
LINE
  5
8D8
  8
0
 10
94.255300000000005
 20
29.659600000000001
 30
0.0
 11
96.212800000000001
 21
29.659600000000001
 31
0.0
  0
LINE
  5
8D9
  8
0
 10
96.212800000000001
 20
27.702100000000002
 30
0.0
 11
96.212800000000001
 21
29.659600000000001
 31
0.0
  0
LINE
  5
8DA
  8
0
 10
94.255300000000005
 20
33.5745
 30
0.0
 11
96.212800000000001
 21
33.5745
 31
0.0
  0
LINE
  5
8DB
  8
0
 10
96.212800000000001
 20
31.61699999999999
 30
0.0
 11
96.212800000000001
 21
33.5745
 31
0.0
  0
LINE
  5
8DC
  8
0
 10
94.255300000000005
 20
41.404299999999999
 30
0.0
 11
96.212800000000001
 21
41.404299999999999
 31
0.0
  0
LINE
  5
8DD
  8
0
 10
94.255300000000005
 20
37.489400000000003
 30
0.0
 11
96.212800000000001
 21
37.489400000000003
 31
0.0
  0
LINE
  5
8DE
  8
0
 10
96.212800000000001
 20
35.5319
 30
0.0
 11
96.212800000000001
 21
37.489400000000003
 31
0.0
  0
LINE
  5
8DF
  8
0
 10
96.212800000000001
 20
39.446800000000003
 30
0.0
 11
96.212800000000001
 21
41.404299999999999
 31
0.0
  0
LINE
  5
8E0
  8
0
 10
96.212800000000001
 20
29.659600000000001
 30
0.0
 11
96.212800000000001
 21
27.702100000000002
 31
0.0
  0
LINE
  5
8E1
  8
0
 10
96.212800000000001
 20
33.5745
 30
0.0
 11
96.212800000000001
 21
31.61699999999999
 31
0.0
  0
LINE
  5
8E2
  8
0
 10
96.212800000000001
 20
43.361699999999999
 30
0.0
 11
96.212800000000001
 21
45.319099999999992
 31
0.0
  0
LINE
  5
8E3
  8
0
 10
94.255300000000005
 20
45.319099999999992
 30
0.0
 11
96.212800000000001
 21
45.319099999999992
 31
0.0
  0
LINE
  5
8E4
  8
0
 10
94.255300000000005
 20
49.233999999999988
 30
0.0
 11
96.212800000000001
 21
49.233999999999988
 31
0.0
  0
LINE
  5
8E5
  8
0
 10
96.212800000000001
 20
47.276600000000002
 30
0.0
 11
96.212800000000001
 21
49.233999999999988
 31
0.0
  0
LINE
  5
8E6
  8
0
 10
94.255300000000005
 20
53.148899999999998
 30
0.0
 11
96.212800000000001
 21
53.148899999999998
 31
0.0
  0
LINE
  5
8E7
  8
0
 10
96.212800000000001
 20
51.191499999999998
 30
0.0
 11
96.212800000000001
 21
53.148899999999998
 31
0.0
  0
LINE
  5
8E8
  8
0
 10
96.212800000000001
 20
55.106400000000001
 30
0.0
 11
96.212800000000001
 21
57.063800000000001
 31
0.0
  0
LINE
  5
8E9
  8
0
 10
96.212800000000001
 20
45.319099999999992
 30
0.0
 11
96.212800000000001
 21
43.361699999999999
 31
0.0
  0
LINE
  5
8EA
  8
0
 10
96.212800000000001
 20
49.233999999999988
 30
0.0
 11
96.212800000000001
 21
47.276600000000002
 31
0.0
  0
LINE
  5
8EB
  8
0
 10
94.255300000000005
 20
57.063800000000001
 30
0.0
 11
96.212800000000001
 21
57.063800000000001
 31
0.0
  0
LINE
  5
8EC
  8
0
 10
94.255300000000005
 20
64.893600000000006
 30
0.0
 11
96.212800000000001
 21
64.893600000000006
 31
0.0
  0
LINE
  5
8ED
  8
0
 10
94.255300000000005
 20
60.978700000000003
 30
0.0
 11
96.212800000000001
 21
60.978700000000003
 31
0.0
  0
LINE
  5
8EE
  8
0
 10
96.212800000000001
 20
59.021299999999989
 30
0.0
 11
96.212800000000001
 21
60.978700000000003
 31
0.0
  0
LINE
  5
8EF
  8
0
 10
96.212800000000001
 20
62.936199999999999
 30
0.0
 11
96.212800000000001
 21
64.893600000000006
 31
0.0
  0
LINE
  5
8F0
  8
0
 10
96.212800000000001
 20
57.063800000000001
 30
0.0
 11
96.212800000000001
 21
55.106400000000001
 31
0.0
  0
LINE
  5
8F1
  8
0
 10
96.212800000000001
 20
53.148899999999998
 30
0.0
 11
96.212800000000001
 21
51.191499999999998
 31
0.0
  0
LINE
  5
8F2
  8
0
 10
94.255300000000005
 20
68.808499999999995
 30
0.0
 11
96.212800000000001
 21
68.808499999999995
 31
0.0
  0
LINE
  5
8F3
  8
0
 10
96.212800000000001
 20
66.851100000000002
 30
0.0
 11
96.212800000000001
 21
68.808499999999995
 31
0.0
  0
LINE
  5
8F4
  8
0
 10
94.255300000000005
 20
76.638300000000001
 30
0.0
 11
96.212800000000001
 21
76.638300000000001
 31
0.0
  0
LINE
  5
8F5
  8
0
 10
94.255300000000005
 20
72.723399999999984
 30
0.0
 11
96.212800000000001
 21
72.723399999999984
 31
0.0
  0
LINE
  5
8F6
  8
0
 10
96.212800000000001
 20
70.766000000000005
 30
0.0
 11
96.212800000000001
 21
72.723399999999984
 31
0.0
  0
LINE
  5
8F7
  8
0
 10
96.212800000000001
 20
74.680899999999994
 30
0.0
 11
96.212800000000001
 21
76.638300000000001
 31
0.0
  0
LINE
  5
8F8
  8
0
 10
94.255300000000005
 20
80.553200000000004
 30
0.0
 11
96.212800000000001
 21
80.553200000000004
 31
0.0
  0
LINE
  5
8F9
  8
0
 10
96.212800000000001
 20
78.595699999999994
 30
0.0
 11
96.212800000000001
 21
80.553200000000004
 31
0.0
  0
LINE
  5
8FA
  8
0
 10
94.255300000000005
 20
88.382999999999996
 30
0.0
 11
96.212800000000001
 21
88.382999999999996
 31
0.0
  0
LINE
  5
8FB
  8
0
 10
94.255300000000005
 20
84.468100000000007
 30
0.0
 11
96.212800000000001
 21
84.468100000000007
 31
0.0
  0
LINE
  5
8FC
  8
0
 10
96.212800000000001
 20
82.510599999999997
 30
0.0
 11
96.212800000000001
 21
84.468100000000007
 31
0.0
  0
LINE
  5
8FD
  8
0
 10
96.212800000000001
 20
86.425499999999985
 30
0.0
 11
96.212800000000001
 21
88.382999999999996
 31
0.0
  0
LINE
  5
8FE
  8
0
 10
96.212800000000001
 20
76.638300000000001
 30
0.0
 11
96.212800000000001
 21
74.680899999999994
 31
0.0
  0
LINE
  5
8FF
  8
0
 10
96.212800000000001
 20
80.553200000000004
 30
0.0
 11
96.212800000000001
 21
78.595699999999994
 31
0.0
  0
LINE
  5
900
  8
0
 10
94.255300000000005
 20
96.212800000000001
 30
0.0
 11
96.212800000000001
 21
96.212800000000001
 31
0.0
  0
LINE
  5
901
  8
0
 10
94.255300000000005
 20
92.297899999999984
 30
0.0
 11
96.212800000000001
 21
92.297899999999984
 31
0.0
  0
LINE
  5
902
  8
0
 10
96.212800000000001
 20
90.340400000000002
 30
0.0
 11
96.212800000000001
 21
92.297899999999984
 31
0.0
  0
LINE
  5
903
  8
0
 10
96.212800000000001
 20
94.255300000000005
 30
0.0
 11
96.212800000000001
 21
96.212800000000001
 31
0.0
  0
LINE
  5
904
  8
0
 10
96.212800000000001
 20
88.382999999999996
 30
0.0
 11
96.212800000000001
 21
86.425499999999985
 31
0.0
  0
LINE
  5
905
  8
0
 10
96.212800000000001
 20
84.468100000000007
 30
0.0
 11
96.212800000000001
 21
82.510599999999997
 31
0.0
  0
LINE
  5
906
  8
0
 10
94.255300000000005
 20
100.1279999999999
 30
0.0
 11
96.212800000000001
 21
100.1279999999999
 31
0.0
  0
LINE
  5
907
  8
0
 10
96.212800000000001
 20
98.170199999999994
 30
0.0
 11
96.212800000000001
 21
100.1279999999999
 31
0.0
  0
LINE
  5
908
  8
0
 10
94.255300000000005
 20
104.04299999999991
 30
0.0
 11
96.212800000000001
 21
104.04299999999991
 31
0.0
  0
LINE
  5
909
  8
0
 10
96.212800000000001
 20
102.08499999999999
 30
0.0
 11
96.212800000000001
 21
104.04299999999991
 31
0.0
  0
LINE
  5
90A
  8
0
 10
96.212800000000001
 20
106.0
 30
0.0
 11
96.212800000000001
 21
108.0
 31
0.0
  0
LINE
  5
90B
  8
0
 10
96.212800000000001
 20
100.1279999999999
 30
0.0
 11
96.212800000000001
 21
98.170199999999994
 31
0.0
  0
LINE
  5
90C
  8
0
 10
96.212800000000001
 20
104.04299999999991
 30
0.0
 11
96.212800000000001
 21
102.08499999999999
 31
0.0
  0
LINE
  5
90D
  8
0
 10
96.212800000000001
 20
96.212800000000001
 30
0.0
 11
96.212800000000001
 21
94.255300000000005
 31
0.0
  0
LINE
  5
90E
  8
0
 10
96.212800000000001
 20
92.297899999999984
 30
0.0
 11
96.212800000000001
 21
90.340400000000002
 31
0.0
  0
LINE
  5
90F
  8
0
 10
96.212800000000001
 20
68.808499999999995
 30
0.0
 11
96.212800000000001
 21
66.851100000000002
 31
0.0
  0
LINE
  5
910
  8
0
 10
96.212800000000001
 20
72.723399999999984
 30
0.0
 11
96.212800000000001
 21
70.766000000000005
 31
0.0
  0
LINE
  5
911
  8
0
 10
96.212800000000001
 20
64.893600000000006
 30
0.0
 11
96.212800000000001
 21
62.936199999999999
 31
0.0
  0
LINE
  5
912
  8
0
 10
96.212800000000001
 20
60.978700000000003
 30
0.0
 11
96.212800000000001
 21
59.021299999999989
 31
0.0
  0
LINE
  5
913
  8
0
 10
96.212800000000001
 20
41.404299999999999
 30
0.0
 11
96.212800000000001
 21
39.446800000000003
 31
0.0
  0
LINE
  5
914
  8
0
 10
96.212800000000001
 20
37.489400000000003
 30
0.0
 11
96.212800000000001
 21
35.5319
 31
0.0
  0
LINE
  5
915
  8
0
 10
96.212800000000001
 20
25.744700000000002
 30
0.0
 11
96.212800000000001
 21
23.787199999999991
 31
0.0
  0
LINE
  5
916
  8
0
 10
96.212800000000001
 20
17.914899999999999
 30
0.0
 11
96.212800000000001
 21
15.9574
 31
0.0
  0
LINE
  5
917
  8
0
 10
96.212800000000001
 20
14.0
 30
0.0
 11
96.212800000000001
 21
12.0
 31
0.0
  0
LINE
  5
918
  8
0
 10
98.170199999999994
 20
14.0
 30
0.0
 11
100.1279999999999
 21
14.0
 31
0.0
  0
LINE
  5
919
  8
0
 10
102.08499999999999
 20
14.0
 30
0.0
 11
104.04299999999991
 21
14.0
 31
0.0
  0
LINE
  5
91A
  8
0
 10
102.08499999999999
 20
14.0
 30
0.0
 11
104.04299999999991
 21
14.0
 31
0.0
  0
LINE
  5
91B
  8
0
 10
100.1279999999999
 20
14.0
 30
0.0
 11
100.1279999999999
 21
12.0
 31
0.0
  0
LINE
  5
91C
  8
0
 10
100.1279999999999
 20
15.9574
 30
0.0
 11
100.1279999999999
 21
17.914899999999999
 31
0.0
  0
LINE
  5
91D
  8
0
 10
98.170199999999994
 20
21.829799999999999
 30
0.0
 11
100.1279999999999
 21
21.829799999999999
 31
0.0
  0
LINE
  5
91E
  8
0
 10
98.170199999999994
 20
17.914899999999999
 30
0.0
 11
100.1279999999999
 21
17.914899999999999
 31
0.0
  0
LINE
  5
91F
  8
0
 10
100.1279999999999
 20
19.872299999999999
 30
0.0
 11
100.1279999999999
 21
21.829799999999999
 31
0.0
  0
LINE
  5
920
  8
0
 10
100.1279999999999
 20
23.787199999999991
 30
0.0
 11
100.1279999999999
 21
25.744700000000002
 31
0.0
  0
LINE
  5
921
  8
0
 10
100.1279999999999
 20
21.829799999999999
 30
0.0
 11
100.1279999999999
 21
19.872299999999999
 31
0.0
  0
LINE
  5
922
  8
0
 10
102.08499999999999
 20
21.829799999999999
 30
0.0
 11
104.04299999999991
 21
21.829799999999999
 31
0.0
  0
LINE
  5
923
  8
0
 10
102.08499999999999
 20
21.829799999999999
 30
0.0
 11
104.04299999999991
 21
21.829799999999999
 31
0.0
  0
LINE
  5
924
  8
0
 10
102.08499999999999
 20
17.914899999999999
 30
0.0
 11
104.04299999999991
 21
17.914899999999999
 31
0.0
  0
LINE
  5
925
  8
0
 10
102.08499999999999
 20
17.914899999999999
 30
0.0
 11
104.04299999999991
 21
17.914899999999999
 31
0.0
  0
LINE
  5
926
  8
0
 10
100.1279999999999
 20
17.914899999999999
 30
0.0
 11
100.1279999999999
 21
15.9574
 31
0.0
  0
LINE
  5
927
  8
0
 10
98.170199999999994
 20
25.744700000000002
 30
0.0
 11
100.1279999999999
 21
25.744700000000002
 31
0.0
  0
LINE
  5
928
  8
0
 10
102.08499999999999
 20
25.744700000000002
 30
0.0
 11
104.04299999999991
 21
25.744700000000002
 31
0.0
  0
LINE
  5
929
  8
0
 10
102.08499999999999
 20
25.744700000000002
 30
0.0
 11
104.04299999999991
 21
25.744700000000002
 31
0.0
  0
LINE
  5
92A
  8
0
 10
100.1279999999999
 20
25.744700000000002
 30
0.0
 11
100.1279999999999
 21
23.787199999999991
 31
0.0
  0
LINE
  5
92B
  8
0
 10
104.04299999999991
 20
23.787199999999991
 30
0.0
 11
104.04299999999991
 21
25.744700000000002
 31
0.0
  0
LINE
  5
92C
  8
0
 10
104.04299999999991
 20
19.872299999999999
 30
0.0
 11
104.04299999999991
 21
21.829799999999999
 31
0.0
  0
LINE
  5
92D
  8
0
 10
104.04299999999991
 20
15.9574
 30
0.0
 11
104.04299999999991
 21
17.914899999999999
 31
0.0
  0
LINE
  5
92E
  8
0
 10
104.04299999999991
 20
21.829799999999999
 30
0.0
 11
104.04299999999991
 21
19.872299999999999
 31
0.0
  0
LINE
  5
92F
  8
0
 10
98.170199999999994
 20
29.659600000000001
 30
0.0
 11
100.1279999999999
 21
29.659600000000001
 31
0.0
  0
LINE
  5
930
  8
0
 10
102.08499999999999
 20
29.659600000000001
 30
0.0
 11
104.04299999999991
 21
29.659600000000001
 31
0.0
  0
LINE
  5
931
  8
0
 10
102.08499999999999
 20
29.659600000000001
 30
0.0
 11
104.04299999999991
 21
29.659600000000001
 31
0.0
  0
LINE
  5
932
  8
0
 10
100.1279999999999
 20
27.702100000000002
 30
0.0
 11
100.1279999999999
 21
29.659600000000001
 31
0.0
  0
LINE
  5
933
  8
0
 10
100.1279999999999
 20
29.659600000000001
 30
0.0
 11
100.1279999999999
 21
27.702100000000002
 31
0.0
  0
LINE
  5
934
  8
0
 10
104.04299999999991
 20
27.702100000000002
 30
0.0
 11
104.04299999999991
 21
29.659600000000001
 31
0.0
  0
LINE
  5
935
  8
0
 10
98.170199999999994
 20
33.5745
 30
0.0
 11
100.1279999999999
 21
33.5745
 31
0.0
  0
LINE
  5
936
  8
0
 10
102.08499999999999
 20
33.5745
 30
0.0
 11
104.04299999999991
 21
33.5745
 31
0.0
  0
LINE
  5
937
  8
0
 10
102.08499999999999
 20
33.5745
 30
0.0
 11
104.04299999999991
 21
33.5745
 31
0.0
  0
LINE
  5
938
  8
0
 10
100.1279999999999
 20
31.61699999999999
 30
0.0
 11
100.1279999999999
 21
33.5745
 31
0.0
  0
LINE
  5
939
  8
0
 10
100.1279999999999
 20
35.5319
 30
0.0
 11
100.1279999999999
 21
37.489400000000003
 31
0.0
  0
LINE
  5
93A
  8
0
 10
100.1279999999999
 20
33.5745
 30
0.0
 11
100.1279999999999
 21
31.61699999999999
 31
0.0
  0
LINE
  5
93B
  8
0
 10
104.04299999999991
 20
31.61699999999999
 30
0.0
 11
104.04299999999991
 21
33.5745
 31
0.0
  0
LINE
  5
93C
  8
0
 10
98.170199999999994
 20
41.404299999999999
 30
0.0
 11
100.1279999999999
 21
41.404299999999999
 31
0.0
  0
LINE
  5
93D
  8
0
 10
98.170199999999994
 20
37.489400000000003
 30
0.0
 11
100.1279999999999
 21
37.489400000000003
 31
0.0
  0
LINE
  5
93E
  8
0
 10
100.1279999999999
 20
39.446800000000003
 30
0.0
 11
100.1279999999999
 21
41.404299999999999
 31
0.0
  0
LINE
  5
93F
  8
0
 10
100.1279999999999
 20
41.404299999999999
 30
0.0
 11
100.1279999999999
 21
39.446800000000003
 31
0.0
  0
LINE
  5
940
  8
0
 10
102.08499999999999
 20
41.404299999999999
 30
0.0
 11
104.04299999999991
 21
41.404299999999999
 31
0.0
  0
LINE
  5
941
  8
0
 10
102.08499999999999
 20
41.404299999999999
 30
0.0
 11
104.04299999999991
 21
41.404299999999999
 31
0.0
  0
LINE
  5
942
  8
0
 10
102.08499999999999
 20
37.489400000000003
 30
0.0
 11
104.04299999999991
 21
37.489400000000003
 31
0.0
  0
LINE
  5
943
  8
0
 10
102.08499999999999
 20
37.489400000000003
 30
0.0
 11
104.04299999999991
 21
37.489400000000003
 31
0.0
  0
LINE
  5
944
  8
0
 10
100.1279999999999
 20
37.489400000000003
 30
0.0
 11
100.1279999999999
 21
35.5319
 31
0.0
  0
LINE
  5
945
  8
0
 10
104.04299999999991
 20
35.5319
 30
0.0
 11
104.04299999999991
 21
37.489400000000003
 31
0.0
  0
LINE
  5
946
  8
0
 10
104.04299999999991
 20
39.446800000000003
 30
0.0
 11
104.04299999999991
 21
41.404299999999999
 31
0.0
  0
LINE
  5
947
  8
0
 10
104.04299999999991
 20
29.659600000000001
 30
0.0
 11
104.04299999999991
 21
27.702100000000002
 31
0.0
  0
LINE
  5
948
  8
0
 10
104.04299999999991
 20
33.5745
 30
0.0
 11
104.04299999999991
 21
31.61699999999999
 31
0.0
  0
LINE
  5
949
  8
0
 10
100.1279999999999
 20
43.361699999999999
 30
0.0
 11
100.1279999999999
 21
45.319099999999992
 31
0.0
  0
LINE
  5
94A
  8
0
 10
100.1279999999999
 20
45.319099999999992
 30
0.0
 11
100.1279999999999
 21
43.361699999999999
 31
0.0
  0
LINE
  5
94B
  8
0
 10
104.04299999999991
 20
43.361699999999999
 30
0.0
 11
104.04299999999991
 21
45.319099999999992
 31
0.0
  0
LINE
  5
94C
  8
0
 10
98.170199999999994
 20
45.319099999999992
 30
0.0
 11
100.1279999999999
 21
45.319099999999992
 31
0.0
  0
LINE
  5
94D
  8
0
 10
102.08499999999999
 20
45.319099999999992
 30
0.0
 11
104.04299999999991
 21
45.319099999999992
 31
0.0
  0
LINE
  5
94E
  8
0
 10
102.08499999999999
 20
45.319099999999992
 30
0.0
 11
104.04299999999991
 21
45.319099999999992
 31
0.0
  0
LINE
  5
94F
  8
0
 10
100.1279999999999
 20
47.276600000000002
 30
0.0
 11
100.1279999999999
 21
49.233999999999988
 31
0.0
  0
LINE
  5
950
  8
0
 10
98.170199999999994
 20
49.233999999999988
 30
0.0
 11
100.1279999999999
 21
49.233999999999988
 31
0.0
  0
LINE
  5
951
  8
0
 10
102.08499999999999
 20
49.233999999999988
 30
0.0
 11
104.04299999999991
 21
49.233999999999988
 31
0.0
  0
LINE
  5
952
  8
0
 10
102.08499999999999
 20
49.233999999999988
 30
0.0
 11
104.04299999999991
 21
49.233999999999988
 31
0.0
  0
LINE
  5
953
  8
0
 10
100.1279999999999
 20
51.191499999999998
 30
0.0
 11
100.1279999999999
 21
53.148899999999998
 31
0.0
  0
LINE
  5
954
  8
0
 10
100.1279999999999
 20
49.233999999999988
 30
0.0
 11
100.1279999999999
 21
47.276600000000002
 31
0.0
  0
LINE
  5
955
  8
0
 10
104.04299999999991
 20
47.276600000000002
 30
0.0
 11
104.04299999999991
 21
49.233999999999988
 31
0.0
  0
LINE
  5
956
  8
0
 10
98.170199999999994
 20
53.148899999999998
 30
0.0
 11
100.1279999999999
 21
53.148899999999998
 31
0.0
  0
LINE
  5
957
  8
0
 10
100.1279999999999
 20
55.106400000000001
 30
0.0
 11
100.1279999999999
 21
57.063800000000001
 31
0.0
  0
LINE
  5
958
  8
0
 10
100.1279999999999
 20
57.063800000000001
 30
0.0
 11
100.1279999999999
 21
55.106400000000001
 31
0.0
  0
LINE
  5
959
  8
0
 10
102.08499999999999
 20
53.148899999999998
 30
0.0
 11
104.04299999999991
 21
53.148899999999998
 31
0.0
  0
LINE
  5
95A
  8
0
 10
102.08499999999999
 20
53.148899999999998
 30
0.0
 11
104.04299999999991
 21
53.148899999999998
 31
0.0
  0
LINE
  5
95B
  8
0
 10
100.1279999999999
 20
53.148899999999998
 30
0.0
 11
100.1279999999999
 21
51.191499999999998
 31
0.0
  0
LINE
  5
95C
  8
0
 10
104.04299999999991
 20
51.191499999999998
 30
0.0
 11
104.04299999999991
 21
53.148899999999998
 31
0.0
  0
LINE
  5
95D
  8
0
 10
104.04299999999991
 20
55.106400000000001
 30
0.0
 11
104.04299999999991
 21
57.063800000000001
 31
0.0
  0
LINE
  5
95E
  8
0
 10
104.04299999999991
 20
45.319099999999992
 30
0.0
 11
104.04299999999991
 21
43.361699999999999
 31
0.0
  0
LINE
  5
95F
  8
0
 10
104.04299999999991
 20
49.233999999999988
 30
0.0
 11
104.04299999999991
 21
47.276600000000002
 31
0.0
  0
LINE
  5
960
  8
0
 10
98.170199999999994
 20
57.063800000000001
 30
0.0
 11
100.1279999999999
 21
57.063800000000001
 31
0.0
  0
LINE
  5
961
  8
0
 10
102.08499999999999
 20
57.063800000000001
 30
0.0
 11
104.04299999999991
 21
57.063800000000001
 31
0.0
  0
LINE
  5
962
  8
0
 10
102.08499999999999
 20
57.063800000000001
 30
0.0
 11
104.04299999999991
 21
57.063800000000001
 31
0.0
  0
LINE
  5
963
  8
0
 10
100.1279999999999
 20
59.021299999999989
 30
0.0
 11
100.1279999999999
 21
60.978700000000003
 31
0.0
  0
LINE
  5
964
  8
0
 10
98.170199999999994
 20
64.893600000000006
 30
0.0
 11
100.1279999999999
 21
64.893600000000006
 31
0.0
  0
LINE
  5
965
  8
0
 10
98.170199999999994
 20
60.978700000000003
 30
0.0
 11
100.1279999999999
 21
60.978700000000003
 31
0.0
  0
LINE
  5
966
  8
0
 10
100.1279999999999
 20
62.936199999999999
 30
0.0
 11
100.1279999999999
 21
64.893600000000006
 31
0.0
  0
LINE
  5
967
  8
0
 10
100.1279999999999
 20
64.893600000000006
 30
0.0
 11
100.1279999999999
 21
62.936199999999999
 31
0.0
  0
LINE
  5
968
  8
0
 10
102.08499999999999
 20
64.893600000000006
 30
0.0
 11
104.04299999999991
 21
64.893600000000006
 31
0.0
  0
LINE
  5
969
  8
0
 10
102.08499999999999
 20
64.893600000000006
 30
0.0
 11
104.04299999999991
 21
64.893600000000006
 31
0.0
  0
LINE
  5
96A
  8
0
 10
102.08499999999999
 20
60.978700000000003
 30
0.0
 11
104.04299999999991
 21
60.978700000000003
 31
0.0
  0
LINE
  5
96B
  8
0
 10
102.08499999999999
 20
60.978700000000003
 30
0.0
 11
104.04299999999991
 21
60.978700000000003
 31
0.0
  0
LINE
  5
96C
  8
0
 10
100.1279999999999
 20
60.978700000000003
 30
0.0
 11
100.1279999999999
 21
59.021299999999989
 31
0.0
  0
LINE
  5
96D
  8
0
 10
104.04299999999991
 20
59.021299999999989
 30
0.0
 11
104.04299999999991
 21
60.978700000000003
 31
0.0
  0
LINE
  5
96E
  8
0
 10
104.04299999999991
 20
62.936199999999999
 30
0.0
 11
104.04299999999991
 21
64.893600000000006
 31
0.0
  0
LINE
  5
96F
  8
0
 10
104.04299999999991
 20
57.063800000000001
 30
0.0
 11
104.04299999999991
 21
55.106400000000001
 31
0.0
  0
LINE
  5
970
  8
0
 10
104.04299999999991
 20
53.148899999999998
 30
0.0
 11
104.04299999999991
 21
51.191499999999998
 31
0.0
  0
LINE
  5
971
  8
0
 10
98.170199999999994
 20
68.808499999999995
 30
0.0
 11
100.1279999999999
 21
68.808499999999995
 31
0.0
  0
LINE
  5
972
  8
0
 10
102.08499999999999
 20
68.808499999999995
 30
0.0
 11
104.04299999999991
 21
68.808499999999995
 31
0.0
  0
LINE
  5
973
  8
0
 10
102.08499999999999
 20
68.808499999999995
 30
0.0
 11
104.04299999999991
 21
68.808499999999995
 31
0.0
  0
LINE
  5
974
  8
0
 10
100.1279999999999
 20
66.851100000000002
 30
0.0
 11
100.1279999999999
 21
68.808499999999995
 31
0.0
  0
LINE
  5
975
  8
0
 10
100.1279999999999
 20
68.808499999999995
 30
0.0
 11
100.1279999999999
 21
66.851100000000002
 31
0.0
  0
LINE
  5
976
  8
0
 10
104.04299999999991
 20
66.851100000000002
 30
0.0
 11
104.04299999999991
 21
68.808499999999995
 31
0.0
  0
LINE
  5
977
  8
0
 10
100.1279999999999
 20
70.766000000000005
 30
0.0
 11
100.1279999999999
 21
72.723399999999984
 31
0.0
  0
LINE
  5
978
  8
0
 10
98.170199999999994
 20
76.638300000000001
 30
0.0
 11
100.1279999999999
 21
76.638300000000001
 31
0.0
  0
LINE
  5
979
  8
0
 10
98.170199999999994
 20
72.723399999999984
 30
0.0
 11
100.1279999999999
 21
72.723399999999984
 31
0.0
  0
LINE
  5
97A
  8
0
 10
100.1279999999999
 20
74.680899999999994
 30
0.0
 11
100.1279999999999
 21
76.638300000000001
 31
0.0
  0
LINE
  5
97B
  8
0
 10
100.1279999999999
 20
76.638300000000001
 30
0.0
 11
100.1279999999999
 21
74.680899999999994
 31
0.0
  0
LINE
  5
97C
  8
0
 10
102.08499999999999
 20
76.638300000000001
 30
0.0
 11
104.04299999999991
 21
76.638300000000001
 31
0.0
  0
LINE
  5
97D
  8
0
 10
102.08499999999999
 20
76.638300000000001
 30
0.0
 11
104.04299999999991
 21
76.638300000000001
 31
0.0
  0
LINE
  5
97E
  8
0
 10
102.08499999999999
 20
72.723399999999984
 30
0.0
 11
104.04299999999991
 21
72.723399999999984
 31
0.0
  0
LINE
  5
97F
  8
0
 10
102.08499999999999
 20
72.723399999999984
 30
0.0
 11
104.04299999999991
 21
72.723399999999984
 31
0.0
  0
LINE
  5
980
  8
0
 10
100.1279999999999
 20
72.723399999999984
 30
0.0
 11
100.1279999999999
 21
70.766000000000005
 31
0.0
  0
LINE
  5
981
  8
0
 10
104.04299999999991
 20
70.766000000000005
 30
0.0
 11
104.04299999999991
 21
72.723399999999984
 31
0.0
  0
LINE
  5
982
  8
0
 10
104.04299999999991
 20
74.680899999999994
 30
0.0
 11
104.04299999999991
 21
76.638300000000001
 31
0.0
  0
LINE
  5
983
  8
0
 10
98.170199999999994
 20
80.553200000000004
 30
0.0
 11
100.1279999999999
 21
80.553200000000004
 31
0.0
  0
LINE
  5
984
  8
0
 10
102.08499999999999
 20
80.553200000000004
 30
0.0
 11
104.04299999999991
 21
80.553200000000004
 31
0.0
  0
LINE
  5
985
  8
0
 10
102.08499999999999
 20
80.553200000000004
 30
0.0
 11
104.04299999999991
 21
80.553200000000004
 31
0.0
  0
LINE
  5
986
  8
0
 10
100.1279999999999
 20
78.595699999999994
 30
0.0
 11
100.1279999999999
 21
80.553200000000004
 31
0.0
  0
LINE
  5
987
  8
0
 10
100.1279999999999
 20
82.510599999999997
 30
0.0
 11
100.1279999999999
 21
84.468100000000007
 31
0.0
  0
LINE
  5
988
  8
0
 10
100.1279999999999
 20
80.553200000000004
 30
0.0
 11
100.1279999999999
 21
78.595699999999994
 31
0.0
  0
LINE
  5
989
  8
0
 10
104.04299999999991
 20
78.595699999999994
 30
0.0
 11
104.04299999999991
 21
80.553200000000004
 31
0.0
  0
LINE
  5
98A
  8
0
 10
98.170199999999994
 20
88.382999999999996
 30
0.0
 11
100.1279999999999
 21
88.382999999999996
 31
0.0
  0
LINE
  5
98B
  8
0
 10
98.170199999999994
 20
84.468100000000007
 30
0.0
 11
100.1279999999999
 21
84.468100000000007
 31
0.0
  0
LINE
  5
98C
  8
0
 10
100.1279999999999
 20
86.425499999999985
 30
0.0
 11
100.1279999999999
 21
88.382999999999996
 31
0.0
  0
LINE
  5
98D
  8
0
 10
100.1279999999999
 20
88.382999999999996
 30
0.0
 11
100.1279999999999
 21
86.425499999999985
 31
0.0
  0
LINE
  5
98E
  8
0
 10
102.08499999999999
 20
88.382999999999996
 30
0.0
 11
104.04299999999991
 21
88.382999999999996
 31
0.0
  0
LINE
  5
98F
  8
0
 10
102.08499999999999
 20
88.382999999999996
 30
0.0
 11
104.04299999999991
 21
88.382999999999996
 31
0.0
  0
LINE
  5
990
  8
0
 10
102.08499999999999
 20
84.468100000000007
 30
0.0
 11
104.04299999999991
 21
84.468100000000007
 31
0.0
  0
LINE
  5
991
  8
0
 10
102.08499999999999
 20
84.468100000000007
 30
0.0
 11
104.04299999999991
 21
84.468100000000007
 31
0.0
  0
LINE
  5
992
  8
0
 10
100.1279999999999
 20
84.468100000000007
 30
0.0
 11
100.1279999999999
 21
82.510599999999997
 31
0.0
  0
LINE
  5
993
  8
0
 10
104.04299999999991
 20
82.510599999999997
 30
0.0
 11
104.04299999999991
 21
84.468100000000007
 31
0.0
  0
LINE
  5
994
  8
0
 10
104.04299999999991
 20
86.425499999999985
 30
0.0
 11
104.04299999999991
 21
88.382999999999996
 31
0.0
  0
LINE
  5
995
  8
0
 10
104.04299999999991
 20
76.638300000000001
 30
0.0
 11
104.04299999999991
 21
74.680899999999994
 31
0.0
  0
LINE
  5
996
  8
0
 10
104.04299999999991
 20
80.553200000000004
 30
0.0
 11
104.04299999999991
 21
78.595699999999994
 31
0.0
  0
LINE
  5
997
  8
0
 10
100.1279999999999
 20
90.340400000000002
 30
0.0
 11
100.1279999999999
 21
92.297899999999984
 31
0.0
  0
LINE
  5
998
  8
0
 10
98.170199999999994
 20
96.212800000000001
 30
0.0
 11
100.1279999999999
 21
96.212800000000001
 31
0.0
  0
LINE
  5
999
  8
0
 10
98.170199999999994
 20
92.297899999999984
 30
0.0
 11
100.1279999999999
 21
92.297899999999984
 31
0.0
  0
LINE
  5
99A
  8
0
 10
100.1279999999999
 20
94.255300000000005
 30
0.0
 11
100.1279999999999
 21
96.212800000000001
 31
0.0
  0
LINE
  5
99B
  8
0
 10
100.1279999999999
 20
96.212800000000001
 30
0.0
 11
100.1279999999999
 21
94.255300000000005
 31
0.0
  0
LINE
  5
99C
  8
0
 10
102.08499999999999
 20
96.212800000000001
 30
0.0
 11
104.04299999999991
 21
96.212800000000001
 31
0.0
  0
LINE
  5
99D
  8
0
 10
102.08499999999999
 20
96.212800000000001
 30
0.0
 11
104.04299999999991
 21
96.212800000000001
 31
0.0
  0
LINE
  5
99E
  8
0
 10
102.08499999999999
 20
92.297899999999984
 30
0.0
 11
104.04299999999991
 21
92.297899999999984
 31
0.0
  0
LINE
  5
99F
  8
0
 10
102.08499999999999
 20
92.297899999999984
 30
0.0
 11
104.04299999999991
 21
92.297899999999984
 31
0.0
  0
LINE
  5
9A0
  8
0
 10
100.1279999999999
 20
92.297899999999984
 30
0.0
 11
100.1279999999999
 21
90.340400000000002
 31
0.0
  0
LINE
  5
9A1
  8
0
 10
104.04299999999991
 20
90.340400000000002
 30
0.0
 11
104.04299999999991
 21
92.297899999999984
 31
0.0
  0
LINE
  5
9A2
  8
0
 10
104.04299999999991
 20
94.255300000000005
 30
0.0
 11
104.04299999999991
 21
96.212800000000001
 31
0.0
  0
LINE
  5
9A3
  8
0
 10
104.04299999999991
 20
88.382999999999996
 30
0.0
 11
104.04299999999991
 21
86.425499999999985
 31
0.0
  0
LINE
  5
9A4
  8
0
 10
104.04299999999991
 20
84.468100000000007
 30
0.0
 11
104.04299999999991
 21
82.510599999999997
 31
0.0
  0
LINE
  5
9A5
  8
0
 10
98.170199999999994
 20
100.1279999999999
 30
0.0
 11
100.1279999999999
 21
100.1279999999999
 31
0.0
  0
LINE
  5
9A6
  8
0
 10
102.08499999999999
 20
100.1279999999999
 30
0.0
 11
104.04299999999991
 21
100.1279999999999
 31
0.0
  0
LINE
  5
9A7
  8
0
 10
102.08499999999999
 20
100.1279999999999
 30
0.0
 11
104.04299999999991
 21
100.1279999999999
 31
0.0
  0
LINE
  5
9A8
  8
0
 10
100.1279999999999
 20
98.170199999999994
 30
0.0
 11
100.1279999999999
 21
100.1279999999999
 31
0.0
  0
LINE
  5
9A9
  8
0
 10
100.1279999999999
 20
100.1279999999999
 30
0.0
 11
100.1279999999999
 21
98.170199999999994
 31
0.0
  0
LINE
  5
9AA
  8
0
 10
104.04299999999991
 20
98.170199999999994
 30
0.0
 11
104.04299999999991
 21
100.1279999999999
 31
0.0
  0
LINE
  5
9AB
  8
0
 10
100.1279999999999
 20
102.08499999999999
 30
0.0
 11
100.1279999999999
 21
104.04299999999991
 31
0.0
  0
LINE
  5
9AC
  8
0
 10
98.170199999999994
 20
104.04299999999991
 30
0.0
 11
100.1279999999999
 21
104.04299999999991
 31
0.0
  0
LINE
  5
9AD
  8
0
 10
100.1279999999999
 20
106.0
 30
0.0
 11
100.1279999999999
 21
108.0
 31
0.0
  0
LINE
  5
9AE
  8
0
 10
100.1279999999999
 20
104.04299999999991
 30
0.0
 11
100.1279999999999
 21
102.08499999999999
 31
0.0
  0
LINE
  5
9AF
  8
0
 10
102.08499999999999
 20
104.04299999999991
 30
0.0
 11
104.04299999999991
 21
104.04299999999991
 31
0.0
  0
LINE
  5
9B0
  8
0
 10
102.08499999999999
 20
104.04299999999991
 30
0.0
 11
104.04299999999991
 21
104.04299999999991
 31
0.0
  0
LINE
  5
9B1
  8
0
 10
102.08499999999999
 20
108.0
 30
0.0
 11
102.08499999999999
 21
12.0
 31
0.0
  0
LINE
  5
9B2
  8
0
 10
100.1279999999999
 20
108.0
 30
0.0
 11
100.1279999999999
 21
106.0
 31
0.0
  0
LINE
  5
9B3
  8
0
 10
100.1279999999999
 20
108.0
 30
0.0
 11
102.08499999999999
 21
108.0
 31
0.0
  0
LINE
  5
9B4
  8
0
 10
100.1279999999999
 20
108.0
 30
0.0
 11
100.1279999999999
 21
12.0
 31
0.0
  0
LINE
  5
9B5
  8
0
 10
104.04299999999991
 20
102.08499999999999
 30
0.0
 11
104.04299999999991
 21
104.04299999999991
 31
0.0
  0
LINE
  5
9B6
  8
0
 10
104.04299999999991
 20
106.0
 30
0.0
 11
104.04299999999991
 21
108.0
 31
0.0
  0
LINE
  5
9B7
  8
0
 10
104.04299999999991
 20
100.1279999999999
 30
0.0
 11
104.04299999999991
 21
98.170199999999994
 31
0.0
  0
LINE
  5
9B8
  8
0
 10
104.04299999999991
 20
104.04299999999991
 30
0.0
 11
104.04299999999991
 21
102.08499999999999
 31
0.0
  0
LINE
  5
9B9
  8
0
 10
104.04299999999991
 20
96.212800000000001
 30
0.0
 11
104.04299999999991
 21
94.255300000000005
 31
0.0
  0
LINE
  5
9BA
  8
0
 10
104.04299999999991
 20
92.297899999999984
 30
0.0
 11
104.04299999999991
 21
90.340400000000002
 31
0.0
  0
LINE
  5
9BB
  8
0
 10
104.04299999999991
 20
68.808499999999995
 30
0.0
 11
104.04299999999991
 21
66.851100000000002
 31
0.0
  0
LINE
  5
9BC
  8
0
 10
104.04299999999991
 20
72.723399999999984
 30
0.0
 11
104.04299999999991
 21
70.766000000000005
 31
0.0
  0
LINE
  5
9BD
  8
0
 10
104.04299999999991
 20
64.893600000000006
 30
0.0
 11
104.04299999999991
 21
62.936199999999999
 31
0.0
  0
LINE
  5
9BE
  8
0
 10
104.04299999999991
 20
60.978700000000003
 30
0.0
 11
104.04299999999991
 21
59.021299999999989
 31
0.0
  0
LINE
  5
9BF
  8
0
 10
104.04299999999991
 20
41.404299999999999
 30
0.0
 11
104.04299999999991
 21
39.446800000000003
 31
0.0
  0
LINE
  5
9C0
  8
0
 10
104.04299999999991
 20
37.489400000000003
 30
0.0
 11
104.04299999999991
 21
35.5319
 31
0.0
  0
LINE
  5
9C1
  8
0
 10
104.04299999999991
 20
25.744700000000002
 30
0.0
 11
104.04299999999991
 21
23.787199999999991
 31
0.0
  0
LINE
  5
9C2
  8
0
 10
104.04299999999991
 20
17.914899999999999
 30
0.0
 11
104.04299999999991
 21
15.9574
 31
0.0
  0
LINE
  5
9C3
  8
0
 10
104.04299999999991
 20
14.0
 30
0.0
 11
104.04299999999991
 21
12.0
 31
0.0
  0
LINE
  5
9C4
  8
0
 10
106.0
 20
17.914899999999999
 30
0.0
 11
108.0
 21
17.914899999999999
 31
0.0
  0
LINE
  5
9C5
  8
0
 10
106.0
 20
21.829799999999999
 30
0.0
 11
108.0
 21
21.829799999999999
 31
0.0
  0
LINE
  5
9C6
  8
0
 10
108.0
 20
23.787199999999991
 30
0.0
 11
108.0
 21
21.829799999999999
 31
0.0
  0
LINE
  5
9C7
  8
0
 10
108.0
 20
21.829799999999999
 30
0.0
 11
108.0
 21
23.787199999999991
 31
0.0
  0
LINE
  5
9C8
  8
0
 10
106.0
 20
25.744700000000002
 30
0.0
 11
108.0
 21
25.744700000000002
 31
0.0
  0
LINE
  5
9C9
  8
0
 10
106.0
 20
29.659600000000001
 30
0.0
 11
108.0
 21
29.659600000000001
 31
0.0
  0
LINE
  5
9CA
  8
0
 10
106.0
 20
33.5745
 30
0.0
 11
108.0
 21
33.5745
 31
0.0
  0
LINE
  5
9CB
  8
0
 10
108.0
 20
31.61699999999999
 30
0.0
 11
108.0
 21
29.659600000000001
 31
0.0
  0
LINE
  5
9CC
  8
0
 10
108.0
 20
29.659600000000001
 30
0.0
 11
108.0
 21
31.61699999999999
 31
0.0
  0
LINE
  5
9CD
  8
0
 10
108.0
 20
35.5319
 30
0.0
 11
108.0
 21
33.5745
 31
0.0
  0
LINE
  5
9CE
  8
0
 10
108.0
 20
33.5745
 30
0.0
 11
108.0
 21
35.5319
 31
0.0
  0
LINE
  5
9CF
  8
0
 10
106.0
 20
37.489400000000003
 30
0.0
 11
108.0
 21
37.489400000000003
 31
0.0
  0
LINE
  5
9D0
  8
0
 10
106.0
 20
41.404299999999999
 30
0.0
 11
108.0
 21
41.404299999999999
 31
0.0
  0
LINE
  5
9D1
  8
0
 10
106.0
 20
45.319099999999992
 30
0.0
 11
108.0
 21
45.319099999999992
 31
0.0
  0
LINE
  5
9D2
  8
0
 10
106.0
 20
49.233999999999988
 30
0.0
 11
108.0
 21
49.233999999999988
 31
0.0
  0
LINE
  5
9D3
  8
0
 10
106.0
 20
57.063800000000001
 30
0.0
 11
108.0
 21
57.063800000000001
 31
0.0
  0
LINE
  5
9D4
  8
0
 10
106.0
 20
53.148899999999998
 30
0.0
 11
108.0
 21
53.148899999999998
 31
0.0
  0
LINE
  5
9D5
  8
0
 10
108.0
 20
47.276600000000002
 30
0.0
 11
108.0
 21
45.319099999999992
 31
0.0
  0
LINE
  5
9D6
  8
0
 10
108.0
 20
45.319099999999992
 30
0.0
 11
108.0
 21
47.276600000000002
 31
0.0
  0
LINE
  5
9D7
  8
0
 10
108.0
 20
51.191499999999998
 30
0.0
 11
108.0
 21
49.233999999999988
 31
0.0
  0
LINE
  5
9D8
  8
0
 10
108.0
 20
49.233999999999988
 30
0.0
 11
108.0
 21
51.191499999999998
 31
0.0
  0
LINE
  5
9D9
  8
0
 10
108.0
 20
59.021299999999989
 30
0.0
 11
108.0
 21
57.063800000000001
 31
0.0
  0
LINE
  5
9DA
  8
0
 10
108.0
 20
57.063800000000001
 30
0.0
 11
108.0
 21
59.021299999999989
 31
0.0
  0
LINE
  5
9DB
  8
0
 10
108.0
 20
55.106400000000001
 30
0.0
 11
108.0
 21
53.148899999999998
 31
0.0
  0
LINE
  5
9DC
  8
0
 10
108.0
 20
53.148899999999998
 30
0.0
 11
108.0
 21
55.106400000000001
 31
0.0
  0
LINE
  5
9DD
  8
0
 10
106.0
 20
60.978700000000003
 30
0.0
 11
108.0
 21
60.978700000000003
 31
0.0
  0
LINE
  5
9DE
  8
0
 10
106.0
 20
64.893600000000006
 30
0.0
 11
108.0
 21
64.893600000000006
 31
0.0
  0
LINE
  5
9DF
  8
0
 10
106.0
 20
68.808499999999995
 30
0.0
 11
108.0
 21
68.808499999999995
 31
0.0
  0
LINE
  5
9E0
  8
0
 10
108.0
 20
70.766000000000005
 30
0.0
 11
108.0
 21
68.808499999999995
 31
0.0
  0
LINE
  5
9E1
  8
0
 10
108.0
 20
68.808499999999995
 30
0.0
 11
108.0
 21
70.766000000000005
 31
0.0
  0
LINE
  5
9E2
  8
0
 10
106.0
 20
72.723399999999984
 30
0.0
 11
108.0
 21
72.723399999999984
 31
0.0
  0
LINE
  5
9E3
  8
0
 10
106.0
 20
76.638300000000001
 30
0.0
 11
108.0
 21
76.638300000000001
 31
0.0
  0
LINE
  5
9E4
  8
0
 10
106.0
 20
80.553200000000004
 30
0.0
 11
108.0
 21
80.553200000000004
 31
0.0
  0
LINE
  5
9E5
  8
0
 10
106.0
 20
88.382999999999996
 30
0.0
 11
108.0
 21
88.382999999999996
 31
0.0
  0
LINE
  5
9E6
  8
0
 10
106.0
 20
84.468100000000007
 30
0.0
 11
108.0
 21
84.468100000000007
 31
0.0
  0
LINE
  5
9E7
  8
0
 10
108.0
 20
78.595699999999994
 30
0.0
 11
108.0
 21
76.638300000000001
 31
0.0
  0
LINE
  5
9E8
  8
0
 10
108.0
 20
76.638300000000001
 30
0.0
 11
108.0
 21
78.595699999999994
 31
0.0
  0
LINE
  5
9E9
  8
0
 10
108.0
 20
82.510599999999997
 30
0.0
 11
108.0
 21
80.553200000000004
 31
0.0
  0
LINE
  5
9EA
  8
0
 10
108.0
 20
80.553200000000004
 30
0.0
 11
108.0
 21
82.510599999999997
 31
0.0
  0
LINE
  5
9EB
  8
0
 10
108.0
 20
90.340400000000002
 30
0.0
 11
108.0
 21
88.382999999999996
 31
0.0
  0
LINE
  5
9EC
  8
0
 10
108.0
 20
88.382999999999996
 30
0.0
 11
108.0
 21
90.340400000000002
 31
0.0
  0
LINE
  5
9ED
  8
0
 10
108.0
 20
86.425499999999985
 30
0.0
 11
108.0
 21
84.468100000000007
 31
0.0
  0
LINE
  5
9EE
  8
0
 10
108.0
 20
84.468100000000007
 30
0.0
 11
108.0
 21
86.425499999999985
 31
0.0
  0
LINE
  5
9EF
  8
0
 10
106.0
 20
92.297899999999984
 30
0.0
 11
108.0
 21
92.297899999999984
 31
0.0
  0
LINE
  5
9F0
  8
0
 10
106.0
 20
96.212800000000001
 30
0.0
 11
108.0
 21
96.212800000000001
 31
0.0
  0
LINE
  5
9F1
  8
0
 10
106.0
 20
100.1279999999999
 30
0.0
 11
108.0
 21
100.1279999999999
 31
0.0
  0
LINE
  5
9F2
  8
0
 10
108.0
 20
102.08499999999999
 30
0.0
 11
108.0
 21
100.1279999999999
 31
0.0
  0
LINE
  5
9F3
  8
0
 10
108.0
 20
100.1279999999999
 30
0.0
 11
108.0
 21
102.08499999999999
 31
0.0
  0
LINE
  5
9F4
  8
0
 10
106.0
 20
104.04299999999991
 30
0.0
 11
108.0
 21
104.04299999999991
 31
0.0
  0
LINE
  5
9F5
  8
0
 10
108.0
 20
106.0
 30
0.0
 11
108.0
 21
104.04299999999991
 31
0.0
  0
LINE
  5
9F6
  8
0
 10
108.0
 20
104.04299999999991
 30
0.0
 11
108.0
 21
106.0
 31
0.0
  0
LINE
  5
9F7
  8
0
 10
108.0
 20
98.170199999999994
 30
0.0
 11
108.0
 21
96.212800000000001
 31
0.0
  0
LINE
  5
9F8
  8
0
 10
108.0
 20
96.212800000000001
 30
0.0
 11
108.0
 21
98.170199999999994
 31
0.0
  0
LINE
  5
9F9
  8
0
 10
108.0
 20
94.255300000000005
 30
0.0
 11
108.0
 21
92.297899999999984
 31
0.0
  0
LINE
  5
9FA
  8
0
 10
108.0
 20
92.297899999999984
 30
0.0
 11
108.0
 21
94.255300000000005
 31
0.0
  0
LINE
  5
9FB
  8
0
 10
108.0
 20
74.680899999999994
 30
0.0
 11
108.0
 21
72.723399999999984
 31
0.0
  0
LINE
  5
9FC
  8
0
 10
108.0
 20
72.723399999999984
 30
0.0
 11
108.0
 21
74.680899999999994
 31
0.0
  0
LINE
  5
9FD
  8
0
 10
108.0
 20
66.851100000000002
 30
0.0
 11
108.0
 21
64.893600000000006
 31
0.0
  0
LINE
  5
9FE
  8
0
 10
108.0
 20
64.893600000000006
 30
0.0
 11
108.0
 21
66.851100000000002
 31
0.0
  0
LINE
  5
9FF
  8
0
 10
108.0
 20
62.936199999999999
 30
0.0
 11
108.0
 21
60.978700000000003
 31
0.0
  0
LINE
  5
A00
  8
0
 10
108.0
 20
60.978700000000003
 30
0.0
 11
108.0
 21
62.936199999999999
 31
0.0
  0
LINE
  5
A01
  8
0
 10
108.0
 20
43.361699999999999
 30
0.0
 11
108.0
 21
41.404299999999999
 31
0.0
  0
LINE
  5
A02
  8
0
 10
108.0
 20
41.404299999999999
 30
0.0
 11
108.0
 21
43.361699999999999
 31
0.0
  0
LINE
  5
A03
  8
0
 10
108.0
 20
39.446800000000003
 30
0.0
 11
108.0
 21
37.489400000000003
 31
0.0
  0
LINE
  5
A04
  8
0
 10
108.0
 20
37.489400000000003
 30
0.0
 11
108.0
 21
39.446800000000003
 31
0.0
  0
LINE
  5
A05
  8
0
 10
108.0
 20
27.702100000000002
 30
0.0
 11
108.0
 21
25.744700000000002
 31
0.0
  0
LINE
  5
A06
  8
0
 10
108.0
 20
25.744700000000002
 30
0.0
 11
108.0
 21
27.702100000000002
 31
0.0
  0
LINE
  5
A07
  8
0
 10
108.0
 20
19.872299999999999
 30
0.0
 11
108.0
 21
17.914899999999999
 31
0.0
  0
LINE
  5
A08
  8
0
 10
108.0
 20
17.914899999999999
 30
0.0
 11
108.0
 21
19.872299999999999
 31
0.0
  0
LINE
  5
A09
  8
0
 10
108.0
 20
15.9574
 30
0.0
 11
108.0
 21
14.0
 31
0.0
  0
LINE
  5
A0A
  8
0
 10
106.0
 20
14.0
 30
0.0
 11
108.0
 21
14.0
 31
0.0
  0
LINE
  5
A0B
  8
0
 10
108.0
 20
14.0
 30
0.0
 11
108.0
 21
15.9574
 31
0.0
  0
LINE
  5
A0C
  8
0
 10
106.0
 20
108.0
 30
0.0
 11
106.0
 21
12.0
 31
0.0
  0
LINE
  5
A0D
  8
0
 10
104.04299999999991
 20
108.0
 30
0.0
 11
104.04299999999991
 21
106.0
 31
0.0
  0
LINE
  5
A0E
  8
0
 10
104.04299999999991
 20
108.0
 30
0.0
 11
106.0
 21
108.0
 31
0.0
  0
LINE
  5
A0F
  8
0
 10
104.04299999999991
 20
108.0
 30
0.0
 11
104.04299999999991
 21
12.0
 31
0.0
  0
LINE
  5
A10
  8
0
 10
98.170199999999994
 20
108.0
 30
0.0
 11
98.170199999999994
 21
12.0
 31
0.0
  0
LINE
  5
A11
  8
0
 10
96.212800000000001
 20
108.0
 30
0.0
 11
96.212800000000001
 21
106.0
 31
0.0
  0
LINE
  5
A12
  8
0
 10
96.212800000000001
 20
108.0
 30
0.0
 11
98.170199999999994
 21
108.0
 31
0.0
  0
LINE
  5
A13
  8
0
 10
96.212800000000001
 20
108.0
 30
0.0
 11
96.212800000000001
 21
12.0
 31
0.0
  0
LINE
  5
A14
  8
0
 10
94.255300000000005
 20
108.0
 30
0.0
 11
94.255300000000005
 21
12.0
 31
0.0
  0
LINE
  5
A15
  8
0
 10
92.297899999999984
 20
108.0
 30
0.0
 11
92.297899999999984
 21
106.0
 31
0.0
  0
LINE
  5
A16
  8
0
 10
92.297899999999984
 20
108.0
 30
0.0
 11
94.255300000000005
 21
108.0
 31
0.0
  0
LINE
  5
A17
  8
0
 10
92.297899999999984
 20
108.0
 30
0.0
 11
92.297899999999984
 21
12.0
 31
0.0
  0
LINE
  5
A18
  8
0
 10
74.680899999999994
 20
108.0
 30
0.0
 11
74.680899999999994
 21
12.0
 31
0.0
  0
LINE
  5
A19
  8
0
 10
72.723399999999984
 20
108.0
 30
0.0
 11
72.723399999999984
 21
106.0
 31
0.0
  0
LINE
  5
A1A
  8
0
 10
72.723399999999984
 20
108.0
 30
0.0
 11
74.680899999999994
 21
108.0
 31
0.0
  0
LINE
  5
A1B
  8
0
 10
72.723399999999984
 20
108.0
 30
0.0
 11
72.723399999999984
 21
12.0
 31
0.0
  0
LINE
  5
A1C
  8
0
 10
66.851100000000002
 20
108.0
 30
0.0
 11
66.851100000000002
 21
12.0
 31
0.0
  0
LINE
  5
A1D
  8
0
 10
64.893600000000006
 20
108.0
 30
0.0
 11
64.893600000000006
 21
106.0
 31
0.0
  0
LINE
  5
A1E
  8
0
 10
64.893600000000006
 20
108.0
 30
0.0
 11
66.851100000000002
 21
108.0
 31
0.0
  0
LINE
  5
A1F
  8
0
 10
64.893600000000006
 20
108.0
 30
0.0
 11
64.893600000000006
 21
12.0
 31
0.0
  0
LINE
  5
A20
  8
0
 10
62.936199999999999
 20
108.0
 30
0.0
 11
62.936199999999999
 21
12.0
 31
0.0
  0
LINE
  5
A21
  8
0
 10
60.978700000000003
 20
108.0
 30
0.0
 11
60.978700000000003
 21
106.0
 31
0.0
  0
LINE
  5
A22
  8
0
 10
60.978700000000003
 20
108.0
 30
0.0
 11
62.936199999999999
 21
108.0
 31
0.0
  0
LINE
  5
A23
  8
0
 10
60.978700000000003
 20
108.0
 30
0.0
 11
60.978700000000003
 21
12.0
 31
0.0
  0
LINE
  5
A24
  8
0
 10
43.361699999999999
 20
108.0
 30
0.0
 11
43.361699999999999
 21
12.0
 31
0.0
  0
LINE
  5
A25
  8
0
 10
41.404299999999999
 20
108.0
 30
0.0
 11
41.404299999999999
 21
106.0
 31
0.0
  0
LINE
  5
A26
  8
0
 10
41.404299999999999
 20
108.0
 30
0.0
 11
43.361699999999999
 21
108.0
 31
0.0
  0
LINE
  5
A27
  8
0
 10
41.404299999999999
 20
108.0
 30
0.0
 11
41.404299999999999
 21
12.0
 31
0.0
  0
LINE
  5
A28
  8
0
 10
39.446800000000003
 20
108.0
 30
0.0
 11
39.446800000000003
 21
12.0
 31
0.0
  0
LINE
  5
A29
  8
0
 10
37.489400000000003
 20
108.0
 30
0.0
 11
37.489400000000003
 21
106.0
 31
0.0
  0
LINE
  5
A2A
  8
0
 10
37.489400000000003
 20
108.0
 30
0.0
 11
39.446800000000003
 21
108.0
 31
0.0
  0
LINE
  5
A2B
  8
0
 10
37.489400000000003
 20
108.0
 30
0.0
 11
37.489400000000003
 21
12.0
 31
0.0
  0
LINE
  5
A2C
  8
0
 10
27.702100000000002
 20
108.0
 30
0.0
 11
27.702100000000002
 21
12.0
 31
0.0
  0
LINE
  5
A2D
  8
0
 10
25.744700000000002
 20
108.0
 30
0.0
 11
25.744700000000002
 21
106.0
 31
0.0
  0
LINE
  5
A2E
  8
0
 10
25.744700000000002
 20
108.0
 30
0.0
 11
27.702100000000002
 21
108.0
 31
0.0
  0
LINE
  5
A2F
  8
0
 10
25.744700000000002
 20
108.0
 30
0.0
 11
25.744700000000002
 21
12.0
 31
0.0
  0
LINE
  5
A30
  8
0
 10
19.872299999999999
 20
108.0
 30
0.0
 11
19.872299999999999
 21
12.0
 31
0.0
  0
LINE
  5
A31
  8
0
 10
17.914899999999999
 20
108.0
 30
0.0
 11
17.914899999999999
 21
106.0
 31
0.0
  0
LINE
  5
A32
  8
0
 10
17.914899999999999
 20
108.0
 30
0.0
 11
19.872299999999999
 21
108.0
 31
0.0
  0
LINE
  5
A33
  8
0
 10
17.914899999999999
 20
108.0
 30
0.0
 11
17.914899999999999
 21
12.0
 31
0.0
  0
LINE
  5
A34
  8
0
 10
17.914899999999999
 20
12.0
 30
0.0
 11
19.872299999999999
 21
12.0
 31
0.0
  0
LINE
  5
A35
  8
0
 10
17.914899999999999
 20
12.0
 30
0.0
 11
17.914899999999999
 21
108.0
 31
0.0
  0
LINE
  5
A36
  8
0
 10
17.914899999999999
 20
12.0
 30
0.0
 11
17.914899999999999
 21
14.0
 31
0.0
  0
LINE
  5
A37
  8
0
 10
15.9574
 20
12.0
 30
0.0
 11
15.9574
 21
108.0
 31
0.0
  0
LINE
  5
A38
  8
0
 10
15.9574
 20
108.0
 30
0.0
 11
15.9574
 21
12.0
 31
0.0
  0
LINE
  5
A39
  8
0
 10
14.0
 20
12.0
 30
0.0
 11
15.9574
 21
12.0
 31
0.0
  0
LINE
  5
A3A
  8
0
 10
14.0
 20
12.0
 30
0.0
 11
14.0
 21
108.0
 31
0.0
  0
LINE
  5
A3B
  8
0
 10
14.0
 20
12.0
 30
0.0
 11
14.0
 21
14.0
 31
0.0
  0
LINE
  5
A3C
  8
0
 10
108.0
 20
108.0
 30
0.0
 11
108.0
 21
12.0
 31
0.0
  0
LINE
  5
A3D
  8
0
 10
12.0
 20
12.0
 30
0.0
 11
12.0
 21
108.0
 31
0.0
  0
LINE
  5
A3E
  8
0
 10
119.0
 20
0.3
 30
0.0
 11
119.5
 21
0.3
 31
0.0
  0
LINE
  5
A3F
  8
0
 10
1.0
 20
0.3
 30
0.0
 11
119.0
 21
0.3
 31
0.0
  0
LINE
  5
A40
  8
0
 10
0.999999999999996
 20
119.7
 30
0.0
 11
119.0
 21
119.7
 31
0.0
  0
LINE
  5
A41
  8
0
 10
119.7
 20
0.2999999999999989
 30
0.0
 11
120.0
 21
0.9999999999999989
 31
0.0
  0
LINE
  5
A42
  8
0
 10
119.7
 20
0.2999999999999989
 30
0.0
 11
120.0
 21
0.9999999999999989
 31
0.0
  0
LINE
  5
A43
  8
0
 10
119.5
 20
0.3
 30
0.0
 11
119.7
 21
1.0
 31
0.0
  0
LINE
  5
A44
  8
0
 10
119.5
 20
0.3
 30
0.0
 11
119.7
 21
0.3
 31
0.0
  0
LINE
  5
A45
  8
0
 10
119.7
 20
119.0
 30
0.0
 11
119.7
 21
0.999999999999996
 31
0.0
  0
LINE
  5
A46
  8
0
 10
119.7
 20
1.0
 30
0.0
 11
119.7
 21
119.0
 31
0.0
  0
LINE
  5
A47
  8
0
 10
120.0
 20
119.0
 30
0.0
 11
120.0
 21
0.999999999999996
 31
0.0
  0
LINE
  5
A48
  8
0
 10
120.0
 20
1.0
 30
0.0
 11
120.0
 21
119.0
 31
0.0
  0
LINE
  5
A49
  8
0
 10
119.7
 20
119.7
 30
0.0
 11
120.0
 21
119.0
 31
0.0
  0
LINE
  5
A4A
  8
0
 10
119.5
 20
119.7
 30
0.0
 11
119.7
 21
119.7
 31
0.0
  0
LINE
  5
A4B
  8
0
 10
119.5
 20
119.7
 30
0.0
 11
119.7
 21
119.0
 31
0.0
  0
LINE
  5
A4C
  8
0
 10
119.0
 20
119.7
 30
0.0
 11
119.5
 21
119.7
 31
0.0
  0
LINE
  5
A4D
  8
0
 10
1.0
 20
119.7
 30
0.0
 11
119.0
 21
119.7
 31
0.0
  0
LINE
  5
A4E
  8
0
 10
0.5
 20
119.7
 30
0.0
 11
1.0
 21
119.7
 31
0.0
  0
LINE
  5
A4F
  8
0
 10
1.0
 20
120.0
 30
0.0
 11
119.0
 21
120.0
 31
0.0
  0
LINE
  5
A50
  8
0
 10
119.0
 20
120.0
 30
0.0
 11
119.7
 21
119.7
 31
0.0
  0
LINE
  5
A51
  8
0
 10
0.999999999999996
 20
120.0
 30
0.0
 11
119.0
 21
120.0
 31
0.0
  0
LINE
  5
A52
  8
0
 10
0.3
 20
119.7
 30
0.0
 11
0.5
 21
119.7
 31
0.0
  0
LINE
  5
A53
  8
0
 10
0.3
 20
119.7
 30
0.0
 11
1.0
 21
120.0
 31
0.0
  0
LINE
  5
A54
  8
0
 10
0.3
 20
119.7
 30
0.0
 11
1.0
 21
120.0
 31
0.0
  0
LINE
  5
A59
  8
0
 10
119.0
 20
-0.0000000000000012
 30
0.0
 11
119.7
 21
0.3
 31
0.0
  0
ENDSEC
  0
EOF
