  0
SECTION
  2
HEADER
  9
$ACADVER
  1
AC1009
  9
$INSBASE
 10
0.0
 20
0.0
 30
0.0
  9
$EXTMIN
 10
-0.0000000000000055
 20
-0.0000000000000058
 30
0.0
  9
$EXTMAX
 10
77.0
 20
203.0
 30
0.0
  9
$LIMMIN
 10
0.0
 20
0.0
  9
$LIMMAX
 10
12.0
 20
9.0
  9
$ORTHOMODE
 70
     0
  9
$REGENMODE
 70
     1
  9
$FILLMODE
 70
     1
  9
$QTEXTMODE
 70
     0
  9
$MIRRTEXT
 70
     1
  9
$DRAGMODE
 70
     2
  9
$LTSCALE
 40
1.0
  9
$OSMODE
 70
    37
  9
$ATTMODE
 70
     1
  9
$TEXTSIZE
 40
0.2
  9
$TRACEWID
 40
0.05
  9
$TEXTSTYLE
  7
STANDARD
  9
$CLAYER
  8
0
  9
$CELTYPE
  6
CONTINUOUS
  9
$CECOLOR
 62
   256
  9
$DIMSCALE
 40
1.0
  9
$DIMASZ
 40
0.18
  9
$DIMEXO
 40
0.0625
  9
$DIMDLI
 40
0.38
  9
$DIMRND
 40
0.0
  9
$DIMDLE
 40
0.0
  9
$DIMEXE
 40
0.18
  9
$DIMTP
 40
0.0
  9
$DIMTM
 40
0.0
  9
$DIMTXT
 40
0.18
  9
$DIMCEN
 40
0.09
  9
$DIMTSZ
 40
0.0
  9
$DIMTOL
 70
     0
  9
$DIMLIM
 70
     0
  9
$DIMTIH
 70
     1
  9
$DIMTOH
 70
     1
  9
$DIMSE1
 70
     0
  9
$DIMSE2
 70
     0
  9
$DIMTAD
 70
     0
  9
$DIMZIN
 70
     0
  9
$DIMBLK
  1

  9
$DIMASO
 70
     1
  9
$DIMSHO
 70
     1
  9
$DIMPOST
  1

  9
$DIMAPOST
  1

  9
$DIMALT
 70
     0
  9
$DIMALTD
 70
     2
  9
$DIMALTF
 40
25.399999999999999
  9
$DIMLFAC
 40
1.0
  9
$DIMTOFL
 70
     0
  9
$DIMTVP
 40
0.0
  9
$DIMTIX
 70
     0
  9
$DIMSOXD
 70
     0
  9
$DIMSAH
 70
     0
  9
$DIMBLK1
  1

  9
$DIMBLK2
  1

  9
$DIMSTYLE
  2
STANDARD
  9
$DIMCLRD
 70
     0
  9
$DIMCLRE
 70
     0
  9
$DIMCLRT
 70
     0
  9
$DIMTFAC
 40
1.0
  9
$DIMGAP
 40
0.09
  9
$LUNITS
 70
     2
  9
$LUPREC
 70
     4
  9
$SKETCHINC
 40
0.1
  9
$FILLETRAD
 40
0.0
  9
$AUNITS
 70
     0
  9
$AUPREC
 70
     0
  9
$MENU
  1
.
  9
$ELEVATION
 40
0.0
  9
$PELEVATION
 40
0.0
  9
$THICKNESS
 40
0.0
  9
$LIMCHECK
 70
     0
  9
$BLIPMODE
 70
     0
  9
$CHAMFERA
 40
0.0
  9
$CHAMFERB
 40
0.0
  9
$SKPOLY
 70
     0
  9
$TDCREATE
 40
2454675.4452851848
  9
$TDUPDATE
 40
2454675.4468171299
  9
$TDINDWG
 40
0.0015319444
  9
$TDUSRTIMER
 40
0.0015319444
  9
$USRTIMER
 70
     1
  9
$ANGBASE
 50
0.0
  9
$ANGDIR
 70
     0
  9
$PDMODE
 70
     0
  9
$PDSIZE
 40
0.0
  9
$PLINEWID
 40
0.0
  9
$COORDS
 70
     1
  9
$SPLFRAME
 70
     0
  9
$SPLINETYPE
 70
     6
  9
$SPLINESEGS
 70
     8
  9
$ATTDIA
 70
     0
  9
$ATTREQ
 70
     1
  9
$HANDLING
 70
 22529
  9
$HANDSEED
  5
2A9
  9
$SURFTAB1
 70
     6
  9
$SURFTAB2
 70
     6
  9
$SURFTYPE
 70
     6
  9
$SURFU
 70
     6
  9
$SURFV
 70
     6
  9
$UCSNAME
  2

  9
$UCSORG
 10
0.0
 20
0.0
 30
0.0
  9
$UCSXDIR
 10
1.0
 20
0.0
 30
0.0
  9
$UCSYDIR
 10
0.0
 20
1.0
 30
0.0
  9
$PUCSNAME
  2

  9
$PUCSORG
 10
0.0
 20
0.0
 30
0.0
  9
$PUCSXDIR
 10
1.0
 20
0.0
 30
0.0
  9
$PUCSYDIR
 10
0.0
 20
1.0
 30
0.0
  9
$USERI1
 70
     0
  9
$USERI2
 70
     0
  9
$USERI3
 70
     0
  9
$USERI4
 70
     0
  9
$USERI5
 70
     0
  9
$USERR1
 40
0.0
  9
$USERR2
 40
0.0
  9
$USERR3
 40
0.0
  9
$USERR4
 40
0.0
  9
$USERR5
 40
0.0
  9
$WORLDVIEW
 70
     1
  9
$SHADEDGE
 70
     3
  9
$SHADEDIF
 70
    70
  9
$TILEMODE
 70
     1
  9
$MAXACTVP
 70
    64
  9
$PLIMCHECK
 70
     0
  9
$PEXTMIN
 10
1.0000000000000000E+020
 20
1.0000000000000000E+020
 30
1.0000000000000000E+020
  9
$PEXTMAX
 10
-1.0000000000000000E+020
 20
-1.0000000000000000E+020
 30
-1.0000000000000000E+020
  9
$PLIMMIN
 10
0.0
 20
0.0
  9
$PLIMMAX
 10
12.0
 20
9.0
  9
$UNITMODE
 70
     0
  9
$VISRETAIN
 70
     1
  9
$PLINEGEN
 70
     0
  9
$PSLTSCALE
 70
     1
  0
ENDSEC
  0
SECTION
  2
TABLES
  0
TABLE
  2
VPORT
 70
     3
  0
VPORT
  2
*ACTIVE
 70
     0
 10
0.0
 20
0.0
 11
1.0
 21
1.0
 12
38.499999999999993
 22
101.5
 13
0.0
 23
0.0
 14
1.0
 24
1.0
 15
0.0
 25
0.0
 16
0.0
 26
0.0
 36
1.0
 17
0.0
 27
0.0
 37
0.0
 40
204.55754475703321
 41
2.0435339308578739
 42
50.0
 43
0.0
 44
0.0
 50
0.0
 51
0.0
 71
     0
 72
   100
 73
     1
 74
     3
 75
     0
 76
     0
 77
     0
 78
     0
  0
ENDTAB
  0
TABLE
  2
LTYPE
 70
     1
  0
LTYPE
  2
CONTINUOUS
 70
     0
  3
Solid line
 72
    65
 73
     0
 40
0.0
  0
ENDTAB
  0
TABLE
  2
LAYER
 70
     1
  0
LAYER
  2
0
 70
     0
 62
     7
  6
CONTINUOUS
  0
ENDTAB
  0
TABLE
  2
STYLE
 70
     1
  0
STYLE
  2
STANDARD
 70
     0
 40
0.0
 41
1.0
 50
0.0
 71
     0
 42
0.2
  3
txt
  4

  0
ENDTAB
  0
TABLE
  2
VIEW
 70
     0
  0
ENDTAB
  0
TABLE
  2
UCS
 70
     0
  0
ENDTAB
  0
TABLE
  2
APPID
 70
     1
  0
APPID
  2
ACAD
 70
     0
  0
ENDTAB
  0
TABLE
  2
DIMSTYLE
 70
     1
  0
DIMSTYLE
  2
STANDARD
 70
     0
  3

  4

  5

  6

  7

 40
1.0
 41
0.18
 42
0.0625
 43
0.38
 44
0.18
 45
0.0
 46
0.0
 47
0.0
 48
0.0
140
0.18
141
0.09
142
0.0
143
25.399999999999999
144
1.0
145
0.0
146
1.0
147
0.09
 71
     0
 72
     0
 73
     1
 74
     1
 75
     0
 76
     0
 77
     0
 78
     0
170
     0
171
     2
172
     0
173
     0
174
     0
175
     0
176
     0
177
     0
178
     0
  0
ENDTAB
  0
ENDSEC
  0
SECTION
  2
BLOCKS
  0
BLOCK
  8
0
  2
$MODEL_SPACE
 70
     0
 10
0.0
 20
0.0
 30
0.0
  3
$MODEL_SPACE
  1

  0
ENDBLK
  5
20
  8
0
  0
BLOCK
 67
     1
  8
0
  2
$PAPER_SPACE
 70
     0
 10
0.0
 20
0.0
 30
0.0
  3
$PAPER_SPACE
  1

  0
ENDBLK
  5
1C
 67
     1
  8
0
  0
ENDSEC
  0
SECTION
  2
ENTITIES
  0
LINE
  5
22
  8
0
 10
-0.0000000000000055
 20
51.0
 30
0.0
 11
-0.0000000000000054
 21
52.0792
 31
0.0
  0
LINE
  5
23
  8
0
 10
-0.0000000000000055
 20
51.0
 30
0.0
 11
25.0
 21
51.0
 31
0.0
  0
LINE
  5
24
  8
0
 10
-0.0000000000000054
 20
52.0792
 30
0.0
 11
-0.0000000000000053
 21
53.971800000000002
 31
0.0
  0
LINE
  5
25
  8
0
 10
-0.0000000000000053
 20
53.971800000000002
 30
0.0
 11
-0.0000000000000052
 21
55.864400000000003
 31
0.0
  0
LINE
  5
26
  8
0
 10
-0.0000000000000052
 20
55.864400000000003
 30
0.0
 11
-0.000000000000005
 21
58.758899999999997
 31
0.0
  0
LINE
  5
27
  8
0
 10
-0.0000000000000043
 20
51.0
 30
0.0
 11
25.0
 21
51.0
 31
0.0
  0
LINE
  5
2B
  8
0
 10
25.0
 20
52.0792
 30
0.0
 11
25.0
 21
53.971800000000002
 31
0.0
  0
LINE
  5
2C
  8
0
 10
25.0
 20
52.0792
 30
0.0
 11
25.0
 21
51.0
 31
0.0
  0
LINE
  5
2D
  8
0
 10
25.0
 20
53.971800000000002
 30
0.0
 11
25.0
 21
55.864400000000003
 31
0.0
  0
LINE
  5
2E
  8
0
 10
25.0
 20
53.971800000000002
 30
0.0
 11
25.0
 21
52.0792
 31
0.0
  0
LINE
  5
30
  8
0
 10
25.0
 20
55.864400000000003
 30
0.0
 11
25.0
 21
58.758899999999997
 31
0.0
  0
LINE
  5
31
  8
0
 10
25.0
 20
55.864400000000003
 30
0.0
 11
25.0
 21
53.971800000000002
 31
0.0
  0
LINE
  5
32
  8
0
 10
25.0
 20
58.758899999999997
 30
0.0
 11
25.0
 21
63.657400000000003
 31
0.0
  0
LINE
  5
33
  8
0
 10
25.0
 20
58.758899999999997
 30
0.0
 11
25.0
 21
55.864400000000003
 31
0.0
  0
LINE
  5
34
  8
0
 10
25.0
 20
51.0
 30
0.0
 11
25.0
 21
52.0792
 31
0.0
  0
LINE
  5
35
  8
0
 10
-0.000000000000005
 20
58.758899999999997
 30
0.0
 11
-0.0000000000000047
 21
63.657400000000003
 31
0.0
  0
LINE
  5
36
  8
0
 10
-0.0000000000000047
 20
63.657400000000003
 30
0.0
 11
-0.0000000000000043
 21
70.114500000000007
 31
0.0
  0
LINE
  5
37
  8
0
 10
-0.0000000000000039
 20
77.239599999999996
 30
0.0
 11
-0.0000000000000033
 21
86.813900000000004
 31
0.0
  0
LINE
  5
38
  8
0
 10
-0.0000000000000043
 20
70.114500000000007
 30
0.0
 11
-0.0000000000000039
 21
77.239599999999996
 31
0.0
  0
LINE
  5
39
  8
0
 10
-0.0000000000000026
 20
97.487200000000001
 30
0.0
 11
-0.0000000000000018
 21
111.03399999999991
 31
0.0
  0
LINE
  5
3A
  8
0
 10
-0.0000000000000033
 20
86.813900000000004
 30
0.0
 11
-0.0000000000000026
 21
97.487200000000001
 31
0.0
  0
LINE
  5
3B
  8
0
 10
-0.0000000000000018
 20
111.03399999999991
 30
0.0
 11
-0.0000000000000013
 21
119.3929999999999
 31
0.0
  0
LINE
  5
3C
  8
0
 10
-0.0000000000000013
 20
119.3929999999999
 30
0.0
 11
-0.000000000000001
 21
124.58199999999999
 31
0.0
  0
LINE
  5
3D
  8
0
 10
-0.000000000000001
 20
124.58199999999999
 30
0.0
 11
-0.0000000000000008
 21
127.56
 31
0.0
  0
LINE
  5
3E
  8
0
 10
-0.0000000000000008
 20
127.56
 30
0.0
 11
-0.0000000000000006
 21
130.24999999999989
 31
0.0
  0
LINE
  5
3F
  8
0
 10
-0.0000000000000006
 20
130.24999999999989
 30
0.0
 11
-0.0000000000000005
 21
132.55600000000001
 31
0.0
  0
LINE
  5
40
  8
0
 10
-0.0000000000000005
 20
132.55600000000001
 30
0.0
 11
-0.0000000000000004
 21
134.5739999999999
 31
0.0
  0
LINE
  5
41
  8
0
 10
-0.0000000000000004
 20
134.5739999999999
 30
0.0
 11
-0.0000000000000003
 21
136.321
 31
0.0
  0
LINE
  5
45
  8
0
 10
25.0
 20
63.657400000000003
 30
0.0
 11
25.0
 21
70.114500000000007
 31
0.0
  0
LINE
  5
46
  8
0
 10
25.0
 20
63.657400000000003
 30
0.0
 11
25.0
 21
58.758899999999997
 31
0.0
  0
LINE
  5
47
  8
0
 10
25.0
 20
70.114500000000007
 30
0.0
 11
25.0
 21
77.239599999999996
 31
0.0
  0
LINE
  5
48
  8
0
 10
25.0
 20
70.114500000000007
 30
0.0
 11
25.0
 21
63.657400000000003
 31
0.0
  0
LINE
  5
49
  8
0
 10
25.0
 20
77.239599999999996
 30
0.0
 11
25.0
 21
86.813900000000004
 31
0.0
  0
LINE
  5
4A
  8
0
 10
25.0
 20
77.239599999999996
 30
0.0
 11
25.0
 21
70.114500000000007
 31
0.0
  0
LINE
  5
4B
  8
0
 10
25.0
 20
86.813900000000004
 30
0.0
 11
25.0
 21
98.159700000000001
 31
0.0
  0
LINE
  5
4C
  8
0
 10
25.0
 20
86.813900000000004
 30
0.0
 11
25.0
 21
77.239599999999996
 31
0.0
  0
LINE
  5
4D
  8
0
 10
25.0
 20
98.159700000000001
 30
0.0
 11
25.0
 21
110.5539999999999
 31
0.0
  0
LINE
  5
4E
  8
0
 10
25.0
 20
98.159700000000001
 30
0.0
 11
25.0
 21
86.813900000000004
 31
0.0
  0
LINE
  5
4F
  8
0
 10
25.0
 20
110.5539999999999
 30
0.0
 11
25.0
 21
118.721
 31
0.0
  0
LINE
  5
50
  8
0
 10
25.0
 20
118.721
 30
0.0
 11
25.0
 21
124.0049999999999
 31
0.0
  0
LINE
  5
51
  8
0
 10
25.0
 20
118.721
 30
0.0
 11
25.0
 21
110.5539999999999
 31
0.0
  0
LINE
  5
52
  8
0
 10
25.0
 20
124.0049999999999
 30
0.0
 11
25.0
 21
126.7919999999999
 31
0.0
  0
LINE
  5
53
  8
0
 10
25.0
 20
124.0049999999999
 30
0.0
 11
25.0
 21
118.721
 31
0.0
  0
LINE
  5
54
  8
0
 10
25.0
 20
126.7919999999999
 30
0.0
 11
25.0
 21
129.578
 31
0.0
  0
LINE
  5
55
  8
0
 10
25.0
 20
126.7919999999999
 30
0.0
 11
25.0
 21
124.0049999999999
 31
0.0
  0
LINE
  5
56
  8
0
 10
25.0
 20
129.578
 30
0.0
 11
25.0
 21
132.172
 31
0.0
  0
LINE
  5
57
  8
0
 10
25.0
 20
129.578
 30
0.0
 11
25.0
 21
126.7919999999999
 31
0.0
  0
LINE
  5
58
  8
0
 10
25.0
 20
132.172
 30
0.0
 11
25.0
 21
134.28599999999989
 31
0.0
  0
LINE
  5
59
  8
0
 10
25.0
 20
132.172
 30
0.0
 11
25.0
 21
129.578
 31
0.0
  0
LINE
  5
5A
  8
0
 10
25.0
 20
134.28599999999989
 30
0.0
 11
25.0
 21
136.321
 31
0.0
  0
LINE
  5
5B
  8
0
 10
25.0
 20
134.28599999999989
 30
0.0
 11
25.0
 21
132.172
 31
0.0
  0
LINE
  5
5C
  8
0
 10
25.0
 20
137.0
 30
0.0
 11
25.0
 21
136.321
 31
0.0
  0
LINE
  5
5E
  8
0
 10
25.0
 20
136.321
 30
0.0
 11
25.0
 21
137.0
 31
0.0
  0
LINE
  5
5F
  8
0
 10
25.0
 20
136.321
 30
0.0
 11
25.0
 21
134.28599999999989
 31
0.0
  0
LINE
  5
60
  8
0
 10
0.0
 20
137.0
 30
0.0
 11
25.0
 21
137.0
 31
0.0
  0
LINE
  5
61
  8
0
 10
-0.0000000000000002
 20
137.0
 30
0.0
 11
25.0
 21
137.0
 31
0.0
  0
LINE
  5
62
  8
0
 10
-0.0000000000000003
 20
136.321
 30
0.0
 11
-0.0000000000000002
 21
137.0
 31
0.0
  0
LINE
  5
63
  8
0
 10
25.0
 20
63.0
 30
0.0
 11
45.0
 21
63.0
 31
0.0
  0
LINE
  5
64
  8
0
 10
25.0
 20
116.0
 30
0.0
 11
45.0
 21
116.0
 31
0.0
  0
LINE
  5
65
  8
0
 10
31.0
 20
25.0
 30
0.0
 11
31.0
 21
0.999999999999996
 31
0.0
  0
LINE
  5
66
  8
0
 10
31.0
 20
25.0
 30
0.0
 11
43.0
 21
25.0
 31
0.0
  0
LINE
  5
67
  8
0
 10
43.0
 20
25.0
 30
0.0
 11
43.0
 21
13.0
 31
0.0
  0
LINE
  5
68
  8
0
 10
43.0
 20
25.0
 30
0.0
 11
43.576000000000001
 21
25.0
 31
0.0
  0
LINE
  5
69
  8
0
 10
43.0
 20
25.0
 30
0.0
 11
45.0
 21
33.0
 31
0.0
  0
LINE
  5
6A
  8
0
 10
31.0
 20
0.9999999999999969
 30
0.0
 11
43.0
 21
0.999999999999996
 31
0.0
  0
LINE
  5
6B
  8
0
 10
31.0
 20
0.9999999999999969
 30
0.0
 11
31.0
 21
25.0
 31
0.0
  0
LINE
  5
6C
  8
0
 10
43.0
 20
0.999999999999996
 30
0.0
 11
43.0
 21
13.0
 31
0.0
  0
LINE
  5
6D
  8
0
 10
45.0
 20
33.0
 30
0.0
 11
45.503999999999991
 21
33.0
 31
0.0
  0
LINE
  5
6E
  8
0
 10
45.0
 20
63.0
 30
0.0
 11
45.0
 21
33.0
 31
0.0
  0
LINE
  5
6F
  8
0
 10
45.0
 20
179.0
 30
0.0
 11
45.0
 21
116.0
 31
0.0
  0
LINE
  5
70
  8
0
 10
43.576000000000001
 20
25.0
 30
0.0
 11
45.111999999999988
 21
25.0
 31
0.0
  0
LINE
  5
71
  8
0
 10
43.576000000000001
 20
13.0
 30
0.0
 11
45.111999999999988
 21
13.0
 31
0.0
  0
LINE
  5
72
  8
0
 10
43.0
 20
13.0
 30
0.0
 11
59.0
 21
13.0
 31
0.0
  0
LINE
  5
73
  8
0
 10
43.0
 20
13.0
 30
0.0
 11
43.0
 21
0.999999999999996
 31
0.0
  0
LINE
  5
74
  8
0
 10
43.0
 20
13.0
 30
0.0
 11
43.0
 21
25.0
 31
0.0
  0
LINE
  5
75
  8
0
 10
43.0
 20
13.0
 30
0.0
 11
43.576000000000001
 21
13.0
 31
0.0
  0
LINE
  5
76
  8
0
 10
43.0
 20
192.0
 30
0.0
 11
43.0
 21
191.5
 31
0.0
  0
LINE
  5
77
  8
0
 10
43.0
 20
192.0
 30
0.0
 11
43.576000000000001
 21
192.0
 31
0.0
  0
LINE
  5
78
  8
0
 10
44.0
 20
197.0
 30
0.0
 11
44.539999999999992
 21
197.0
 31
0.0
  0
LINE
  5
79
  8
0
 10
44.0
 20
197.0
 30
0.0
 11
44.0
 21
195.0
 31
0.0
  0
LINE
  5
7A
  8
0
 10
44.0
 20
195.0
 30
0.0
 11
44.539999999999992
 21
195.0
 31
0.0
  0
LINE
  5
7B
  8
0
 10
44.0
 20
195.0
 30
0.0
 11
44.0
 21
197.0
 31
0.0
  0
LINE
  5
7C
  8
0
 10
44.539999999999992
 20
197.0
 30
0.0
 11
45.97999999999999
 21
197.0
 31
0.0
  0
LINE
  5
7D
  8
0
 10
44.539999999999992
 20
195.0
 30
0.0
 11
45.0
 21
195.0
 31
0.0
  0
LINE
  5
7E
  8
0
 10
44.539999999999992
 20
195.0
 30
0.0
 11
45.97999999999999
 21
195.0
 31
0.0
  0
LINE
  5
7F
  8
0
 10
44.0
 20
199.0
 30
0.0
 11
44.539999999999992
 21
199.0
 31
0.0
  0
LINE
  5
80
  8
0
 10
44.0
 20
199.0
 30
0.0
 11
44.0
 21
201.0
 31
0.0
  0
LINE
  5
81
  8
0
 10
44.539999999999992
 20
199.0
 30
0.0
 11
45.0
 21
199.0
 31
0.0
  0
LINE
  5
82
  8
0
 10
44.539999999999992
 20
199.0
 30
0.0
 11
45.97999999999999
 21
199.0
 31
0.0
  0
LINE
  5
83
  8
0
 10
43.576000000000001
 20
192.0
 30
0.0
 11
45.111999999999988
 21
192.0
 31
0.0
  0
LINE
  5
84
  8
0
 10
43.0
 20
191.5
 30
0.0
 11
43.0
 21
192.0
 31
0.0
  0
LINE
  5
85
  8
0
 10
31.0
 20
191.5
 30
0.0
 11
31.0
 21
179.0
 31
0.0
  0
LINE
  5
86
  8
0
 10
31.0
 20
191.5
 30
0.0
 11
43.0
 21
191.5
 31
0.0
  0
LINE
  5
87
  8
0
 10
31.0
 20
179.0
 30
0.0
 11
55.0
 21
179.0
 31
0.0
  0
LINE
  5
88
  8
0
 10
31.0
 20
179.0
 30
0.0
 11
45.0
 21
179.0
 31
0.0
  0
LINE
  5
89
  8
0
 10
31.0
 20
179.0
 30
0.0
 11
31.0
 21
191.5
 31
0.0
  0
LINE
  5
8A
  8
0
 10
45.0
 20
195.0
 30
0.0
 11
45.0
 21
192.0
 31
0.0
  0
LINE
  5
8B
  8
0
 10
44.0
 20
201.0
 30
0.0
 11
44.539999999999992
 21
201.0
 31
0.0
  0
LINE
  5
8C
  8
0
 10
44.0
 20
201.0
 30
0.0
 11
44.0
 21
199.0
 31
0.0
  0
LINE
  5
8D
  8
0
 10
44.539999999999992
 20
201.0
 30
0.0
 11
45.97999999999999
 21
201.0
 31
0.0
  0
LINE
  5
8E
  8
0
 10
45.0
 20
199.0
 30
0.0
 11
45.0
 21
197.0
 31
0.0
  0
LINE
  5
8F
  8
0
 10
45.0
 20
197.0
 30
0.0
 11
45.0
 21
199.0
 31
0.0
  0
LINE
  5
90
  8
0
 10
45.0
 20
203.0
 30
0.0
 11
45.503999999999991
 21
203.0
 31
0.0
  0
LINE
  5
91
  8
0
 10
45.0
 20
203.0
 30
0.0
 11
45.0
 21
201.0
 31
0.0
  0
LINE
  5
92
  8
0
 10
45.0
 20
201.0
 30
0.0
 11
45.0
 21
203.0
 31
0.0
  0
LINE
  5
93
  8
0
 10
45.111999999999988
 20
25.0
 30
0.0
 11
47.67199999999999
 21
25.0
 31
0.0
  0
LINE
  5
94
  8
0
 10
45.111999999999988
 20
13.0
 30
0.0
 11
47.67199999999999
 21
13.0
 31
0.0
  0
LINE
  5
95
  8
0
 10
45.97999999999999
 20
197.0
 30
0.0
 11
48.380000000000003
 21
197.0
 31
0.0
  0
LINE
  5
96
  8
0
 10
45.97999999999999
 20
195.0
 30
0.0
 11
48.380000000000003
 21
195.0
 31
0.0
  0
LINE
  5
97
  8
0
 10
45.97999999999999
 20
201.0
 30
0.0
 11
48.380000000000003
 21
201.0
 31
0.0
  0
LINE
  5
98
  8
0
 10
45.97999999999999
 20
199.0
 30
0.0
 11
48.380000000000003
 21
199.0
 31
0.0
  0
LINE
  5
99
  8
0
 10
45.503999999999991
 20
33.0
 30
0.0
 11
46.847999999999999
 21
33.0
 31
0.0
  0
LINE
  5
9A
  8
0
 10
46.847999999999999
 20
33.0
 30
0.0
 11
49.088000000000001
 21
33.0
 31
0.0
  0
LINE
  5
9B
  8
0
 10
45.111999999999988
 20
192.0
 30
0.0
 11
47.67199999999999
 21
192.0
 31
0.0
  0
LINE
  5
9C
  8
0
 10
45.503999999999991
 20
203.0
 30
0.0
 11
46.847999999999999
 21
203.0
 31
0.0
  0
LINE
  5
9D
  8
0
 10
47.67199999999999
 20
25.0
 30
0.0
 11
51.063999999999993
 21
25.0
 31
0.0
  0
LINE
  5
9E
  8
0
 10
47.67199999999999
 20
13.0
 30
0.0
 11
51.063999999999993
 21
13.0
 31
0.0
  0
LINE
  5
A0
  8
0
 10
49.088000000000001
 20
33.0
 30
0.0
 11
52.055999999999997
 21
33.0
 31
0.0
  0
LINE
  5
A2
  8
0
 10
52.055999999999997
 20
33.0
 30
0.0
 11
55.415999999999997
 21
33.0
 31
0.0
  0
LINE
  5
A3
  8
0
 10
51.063999999999993
 20
25.0
 30
0.0
 11
54.904000000000003
 21
25.0
 31
0.0
  0
LINE
  5
A4
  8
0
 10
51.063999999999993
 20
13.0
 30
0.0
 11
54.904000000000003
 21
13.0
 31
0.0
  0
LINE
  5
A6
  8
0
 10
48.380000000000003
 20
197.0
 30
0.0
 11
51.560000000000002
 21
197.0
 31
0.0
  0
LINE
  5
A7
  8
0
 10
48.380000000000003
 20
195.0
 30
0.0
 11
51.560000000000002
 21
195.0
 31
0.0
  0
LINE
  5
A8
  8
0
 10
48.380000000000003
 20
201.0
 30
0.0
 11
51.560000000000002
 21
201.0
 31
0.0
  0
LINE
  5
A9
  8
0
 10
48.380000000000003
 20
199.0
 30
0.0
 11
51.560000000000002
 21
199.0
 31
0.0
  0
LINE
  5
AA
  8
0
 10
47.67199999999999
 20
192.0
 30
0.0
 11
51.063999999999993
 21
192.0
 31
0.0
  0
LINE
  5
AB
  8
0
 10
51.560000000000002
 20
197.0
 30
0.0
 11
55.159999999999997
 21
197.0
 31
0.0
  0
LINE
  5
AC
  8
0
 10
51.560000000000002
 20
195.0
 30
0.0
 11
55.159999999999997
 21
195.0
 31
0.0
  0
LINE
  5
AD
  8
0
 10
51.560000000000002
 20
201.0
 30
0.0
 11
55.159999999999997
 21
201.0
 31
0.0
  0
LINE
  5
AE
  8
0
 10
51.560000000000002
 20
199.0
 30
0.0
 11
55.159999999999997
 21
199.0
 31
0.0
  0
LINE
  5
AF
  8
0
 10
51.063999999999993
 20
192.0
 30
0.0
 11
54.904000000000003
 21
192.0
 31
0.0
  0
LINE
  5
B1
  8
0
 10
46.847999999999999
 20
203.0
 30
0.0
 11
49.088000000000001
 21
203.0
 31
0.0
  0
LINE
  5
B2
  8
0
 10
49.088000000000001
 20
203.0
 30
0.0
 11
52.055999999999997
 21
203.0
 31
0.0
  0
LINE
  5
B3
  8
0
 10
54.904000000000003
 20
13.0
 30
0.0
 11
59.0
 21
13.0
 31
0.0
  0
LINE
  5
B4
  8
0
 10
54.904000000000003
 20
25.0
 30
0.0
 11
59.0
 21
25.0
 31
0.0
  0
LINE
  5
B5
  8
0
 10
54.904000000000003
 20
192.0
 30
0.0
 11
55.0
 21
192.0
 31
0.0
  0
LINE
  5
B6
  8
0
 10
55.0
 20
171.0
 30
0.0
 11
55.0
 21
180.792
 31
0.0
  0
LINE
  5
B7
  8
0
 10
55.0
 20
180.792
 30
0.0
 11
55.0
 21
181.75200000000001
 31
0.0
  0
LINE
  5
B8
  8
0
 10
55.0
 20
180.792
 30
0.0
 11
55.0
 21
171.0
 31
0.0
  0
LINE
  5
B9
  8
0
 10
55.0
 20
181.75200000000001
 30
0.0
 11
55.0
 21
183.024
 31
0.0
  0
LINE
  5
BA
  8
0
 10
55.0
 20
181.75200000000001
 30
0.0
 11
55.0
 21
180.792
 31
0.0
  0
LINE
  5
BB
  8
0
 10
55.0
 20
183.024
 30
0.0
 11
55.0
 21
184.464
 31
0.0
  0
LINE
  5
BC
  8
0
 10
55.0
 20
183.024
 30
0.0
 11
55.0
 21
181.75200000000001
 31
0.0
  0
LINE
  5
BD
  8
0
 10
55.0
 20
184.464
 30
0.0
 11
55.0
 21
186.0
 31
0.0
  0
LINE
  5
BE
  8
0
 10
55.0
 20
184.464
 30
0.0
 11
55.0
 21
183.024
 31
0.0
  0
LINE
  5
BF
  8
0
 10
55.0
 20
192.0
 30
0.0
 11
55.0
 21
191.78399999999999
 31
0.0
  0
LINE
  5
C0
  8
0
 10
55.0
 20
191.78399999999999
 30
0.0
 11
55.0
 21
192.0
 31
0.0
  0
LINE
  5
C1
  8
0
 10
55.0
 20
191.78399999999999
 30
0.0
 11
55.0
 21
191.20799999999991
 31
0.0
  0
LINE
  5
C2
  8
0
 10
55.0
 20
191.20799999999991
 30
0.0
 11
55.0
 21
191.78399999999999
 31
0.0
  0
LINE
  5
C3
  8
0
 10
55.0
 20
191.20799999999991
 30
0.0
 11
55.0
 21
190.24799999999991
 31
0.0
  0
LINE
  5
C4
  8
0
 10
55.0
 20
190.24799999999991
 30
0.0
 11
55.0
 21
191.20799999999991
 31
0.0
  0
LINE
  5
C5
  8
0
 10
55.0
 20
190.24799999999991
 30
0.0
 11
55.0
 21
188.976
 31
0.0
  0
LINE
  5
C6
  8
0
 10
55.0
 20
188.976
 30
0.0
 11
55.0
 21
190.24799999999991
 31
0.0
  0
LINE
  5
C7
  8
0
 10
55.0
 20
188.976
 30
0.0
 11
55.0
 21
187.53599999999989
 31
0.0
  0
LINE
  5
C8
  8
0
 10
55.159999999999997
 20
197.0
 30
0.0
 11
59.0
 21
197.0
 31
0.0
  0
LINE
  5
C9
  8
0
 10
55.159999999999997
 20
195.0
 30
0.0
 11
59.0
 21
195.0
 31
0.0
  0
LINE
  5
CA
  8
0
 10
55.159999999999997
 20
201.0
 30
0.0
 11
59.0
 21
201.0
 31
0.0
  0
LINE
  5
CB
  8
0
 10
55.159999999999997
 20
199.0
 30
0.0
 11
59.0
 21
199.0
 31
0.0
  0
LINE
  5
CC
  8
0
 10
55.0
 20
187.53599999999989
 30
0.0
 11
55.0
 21
188.976
 31
0.0
  0
LINE
  5
CD
  8
0
 10
55.0
 20
187.53599999999989
 30
0.0
 11
55.0
 21
186.0
 31
0.0
  0
LINE
  5
CE
  8
0
 10
55.0
 20
186.0
 30
0.0
 11
55.0
 21
187.53599999999989
 31
0.0
  0
LINE
  5
CF
  8
0
 10
55.0
 20
186.0
 30
0.0
 11
55.0
 21
184.464
 31
0.0
  0
LINE
  5
D0
  8
0
 10
62.583999999999989
 20
33.0
 30
0.0
 11
68.0
 21
33.0
 31
0.0
  0
LINE
  5
D1
  8
0
 10
59.0
 20
197.0
 30
0.0
 11
62.840000000000003
 21
197.0
 31
0.0
  0
LINE
  5
D2
  8
0
 10
59.0
 20
195.0
 30
0.0
 11
62.840000000000003
 21
195.0
 31
0.0
  0
LINE
  5
D3
  8
0
 10
59.0
 20
201.0
 30
0.0
 11
62.840000000000003
 21
201.0
 31
0.0
  0
LINE
  5
D4
  8
0
 10
59.0
 20
199.0
 30
0.0
 11
62.840000000000003
 21
199.0
 31
0.0
  0
LINE
  5
D5
  8
0
 10
59.0
 20
33.0
 30
0.0
 11
62.583999999999989
 21
33.0
 31
0.0
  0
LINE
  5
D6
  8
0
 10
55.415999999999997
 20
33.0
 30
0.0
 11
59.0
 21
33.0
 31
0.0
  0
LINE
  5
D7
  8
0
 10
59.0
 20
25.0
 30
0.0
 11
63.095999999999997
 21
25.0
 31
0.0
  0
LINE
  5
D8
  8
0
 10
54.904000000000003
 20
187.0
 30
0.0
 11
55.0
 21
187.0
 31
0.0
  0
LINE
  5
D9
  8
0
 10
59.0
 20
13.0
 30
0.0
 11
63.095999999999997
 21
13.0
 31
0.0
  0
LINE
  5
DA
  8
0
 10
65.0
 20
-0.0000000000000053
 30
0.0
 11
75.0
 21
-0.0000000000000058
 31
0.0
  0
LINE
  5
DB
  8
0
 10
65.0
 20
-0.0000000000000053
 30
0.0
 11
65.0
 21
0.215999999999995
 31
0.0
  0
LINE
  5
DC
  8
0
 10
65.0
 20
0.215999999999995
 30
0.0
 11
65.0
 21
-0.0000000000000053
 31
0.0
  0
LINE
  5
DD
  8
0
 10
65.0
 20
0.215999999999995
 30
0.0
 11
65.0
 21
0.791999999999995
 31
0.0
  0
LINE
  5
DE
  8
0
 10
65.0
 20
0.791999999999995
 30
0.0
 11
65.0
 21
0.215999999999995
 31
0.0
  0
LINE
  5
DF
  8
0
 10
65.0
 20
0.791999999999995
 30
0.0
 11
65.0
 21
1.7519999999999889
 31
0.0
  0
LINE
  5
E0
  8
0
 10
65.0
 20
1.7519999999999889
 30
0.0
 11
65.0
 21
0.791999999999995
 31
0.0
  0
LINE
  5
E1
  8
0
 10
65.0
 20
1.7519999999999889
 30
0.0
 11
65.0
 21
3.0239999999999991
 31
0.0
  0
LINE
  5
E2
  8
0
 10
65.0
 20
3.0239999999999991
 30
0.0
 11
65.0
 21
1.7519999999999889
 31
0.0
  0
LINE
  5
E3
  8
0
 10
65.0
 20
3.0239999999999991
 30
0.0
 11
65.0
 21
4.4639999999999898
 31
0.0
  0
LINE
  5
E4
  8
0
 10
65.0
 20
4.4639999999999898
 30
0.0
 11
65.0
 21
3.0239999999999991
 31
0.0
  0
LINE
  5
E5
  8
0
 10
65.0
 20
4.4639999999999898
 30
0.0
 11
65.0
 21
5.9999999999999902
 31
0.0
  0
LINE
  5
E6
  8
0
 10
62.840000000000003
 20
197.0
 30
0.0
 11
66.439999999999998
 21
197.0
 31
0.0
  0
LINE
  5
E7
  8
0
 10
62.840000000000003
 20
195.0
 30
0.0
 11
66.439999999999998
 21
195.0
 31
0.0
  0
LINE
  5
E8
  8
0
 10
62.840000000000003
 20
201.0
 30
0.0
 11
66.439999999999998
 21
201.0
 31
0.0
  0
LINE
  5
E9
  8
0
 10
62.840000000000003
 20
199.0
 30
0.0
 11
66.439999999999998
 21
199.0
 31
0.0
  0
LINE
  5
EA
  8
0
 10
65.0
 20
27.0
 30
0.0
 11
75.0
 21
27.0
 31
0.0
  0
LINE
  5
EB
  8
0
 10
65.0
 20
27.0
 30
0.0
 11
65.0
 21
6.0
 31
0.0
  0
LINE
  5
EC
  8
0
 10
65.0
 20
14.0
 30
0.0
 11
65.0
 21
6.0
 31
0.0
  0
LINE
  5
ED
  8
0
 10
63.095999999999997
 20
25.0
 30
0.0
 11
65.0
 21
25.0
 31
0.0
  0
LINE
  5
EE
  8
0
 10
63.095999999999997
 20
13.0
 30
0.0
 11
65.0
 21
13.0
 31
0.0
  0
LINE
  5
EF
  8
0
 10
65.0
 20
171.0
 30
0.0
 11
65.0
 21
180.792
 31
0.0
  0
LINE
  5
F0
  8
0
 10
65.0
 20
180.792
 30
0.0
 11
65.0
 21
181.75200000000001
 31
0.0
  0
LINE
  5
F1
  8
0
 10
65.0
 20
180.792
 30
0.0
 11
65.0
 21
171.0
 31
0.0
  0
LINE
  5
F2
  8
0
 10
65.0
 20
181.75200000000001
 30
0.0
 11
65.0
 21
183.024
 31
0.0
  0
LINE
  5
F3
  8
0
 10
65.0
 20
181.75200000000001
 30
0.0
 11
65.0
 21
180.792
 31
0.0
  0
LINE
  5
F4
  8
0
 10
65.0
 20
183.024
 30
0.0
 11
65.0
 21
184.464
 31
0.0
  0
LINE
  5
F5
  8
0
 10
65.0
 20
183.024
 30
0.0
 11
65.0
 21
181.75200000000001
 31
0.0
  0
LINE
  5
F6
  8
0
 10
65.0
 20
184.464
 30
0.0
 11
65.0
 21
186.0
 31
0.0
  0
LINE
  5
F7
  8
0
 10
65.0
 20
184.464
 30
0.0
 11
65.0
 21
183.024
 31
0.0
  0
LINE
  5
F8
  8
0
 10
65.0
 20
186.0
 30
0.0
 11
65.0
 21
187.53599999999989
 31
0.0
  0
LINE
  5
F9
  8
0
 10
65.0
 20
186.0
 30
0.0
 11
65.0
 21
184.464
 31
0.0
  0
LINE
  5
FA
  8
0
 10
75.0
 20
177.0
 30
0.0
 11
70.0
 21
177.0
 31
0.0
  0
LINE
  5
FB
  8
0
 10
75.0
 20
157.0
 30
0.0
 11
70.0
 21
157.0
 31
0.0
  0
LINE
  5
FC
  8
0
 10
75.0
 20
47.0
 30
0.0
 11
70.0
 21
47.0
 31
0.0
  0
LINE
  5
FD
  8
0
 10
65.944000000000003
 20
187.0
 30
0.0
 11
68.911999999999992
 21
187.0
 31
0.0
  0
LINE
  5
FE
  8
0
 10
68.0
 20
30.555900000000001
 30
0.0
 11
68.0
 21
30.308800000000002
 31
0.0
  0
LINE
  5
FF
  8
0
 10
68.0
 20
30.308800000000002
 30
0.0
 11
68.096199999999996
 21
30.102900000000002
 31
0.0
  0
LINE
  5
100
  8
0
 10
68.0
 20
30.308800000000002
 30
0.0
 11
68.0
 21
30.555900000000001
 31
0.0
  0
LINE
  5
101
  8
0
 10
68.0
 20
32.264699999999991
 30
0.0
 11
68.0
 21
31.214700000000001
 31
0.0
  0
LINE
  5
102
  8
0
 10
68.0
 20
32.264699999999991
 30
0.0
 11
68.0
 21
33.664700000000003
 31
0.0
  0
LINE
  5
103
  8
0
 10
68.0
 20
30.555900000000001
 30
0.0
 11
68.0
 21
32.264699999999991
 31
0.0
  0
LINE
  5
104
  8
0
 10
68.096199999999996
 20
31.029399999999999
 30
0.0
 11
68.096199999999996
 21
32.120600000000003
 31
0.0
  0
LINE
  5
105
  8
0
 10
68.096199999999996
 20
31.029399999999999
 30
0.0
 11
68.096199999999996
 21
30.350000000000001
 31
0.0
  0
LINE
  5
106
  8
0
 10
68.096199999999996
 20
30.350000000000001
 30
0.0
 11
68.096199999999996
 21
31.029399999999999
 31
0.0
  0
LINE
  5
107
  8
0
 10
68.096199999999996
 20
30.350000000000001
 30
0.0
 11
68.096199999999996
 21
30.102900000000002
 31
0.0
  0
LINE
  5
108
  8
0
 10
68.096199999999996
 20
30.102900000000002
 30
0.0
 11
68.288499999999999
 21
30.0
 31
0.0
  0
LINE
  5
109
  8
0
 10
68.096199999999996
 20
30.102900000000002
 30
0.0
 11
68.096199999999996
 21
30.350000000000001
 31
0.0
  0
LINE
  5
10A
  8
0
 10
68.096199999999996
 20
32.120600000000003
 30
0.0
 11
68.096199999999996
 21
33.561799999999998
 31
0.0
  0
LINE
  5
10B
  8
0
 10
68.096199999999996
 20
32.120600000000003
 30
0.0
 11
68.096199999999996
 21
31.029399999999999
 31
0.0
  0
LINE
  5
10C
  8
0
 10
68.0
 20
33.664700000000003
 30
0.0
 11
68.0
 21
32.264699999999991
 31
0.0
  0
LINE
  5
10D
  8
0
 10
68.0
 20
33.664700000000003
 30
0.0
 11
68.0
 21
35.270600000000002
 31
0.0
  0
LINE
  5
10E
  8
0
 10
68.0
 20
35.270600000000002
 30
0.0
 11
68.0
 21
33.664700000000003
 31
0.0
  0
LINE
  5
10F
  8
0
 10
68.0
 20
35.270600000000002
 30
0.0
 11
68.0
 21
37.0
 31
0.0
  0
LINE
  5
110
  8
0
 10
68.0
 20
40.335299999999989
 30
0.0
 11
68.0
 21
38.729399999999991
 31
0.0
  0
LINE
  5
111
  8
0
 10
68.0
 20
40.335299999999989
 30
0.0
 11
68.0
 21
41.735300000000002
 31
0.0
  0
LINE
  5
112
  8
0
 10
68.0
 20
38.729399999999991
 30
0.0
 11
68.0
 21
37.0
 31
0.0
  0
LINE
  5
113
  8
0
 10
68.0
 20
38.729399999999991
 30
0.0
 11
68.0
 21
40.335299999999989
 31
0.0
  0
LINE
  5
114
  8
0
 10
68.0
 20
41.735300000000002
 30
0.0
 11
68.0
 21
42.785299999999992
 31
0.0
  0
LINE
  5
115
  8
0
 10
68.0
 20
41.735300000000002
 30
0.0
 11
68.0
 21
40.335299999999989
 31
0.0
  0
LINE
  5
116
  8
0
 10
68.0
 20
42.785299999999992
 30
0.0
 11
68.0
 21
41.735300000000002
 31
0.0
  0
LINE
  5
117
  8
0
 10
68.0
 20
42.785299999999992
 30
0.0
 11
68.0
 21
43.444099999999992
 31
0.0
  0
LINE
  5
118
  8
0
 10
68.096199999999996
 20
40.438200000000002
 30
0.0
 11
68.096199999999996
 21
41.879399999999997
 31
0.0
  0
LINE
  5
119
  8
0
 10
68.096199999999996
 20
40.438200000000002
 30
0.0
 11
68.096199999999996
 21
38.770600000000002
 31
0.0
  0
LINE
  5
11A
  8
0
 10
68.096199999999996
 20
38.770600000000002
 30
0.0
 11
68.096199999999996
 21
40.438200000000002
 31
0.0
  0
LINE
  5
11B
  8
0
 10
68.096199999999996
 20
38.770600000000002
 30
0.0
 11
68.096199999999996
 21
37.0
 31
0.0
  0
LINE
  5
11C
  8
0
 10
68.096199999999996
 20
41.879399999999997
 30
0.0
 11
68.096199999999996
 21
42.970599999999997
 31
0.0
  0
LINE
  5
11D
  8
0
 10
68.096199999999996
 20
41.879399999999997
 30
0.0
 11
68.096199999999996
 21
40.438200000000002
 31
0.0
  0
LINE
  5
11E
  8
0
 10
68.096199999999996
 20
42.970599999999997
 30
0.0
 11
68.096199999999996
 21
43.649999999999999
 31
0.0
  0
LINE
  5
11F
  8
0
 10
68.096199999999996
 20
42.970599999999997
 30
0.0
 11
68.096199999999996
 21
41.879399999999997
 31
0.0
  0
LINE
  5
120
  8
0
 10
68.096199999999996
 20
43.649999999999999
 30
0.0
 11
68.096199999999996
 21
43.897100000000002
 31
0.0
  0
LINE
  5
121
  8
0
 10
68.096199999999996
 20
43.649999999999999
 30
0.0
 11
68.096199999999996
 21
42.970599999999997
 31
0.0
  0
LINE
  5
122
  8
0
 10
68.0
 20
43.444099999999992
 30
0.0
 11
68.0
 21
42.785299999999992
 31
0.0
  0
LINE
  5
123
  8
0
 10
68.0
 20
43.444099999999992
 30
0.0
 11
68.0
 21
43.691200000000002
 31
0.0
  0
LINE
  5
124
  8
0
 10
68.0
 20
163.66499999999991
 30
0.0
 11
68.0
 21
162.2649999999999
 31
0.0
  0
LINE
  5
125
  8
0
 10
68.0
 20
163.66499999999991
 30
0.0
 11
68.0
 21
165.2709999999999
 31
0.0
  0
LINE
  5
126
  8
0
 10
68.0
 20
170.33500000000001
 30
0.0
 11
68.0
 21
168.72900000000001
 31
0.0
  0
LINE
  5
127
  8
0
 10
68.0
 20
170.33500000000001
 30
0.0
 11
68.0
 21
171.73500000000001
 31
0.0
  0
LINE
  5
128
  8
0
 10
68.0
 20
168.72900000000001
 30
0.0
 11
68.0
 21
167.0
 31
0.0
  0
LINE
  5
129
  8
0
 10
68.0
 20
168.72900000000001
 30
0.0
 11
68.0
 21
170.33500000000001
 31
0.0
  0
LINE
  5
12A
  8
0
 10
68.0
 20
171.73500000000001
 30
0.0
 11
68.0
 21
172.785
 31
0.0
  0
LINE
  5
12B
  8
0
 10
68.0
 20
171.73500000000001
 30
0.0
 11
68.0
 21
170.33500000000001
 31
0.0
  0
LINE
  5
12C
  8
0
 10
68.0
 20
172.785
 30
0.0
 11
68.0
 21
171.73500000000001
 31
0.0
  0
LINE
  5
12D
  8
0
 10
68.0
 20
172.785
 30
0.0
 11
68.0
 21
173.44399999999999
 31
0.0
  0
LINE
  5
12E
  8
0
 10
68.0
 20
173.44399999999999
 30
0.0
 11
68.0
 21
172.785
 31
0.0
  0
LINE
  5
12F
  8
0
 10
68.0
 20
173.44399999999999
 30
0.0
 11
68.0
 21
173.69099999999989
 31
0.0
  0
LINE
  5
130
  8
0
 10
68.0
 20
173.69099999999989
 30
0.0
 11
68.0
 21
173.44399999999999
 31
0.0
  0
LINE
  5
131
  8
0
 10
68.0
 20
173.69099999999989
 30
0.0
 11
68.096199999999996
 21
173.89699999999999
 31
0.0
  0
LINE
  5
132
  8
0
 10
68.0
 20
165.2709999999999
 30
0.0
 11
68.0
 21
163.66499999999991
 31
0.0
  0
LINE
  5
133
  8
0
 10
68.0
 20
165.2709999999999
 30
0.0
 11
68.0
 21
167.0
 31
0.0
  0
LINE
  5
134
  8
0
 10
68.0
 20
167.0
 30
0.0
 11
68.0
 21
165.2709999999999
 31
0.0
  0
LINE
  5
135
  8
0
 10
68.0
 20
167.0
 30
0.0
 11
68.0
 21
168.72900000000001
 31
0.0
  0
LINE
  5
136
  8
0
 10
68.0
 20
162.2649999999999
 30
0.0
 11
68.0
 21
161.21499999999989
 31
0.0
  0
LINE
  5
137
  8
0
 10
68.0
 20
162.2649999999999
 30
0.0
 11
68.0
 21
163.66499999999991
 31
0.0
  0
LINE
  5
138
  8
0
 10
68.0
 20
161.21499999999989
 30
0.0
 11
68.0
 21
160.55600000000001
 31
0.0
  0
LINE
  5
139
  8
0
 10
68.0
 20
161.21499999999989
 30
0.0
 11
68.0
 21
162.2649999999999
 31
0.0
  0
LINE
  5
13A
  8
0
 10
68.0
 20
160.55600000000001
 30
0.0
 11
68.0
 21
160.30899999999991
 31
0.0
  0
LINE
  5
13B
  8
0
 10
68.0
 20
160.55600000000001
 30
0.0
 11
68.0
 21
161.21499999999989
 31
0.0
  0
LINE
  5
13C
  8
0
 10
68.0
 20
160.30899999999991
 30
0.0
 11
68.096199999999996
 21
160.10299999999989
 31
0.0
  0
LINE
  5
13D
  8
0
 10
68.0
 20
160.30899999999991
 30
0.0
 11
68.0
 21
160.55600000000001
 31
0.0
  0
LINE
  5
13E
  8
0
 10
68.0
 20
43.691200000000002
 30
0.0
 11
68.0
 21
43.444099999999992
 31
0.0
  0
LINE
  5
13F
  8
0
 10
68.0
 20
43.691200000000002
 30
0.0
 11
68.096199999999996
 21
43.897100000000002
 31
0.0
  0
LINE
  5
140
  8
0
 10
68.096199999999996
 20
43.897100000000002
 30
0.0
 11
68.288499999999999
 21
44.0
 31
0.0
  0
LINE
  5
141
  8
0
 10
68.096199999999996
 20
43.897100000000002
 30
0.0
 11
68.096199999999996
 21
43.649999999999999
 31
0.0
  0
LINE
  5
142
  8
0
 10
68.0
 20
37.0
 30
0.0
 11
68.0
 21
35.270600000000002
 31
0.0
  0
LINE
  5
143
  8
0
 10
68.0
 20
37.0
 30
0.0
 11
68.0
 21
38.729399999999991
 31
0.0
  0
LINE
  5
144
  8
0
 10
68.096199999999996
 20
37.0
 30
0.0
 11
68.096199999999996
 21
35.229399999999998
 31
0.0
  0
LINE
  5
145
  8
0
 10
68.096199999999996
 20
37.0
 30
0.0
 11
68.096199999999996
 21
38.770600000000002
 31
0.0
  0
LINE
  5
146
  8
0
 10
68.096199999999996
 20
33.561799999999998
 30
0.0
 11
68.096199999999996
 21
35.229399999999998
 31
0.0
  0
LINE
  5
147
  8
0
 10
68.096199999999996
 20
33.561799999999998
 30
0.0
 11
68.096199999999996
 21
32.120600000000003
 31
0.0
  0
LINE
  5
148
  8
0
 10
68.096199999999996
 20
161.02899999999991
 30
0.0
 11
68.096199999999996
 21
162.12100000000001
 31
0.0
  0
LINE
  5
149
  8
0
 10
68.096199999999996
 20
161.02899999999991
 30
0.0
 11
68.096199999999996
 21
160.34999999999991
 31
0.0
  0
LINE
  5
14A
  8
0
 10
68.096199999999996
 20
160.34999999999991
 30
0.0
 11
68.096199999999996
 21
161.02899999999991
 31
0.0
  0
LINE
  5
14B
  8
0
 10
68.096199999999996
 20
160.34999999999991
 30
0.0
 11
68.096199999999996
 21
160.10299999999989
 31
0.0
  0
LINE
  5
14C
  8
0
 10
68.096199999999996
 20
160.10299999999989
 30
0.0
 11
68.288499999999999
 21
160.0
 31
0.0
  0
LINE
  5
14D
  8
0
 10
68.096199999999996
 20
160.10299999999989
 30
0.0
 11
68.096199999999996
 21
160.34999999999991
 31
0.0
  0
LINE
  5
14E
  8
0
 10
68.096199999999996
 20
162.12100000000001
 30
0.0
 11
68.096199999999996
 21
163.56200000000001
 31
0.0
  0
LINE
  5
14F
  8
0
 10
68.096199999999996
 20
162.12100000000001
 30
0.0
 11
68.096199999999996
 21
161.02899999999991
 31
0.0
  0
LINE
  5
150
  8
0
 10
68.096199999999996
 20
163.56200000000001
 30
0.0
 11
68.096199999999996
 21
165.22900000000001
 31
0.0
  0
LINE
  5
151
  8
0
 10
68.096199999999996
 20
163.56200000000001
 30
0.0
 11
68.096199999999996
 21
162.12100000000001
 31
0.0
  0
LINE
  5
152
  8
0
 10
68.096199999999996
 20
170.43799999999999
 30
0.0
 11
68.096199999999996
 21
171.87899999999999
 31
0.0
  0
LINE
  5
153
  8
0
 10
68.096199999999996
 20
170.43799999999999
 30
0.0
 11
68.096199999999996
 21
168.7709999999999
 31
0.0
  0
LINE
  5
154
  8
0
 10
68.096199999999996
 20
168.7709999999999
 30
0.0
 11
68.096199999999996
 21
170.43799999999999
 31
0.0
  0
LINE
  5
155
  8
0
 10
68.096199999999996
 20
168.7709999999999
 30
0.0
 11
68.096199999999996
 21
167.0
 31
0.0
  0
LINE
  5
156
  8
0
 10
68.096199999999996
 20
171.87899999999999
 30
0.0
 11
68.096199999999996
 21
172.97099999999989
 31
0.0
  0
LINE
  5
157
  8
0
 10
68.096199999999996
 20
171.87899999999999
 30
0.0
 11
68.096199999999996
 21
170.43799999999999
 31
0.0
  0
LINE
  5
158
  8
0
 10
68.096199999999996
 20
172.97099999999989
 30
0.0
 11
68.096199999999996
 21
173.65000000000001
 31
0.0
  0
LINE
  5
159
  8
0
 10
68.096199999999996
 20
172.97099999999989
 30
0.0
 11
68.096199999999996
 21
171.87899999999999
 31
0.0
  0
LINE
  5
15A
  8
0
 10
68.096199999999996
 20
173.65000000000001
 30
0.0
 11
68.096199999999996
 21
173.89699999999999
 31
0.0
  0
LINE
  5
15B
  8
0
 10
68.096199999999996
 20
173.65000000000001
 30
0.0
 11
68.096199999999996
 21
172.97099999999989
 31
0.0
  0
LINE
  5
15C
  8
0
 10
68.096199999999996
 20
173.89699999999999
 30
0.0
 11
68.288499999999999
 21
174.0
 31
0.0
  0
LINE
  5
15D
  8
0
 10
68.096199999999996
 20
173.89699999999999
 30
0.0
 11
68.096199999999996
 21
173.65000000000001
 31
0.0
  0
LINE
  5
15E
  8
0
 10
68.096199999999996
 20
167.0
 30
0.0
 11
68.096199999999996
 21
165.22900000000001
 31
0.0
  0
LINE
  5
15F
  8
0
 10
68.096199999999996
 20
167.0
 30
0.0
 11
68.096199999999996
 21
168.7709999999999
 31
0.0
  0
LINE
  5
160
  8
0
 10
68.096199999999996
 20
165.22900000000001
 30
0.0
 11
68.096199999999996
 21
167.0
 31
0.0
  0
LINE
  5
161
  8
0
 10
68.096199999999996
 20
165.22900000000001
 30
0.0
 11
68.096199999999996
 21
163.56200000000001
 31
0.0
  0
LINE
  5
162
  8
0
 10
68.288499999999999
 20
174.0
 30
0.0
 11
70.0
 21
174.0
 31
0.0
  0
LINE
  5
163
  8
0
 10
68.288499999999999
 20
160.0
 30
0.0
 11
70.0
 21
160.0
 31
0.0
  0
LINE
  5
164
  8
0
 10
68.288499999999999
 20
44.0
 30
0.0
 11
70.0
 21
44.0
 31
0.0
  0
LINE
  5
165
  8
0
 10
68.288499999999999
 20
30.0
 30
0.0
 11
70.0
 21
30.0
 31
0.0
  0
LINE
  5
166
  8
0
 10
68.096199999999996
 20
35.229399999999998
 30
0.0
 11
68.096199999999996
 21
37.0
 31
0.0
  0
LINE
  5
167
  8
0
 10
68.096199999999996
 20
35.229399999999998
 30
0.0
 11
68.096199999999996
 21
33.561799999999998
 31
0.0
  0
LINE
  5
168
  8
0
 10
68.911999999999992
 20
187.0
 30
0.0
 11
71.152000000000001
 21
187.0
 31
0.0
  0
LINE
  5
169
  8
0
 10
66.936000000000007
 20
187.0
 30
0.0
 11
70.328000000000003
 21
187.0
 31
0.0
  0
LINE
  5
16A
  8
0
 10
65.0
 20
191.78399999999999
 30
0.0
 11
65.0
 21
192.0
 31
0.0
  0
LINE
  5
16B
  8
0
 10
65.0
 20
191.78399999999999
 30
0.0
 11
65.0
 21
191.20799999999991
 31
0.0
  0
LINE
  5
16C
  8
0
 10
65.0
 20
191.20799999999991
 30
0.0
 11
65.0
 21
191.78399999999999
 31
0.0
  0
LINE
  5
16D
  8
0
 10
65.0
 20
191.20799999999991
 30
0.0
 11
65.0
 21
190.24799999999991
 31
0.0
  0
LINE
  5
16E
  8
0
 10
65.0
 20
190.24799999999991
 30
0.0
 11
65.0
 21
191.20799999999991
 31
0.0
  0
LINE
  5
16F
  8
0
 10
65.0
 20
190.24799999999991
 30
0.0
 11
65.0
 21
188.976
 31
0.0
  0
LINE
  5
170
  8
0
 10
65.0
 20
188.976
 30
0.0
 11
65.0
 21
190.24799999999991
 31
0.0
  0
LINE
  5
171
  8
0
 10
65.0
 20
188.976
 30
0.0
 11
65.0
 21
187.53599999999989
 31
0.0
  0
LINE
  5
172
  8
0
 10
65.0
 20
187.53599999999989
 30
0.0
 11
65.0
 21
188.976
 31
0.0
  0
LINE
  5
173
  8
0
 10
65.0
 20
187.53599999999989
 30
0.0
 11
65.0
 21
186.0
 31
0.0
  0
LINE
  5
174
  8
0
 10
66.439999999999998
 20
197.0
 30
0.0
 11
69.620000000000005
 21
197.0
 31
0.0
  0
LINE
  5
175
  8
0
 10
66.439999999999998
 20
195.0
 30
0.0
 11
69.620000000000005
 21
195.0
 31
0.0
  0
LINE
  5
176
  8
0
 10
66.439999999999998
 20
201.0
 30
0.0
 11
69.620000000000005
 21
201.0
 31
0.0
  0
LINE
  5
177
  8
0
 10
66.439999999999998
 20
199.0
 30
0.0
 11
69.620000000000005
 21
199.0
 31
0.0
  0
LINE
  5
178
  8
0
 10
66.936000000000007
 20
192.0
 30
0.0
 11
70.328000000000003
 21
192.0
 31
0.0
  0
LINE
  5
179
  8
0
 10
65.0
 20
192.0
 30
0.0
 11
66.936000000000007
 21
192.0
 31
0.0
  0
LINE
  5
17A
  8
0
 10
65.0
 20
192.0
 30
0.0
 11
65.0
 21
191.78399999999999
 31
0.0
  0
LINE
  5
17B
  8
0
 10
65.0
 20
187.0
 30
0.0
 11
66.936000000000007
 21
187.0
 31
0.0
  0
LINE
  5
17C
  8
0
 10
65.0
 20
187.0
 30
0.0
 11
65.944000000000003
 21
187.0
 31
0.0
  0
LINE
  5
17D
  8
0
 10
65.0
 20
13.0
 30
0.0
 11
65.0
 21
6.0
 31
0.0
  0
LINE
  5
17E
  8
0
 10
65.0
 20
5.9999999999999902
 30
0.0
 11
65.0
 21
4.4639999999999898
 31
0.0
  0
LINE
  5
17F
  8
0
 10
65.0
 20
5.9999999999999902
 30
0.0
 11
65.0
 21
13.0
 31
0.0
  0
LINE
  5
180
  8
0
 10
65.0
 20
5.9999999999999902
 30
0.0
 11
65.0
 21
14.0
 31
0.0
  0
LINE
  5
181
  8
0
 10
65.0
 20
5.9999999999999902
 30
0.0
 11
65.0
 21
27.0
 31
0.0
  0
LINE
  5
182
  8
0
 10
70.0
 20
27.359999999999999
 30
0.0
 11
70.0
 21
28.32
 31
0.0
  0
LINE
  5
183
  8
0
 10
70.0
 20
27.359999999999999
 30
0.0
 11
70.0
 21
27.0
 31
0.0
  0
LINE
  5
184
  8
0
 10
70.0
 20
30.947099999999999
 30
0.0
 11
70.0
 21
30.2471
 31
0.0
  0
LINE
  5
185
  8
0
 10
70.0
 20
30.2471
 30
0.0
 11
70.0
 21
30.0
 31
0.0
  0
LINE
  5
186
  8
0
 10
70.0
 20
30.0
 30
0.0
 11
70.0
 21
27.0
 31
0.0
  0
LINE
  5
187
  8
0
 10
70.0
 20
28.32
 30
0.0
 11
70.0
 21
29.920000000000002
 31
0.0
  0
LINE
  5
188
  8
0
 10
70.0
 20
28.32
 30
0.0
 11
70.0
 21
27.359999999999999
 31
0.0
  0
LINE
  5
189
  8
0
 10
70.0
 20
29.920000000000002
 30
0.0
 11
70.0
 21
32.039999999999999
 31
0.0
  0
LINE
  5
18A
  8
0
 10
70.0
 20
29.920000000000002
 30
0.0
 11
70.0
 21
28.32
 31
0.0
  0
LINE
  5
18B
  8
0
 10
70.0
 20
32.058799999999998
 30
0.0
 11
70.0
 21
30.947099999999999
 31
0.0
  0
LINE
  5
18C
  8
0
 10
70.0
 20
38.791200000000003
 30
0.0
 11
70.0
 21
37.0
 31
0.0
  0
LINE
  5
18D
  8
0
 10
70.0
 20
33.520600000000002
 30
0.0
 11
70.0
 21
32.058799999999998
 31
0.0
  0
LINE
  5
18E
  8
0
 10
70.0
 20
35.208799999999997
 30
0.0
 11
70.0
 21
33.520600000000002
 31
0.0
  0
LINE
  5
18F
  8
0
 10
70.0
 20
32.039999999999999
 30
0.0
 11
70.0
 21
34.439999999999991
 31
0.0
  0
LINE
  5
190
  8
0
 10
70.0
 20
32.039999999999999
 30
0.0
 11
70.0
 21
29.920000000000002
 31
0.0
  0
LINE
  5
191
  8
0
 10
70.0
 20
34.439999999999991
 30
0.0
 11
70.0
 21
37.0
 31
0.0
  0
LINE
  5
192
  8
0
 10
70.0
 20
34.439999999999991
 30
0.0
 11
70.0
 21
32.039999999999999
 31
0.0
  0
LINE
  5
193
  8
0
 10
70.0
 20
41.941200000000002
 30
0.0
 11
70.0
 21
40.479399999999991
 31
0.0
  0
LINE
  5
194
  8
0
 10
70.0
 20
40.479399999999991
 30
0.0
 11
70.0
 21
38.791200000000003
 31
0.0
  0
LINE
  5
195
  8
0
 10
70.0
 20
43.052900000000001
 30
0.0
 11
70.0
 21
41.941200000000002
 31
0.0
  0
LINE
  5
196
  8
0
 10
70.0
 20
43.75289999999999
 30
0.0
 11
70.0
 21
43.052900000000001
 31
0.0
  0
LINE
  5
197
  8
0
 10
70.0
 20
41.960000000000001
 30
0.0
 11
70.0
 21
44.079999999999998
 31
0.0
  0
LINE
  5
198
  8
0
 10
70.0
 20
41.960000000000001
 30
0.0
 11
70.0
 21
39.560000000000002
 31
0.0
  0
LINE
  5
199
  8
0
 10
70.0
 20
39.560000000000002
 30
0.0
 11
70.0
 21
41.960000000000001
 31
0.0
  0
LINE
  5
19A
  8
0
 10
70.0
 20
39.560000000000002
 30
0.0
 11
70.0
 21
37.0
 31
0.0
  0
LINE
  5
19B
  8
0
 10
70.0
 20
37.0
 30
0.0
 11
70.0
 21
39.560000000000002
 31
0.0
  0
LINE
  5
19C
  8
0
 10
70.0
 20
37.0
 30
0.0
 11
70.0
 21
34.439999999999991
 31
0.0
  0
LINE
  5
19D
  8
0
 10
70.0
 20
37.0
 30
0.0
 11
70.0
 21
35.208799999999997
 31
0.0
  0
LINE
  5
19E
  8
0
 10
70.0
 20
46.640000000000001
 30
0.0
 11
70.0
 21
47.0
 31
0.0
  0
LINE
  5
19F
  8
0
 10
70.0
 20
46.640000000000001
 30
0.0
 11
70.0
 21
45.68
 31
0.0
  0
LINE
  5
1A0
  8
0
 10
70.0
 20
45.68
 30
0.0
 11
70.0
 21
46.640000000000001
 31
0.0
  0
LINE
  5
1A1
  8
0
 10
70.0
 20
45.68
 30
0.0
 11
70.0
 21
44.079999999999998
 31
0.0
  0
LINE
  5
1A2
  8
0
 10
70.0
 20
44.079999999999998
 30
0.0
 11
70.0
 21
45.68
 31
0.0
  0
LINE
  5
1A3
  8
0
 10
70.0
 20
44.079999999999998
 30
0.0
 11
70.0
 21
41.960000000000001
 31
0.0
  0
LINE
  5
1A4
  8
0
 10
70.0
 20
44.0
 30
0.0
 11
70.0
 21
47.0
 31
0.0
  0
LINE
  5
1A5
  8
0
 10
70.0
 20
44.0
 30
0.0
 11
70.0
 21
43.75289999999999
 31
0.0
  0
LINE
  5
1A6
  8
0
 10
70.0
 20
27.0
 30
0.0
 11
70.0
 21
30.0
 31
0.0
  0
LINE
  5
1A7
  8
0
 10
70.0
 20
27.0
 30
0.0
 11
70.0
 21
27.359999999999999
 31
0.0
  0
LINE
  5
1A8
  8
0
 10
70.0
 20
157.0
 30
0.0
 11
70.0
 21
157.36000000000001
 31
0.0
  0
LINE
  5
1A9
  8
0
 10
70.0
 20
157.0
 30
0.0
 11
70.0
 21
160.0
 31
0.0
  0
LINE
  5
1AA
  8
0
 10
70.0
 20
157.36000000000001
 30
0.0
 11
70.0
 21
158.31999999999991
 31
0.0
  0
LINE
  5
1AB
  8
0
 10
70.0
 20
157.36000000000001
 30
0.0
 11
70.0
 21
157.0
 31
0.0
  0
LINE
  5
1AC
  8
0
 10
70.0
 20
158.31999999999991
 30
0.0
 11
70.0
 21
159.9199999999999
 31
0.0
  0
LINE
  5
1AD
  8
0
 10
70.0
 20
158.31999999999991
 30
0.0
 11
70.0
 21
157.36000000000001
 31
0.0
  0
LINE
  5
1AE
  8
0
 10
70.0
 20
159.9199999999999
 30
0.0
 11
70.0
 21
162.03999999999999
 31
0.0
  0
LINE
  5
1AF
  8
0
 10
70.0
 20
159.9199999999999
 30
0.0
 11
70.0
 21
158.31999999999991
 31
0.0
  0
LINE
  5
1B0
  8
0
 10
70.0
 20
160.94699999999989
 30
0.0
 11
70.0
 21
160.24700000000001
 31
0.0
  0
LINE
  5
1B1
  8
0
 10
70.0
 20
160.24700000000001
 30
0.0
 11
70.0
 21
160.0
 31
0.0
  0
LINE
  5
1B2
  8
0
 10
70.0
 20
162.05899999999991
 30
0.0
 11
70.0
 21
160.94699999999989
 31
0.0
  0
LINE
  5
1B3
  8
0
 10
70.0
 20
171.94099999999989
 30
0.0
 11
70.0
 21
170.47900000000001
 31
0.0
  0
LINE
  5
1B4
  8
0
 10
70.0
 20
170.47900000000001
 30
0.0
 11
70.0
 21
168.791
 31
0.0
  0
LINE
  5
1B5
  8
0
 10
70.0
 20
168.791
 30
0.0
 11
70.0
 21
167.0
 31
0.0
  0
LINE
  5
1B6
  8
0
 10
70.0
 20
163.52099999999999
 30
0.0
 11
70.0
 21
162.05899999999991
 31
0.0
  0
LINE
  5
1B7
  8
0
 10
70.0
 20
165.209
 30
0.0
 11
70.0
 21
163.52099999999999
 31
0.0
  0
LINE
  5
1B8
  8
0
 10
70.0
 20
173.05299999999991
 30
0.0
 11
70.0
 21
171.94099999999989
 31
0.0
  0
LINE
  5
1B9
  8
0
 10
70.0
 20
173.7529999999999
 30
0.0
 11
70.0
 21
173.05299999999991
 31
0.0
  0
LINE
  5
1BA
  8
0
 10
70.0
 20
171.95999999999989
 30
0.0
 11
70.0
 21
174.08000000000001
 31
0.0
  0
LINE
  5
1BB
  8
0
 10
70.0
 20
171.95999999999989
 30
0.0
 11
70.0
 21
169.55999999999989
 31
0.0
  0
LINE
  5
1BC
  8
0
 10
70.0
 20
169.55999999999989
 30
0.0
 11
70.0
 21
171.95999999999989
 31
0.0
  0
LINE
  5
1BD
  8
0
 10
70.0
 20
169.55999999999989
 30
0.0
 11
70.0
 21
167.0
 31
0.0
  0
LINE
  5
1BE
  8
0
 10
70.0
 20
176.6399999999999
 30
0.0
 11
70.0
 21
177.0
 31
0.0
  0
LINE
  5
1BF
  8
0
 10
70.0
 20
176.6399999999999
 30
0.0
 11
70.0
 21
175.68000000000001
 31
0.0
  0
LINE
  5
1C0
  8
0
 10
70.0
 20
175.68000000000001
 30
0.0
 11
70.0
 21
176.6399999999999
 31
0.0
  0
LINE
  5
1C1
  8
0
 10
70.0
 20
175.68000000000001
 30
0.0
 11
70.0
 21
174.08000000000001
 31
0.0
  0
LINE
  5
1C2
  8
0
 10
70.0
 20
174.08000000000001
 30
0.0
 11
70.0
 21
175.68000000000001
 31
0.0
  0
LINE
  5
1C3
  8
0
 10
70.0
 20
174.08000000000001
 30
0.0
 11
70.0
 21
171.95999999999989
 31
0.0
  0
LINE
  5
1C4
  8
0
 10
70.0
 20
174.0
 30
0.0
 11
70.0
 21
177.0
 31
0.0
  0
LINE
  5
1C5
  8
0
 10
70.0
 20
174.0
 30
0.0
 11
70.0
 21
173.7529999999999
 31
0.0
  0
LINE
  5
1C6
  8
0
 10
70.0
 20
167.0
 30
0.0
 11
70.0
 21
164.44
 31
0.0
  0
LINE
  5
1C7
  8
0
 10
70.0
 20
167.0
 30
0.0
 11
70.0
 21
169.55999999999989
 31
0.0
  0
LINE
  5
1C8
  8
0
 10
70.0
 20
167.0
 30
0.0
 11
70.0
 21
165.209
 31
0.0
  0
LINE
  5
1C9
  8
0
 10
70.0
 20
162.03999999999999
 30
0.0
 11
70.0
 21
164.44
 31
0.0
  0
LINE
  5
1CA
  8
0
 10
70.0
 20
162.03999999999999
 30
0.0
 11
70.0
 21
159.9199999999999
 31
0.0
  0
LINE
  5
1CB
  8
0
 10
70.0
 20
164.44
 30
0.0
 11
70.0
 21
167.0
 31
0.0
  0
LINE
  5
1CC
  8
0
 10
70.0
 20
164.44
 30
0.0
 11
70.0
 21
162.03999999999999
 31
0.0
  0
LINE
  5
1CD
  8
0
 10
70.0
 20
160.0
 30
0.0
 11
70.0
 21
157.0
 31
0.0
  0
LINE
  5
1CE
  8
0
 10
70.0
 20
177.0
 30
0.0
 11
70.0
 21
174.0
 31
0.0
  0
LINE
  5
1CF
  8
0
 10
70.0
 20
177.0
 30
0.0
 11
70.0
 21
176.6399999999999
 31
0.0
  0
LINE
  5
1D0
  8
0
 10
70.0
 20
47.0
 30
0.0
 11
70.0
 21
46.640000000000001
 31
0.0
  0
LINE
  5
1D1
  8
0
 10
70.0
 20
47.0
 30
0.0
 11
70.0
 21
44.0
 31
0.0
  0
LINE
  5
1D2
  8
0
 10
72.495999999999995
 20
187.0
 30
0.0
 11
73.0
 21
187.0
 31
0.0
  0
LINE
  5
1D3
  8
0
 10
71.152000000000001
 20
187.0
 30
0.0
 11
72.495999999999995
 21
187.0
 31
0.0
  0
LINE
  5
1D4
  8
0
 10
69.620000000000005
 20
195.0
 30
0.0
 11
72.019999999999996
 21
195.0
 31
0.0
  0
LINE
  5
1D5
  8
0
 10
69.620000000000005
 20
197.0
 30
0.0
 11
72.019999999999996
 21
197.0
 31
0.0
  0
LINE
  5
1D6
  8
0
 10
69.620000000000005
 20
199.0
 30
0.0
 11
72.019999999999996
 21
199.0
 31
0.0
  0
LINE
  5
1D7
  8
0
 10
69.620000000000005
 20
201.0
 30
0.0
 11
72.019999999999996
 21
201.0
 31
0.0
  0
LINE
  5
1D8
  8
0
 10
72.019999999999996
 20
195.0
 30
0.0
 11
73.459999999999994
 21
195.0
 31
0.0
  0
LINE
  5
1D9
  8
0
 10
72.019999999999996
 20
197.0
 30
0.0
 11
73.459999999999994
 21
197.0
 31
0.0
  0
LINE
  5
1DA
  8
0
 10
72.019999999999996
 20
199.0
 30
0.0
 11
73.459999999999994
 21
199.0
 31
0.0
  0
LINE
  5
1DB
  8
0
 10
72.019999999999996
 20
201.0
 30
0.0
 11
73.459999999999994
 21
201.0
 31
0.0
  0
LINE
  5
1DC
  8
0
 10
70.328000000000003
 20
192.0
 30
0.0
 11
72.888000000000005
 21
192.0
 31
0.0
  0
LINE
  5
1DD
  8
0
 10
70.328000000000003
 20
187.0
 30
0.0
 11
72.888000000000005
 21
187.0
 31
0.0
  0
LINE
  5
1DE
  8
0
 10
73.0
 20
177.0
 30
0.0
 11
73.0
 21
187.0
 31
0.0
  0
LINE
  5
1DF
  8
0
 10
73.0
 20
47.0
 30
0.0
 11
73.0
 21
157.0
 31
0.0
  0
LINE
  5
1E0
  8
0
 10
73.0
 20
187.0
 30
0.0
 11
74.423999999999992
 21
187.0
 31
0.0
  0
LINE
  5
1E1
  8
0
 10
72.888000000000005
 20
192.0
 30
0.0
 11
74.423999999999992
 21
192.0
 31
0.0
  0
LINE
  5
1E2
  8
0
 10
72.888000000000005
 20
187.0
 30
0.0
 11
74.423999999999992
 21
187.0
 31
0.0
  0
LINE
  5
1E3
  8
0
 10
75.0
 20
-0.0000000000000058
 30
0.0
 11
75.0
 21
0.215999999999994
 31
0.0
  0
LINE
  5
1E4
  8
0
 10
75.0
 20
0.215999999999994
 30
0.0
 11
75.0
 21
0.7919999999999942
 31
0.0
  0
LINE
  5
1E5
  8
0
 10
75.0
 20
0.215999999999994
 30
0.0
 11
75.0
 21
-0.0000000000000058
 31
0.0
  0
LINE
  5
1E6
  8
0
 10
75.0
 20
0.7919999999999942
 30
0.0
 11
75.0
 21
1.7519999999999889
 31
0.0
  0
LINE
  5
1E7
  8
0
 10
75.0
 20
0.7919999999999942
 30
0.0
 11
75.0
 21
0.215999999999994
 31
0.0
  0
LINE
  5
1E8
  8
0
 10
75.0
 20
1.7519999999999889
 30
0.0
 11
75.0
 21
3.0239999999999898
 31
0.0
  0
LINE
  5
1E9
  8
0
 10
75.0
 20
1.7519999999999889
 30
0.0
 11
75.0
 21
0.7919999999999942
 31
0.0
  0
LINE
  5
1EA
  8
0
 10
75.0
 20
3.0239999999999898
 30
0.0
 11
75.0
 21
4.4639999999999898
 31
0.0
  0
LINE
  5
1EB
  8
0
 10
75.0
 20
3.0239999999999898
 30
0.0
 11
75.0
 21
1.7519999999999889
 31
0.0
  0
LINE
  5
1EC
  8
0
 10
75.0
 20
4.4639999999999898
 30
0.0
 11
75.0
 21
5.9999999999999902
 31
0.0
  0
LINE
  5
1ED
  8
0
 10
75.0
 20
4.4639999999999898
 30
0.0
 11
75.0
 21
3.0239999999999898
 31
0.0
  0
LINE
  5
1EE
  8
0
 10
75.0
 20
27.359999999999999
 30
0.0
 11
75.0
 21
28.32
 31
0.0
  0
LINE
  5
1EF
  8
0
 10
75.0
 20
27.359999999999999
 30
0.0
 11
75.0
 21
27.0
 31
0.0
  0
LINE
  5
1F0
  8
0
 10
75.0
 20
30.0
 30
0.0
 11
76.711500000000001
 21
30.0
 31
0.0
  0
LINE
  5
1F1
  8
0
 10
75.0
 20
28.32
 30
0.0
 11
75.0
 21
29.920000000000002
 31
0.0
  0
LINE
  5
1F2
  8
0
 10
75.0
 20
28.32
 30
0.0
 11
75.0
 21
27.359999999999999
 31
0.0
  0
LINE
  5
1F3
  8
0
 10
75.0
 20
29.920000000000002
 30
0.0
 11
75.0
 21
32.039999999999999
 31
0.0
  0
LINE
  5
1F4
  8
0
 10
75.0
 20
29.920000000000002
 30
0.0
 11
75.0
 21
28.32
 31
0.0
  0
LINE
  5
1F5
  8
0
 10
75.0
 20
32.039999999999999
 30
0.0
 11
75.0
 21
34.439999999999991
 31
0.0
  0
LINE
  5
1F6
  8
0
 10
75.0
 20
32.039999999999999
 30
0.0
 11
75.0
 21
29.920000000000002
 31
0.0
  0
LINE
  5
1F7
  8
0
 10
75.0
 20
34.439999999999991
 30
0.0
 11
75.0
 21
37.0
 31
0.0
  0
LINE
  5
1F8
  8
0
 10
75.0
 20
34.439999999999991
 30
0.0
 11
75.0
 21
32.039999999999999
 31
0.0
  0
LINE
  5
1F9
  8
0
 10
75.0
 20
44.0
 30
0.0
 11
76.711500000000001
 21
44.0
 31
0.0
  0
LINE
  5
1FA
  8
0
 10
75.0
 20
47.0
 30
0.0
 11
75.0
 21
46.640000000000001
 31
0.0
  0
LINE
  5
1FB
  8
0
 10
75.0
 20
46.640000000000001
 30
0.0
 11
75.0
 21
47.0
 31
0.0
  0
LINE
  5
1FC
  8
0
 10
75.0
 20
46.640000000000001
 30
0.0
 11
75.0
 21
45.68
 31
0.0
  0
LINE
  5
1FD
  8
0
 10
75.0
 20
45.68
 30
0.0
 11
75.0
 21
46.640000000000001
 31
0.0
  0
LINE
  5
1FE
  8
0
 10
75.0
 20
45.68
 30
0.0
 11
75.0
 21
44.079999999999998
 31
0.0
  0
LINE
  5
1FF
  8
0
 10
75.0
 20
44.079999999999998
 30
0.0
 11
75.0
 21
45.68
 31
0.0
  0
LINE
  5
200
  8
0
 10
75.0
 20
44.079999999999998
 30
0.0
 11
75.0
 21
41.960000000000001
 31
0.0
  0
LINE
  5
201
  8
0
 10
75.0
 20
41.960000000000001
 30
0.0
 11
75.0
 21
44.079999999999998
 31
0.0
  0
LINE
  5
202
  8
0
 10
75.0
 20
41.960000000000001
 30
0.0
 11
75.0
 21
39.560000000000002
 31
0.0
  0
LINE
  5
203
  8
0
 10
75.0
 20
39.560000000000002
 30
0.0
 11
75.0
 21
41.960000000000001
 31
0.0
  0
LINE
  5
204
  8
0
 10
75.0
 20
39.560000000000002
 30
0.0
 11
75.0
 21
37.0
 31
0.0
  0
LINE
  5
205
  8
0
 10
75.0
 20
37.0
 30
0.0
 11
75.0
 21
39.560000000000002
 31
0.0
  0
LINE
  5
206
  8
0
 10
75.0
 20
37.0
 30
0.0
 11
75.0
 21
34.439999999999991
 31
0.0
  0
LINE
  5
207
  8
0
 10
75.0
 20
27.0
 30
0.0
 11
75.0
 21
5.9999999999999902
 31
0.0
  0
LINE
  5
208
  8
0
 10
75.0
 20
27.0
 30
0.0
 11
75.0
 21
27.359999999999999
 31
0.0
  0
LINE
  5
209
  8
0
 10
76.711500000000001
 20
30.0
 30
0.0
 11
76.903800000000004
 21
30.102900000000002
 31
0.0
  0
LINE
  5
20A
  8
0
 10
76.903800000000004
 20
31.029399999999999
 30
0.0
 11
76.903800000000004
 21
32.120600000000003
 31
0.0
  0
LINE
  5
20B
  8
0
 10
76.903800000000004
 20
31.029399999999999
 30
0.0
 11
76.903800000000004
 21
30.350000000000001
 31
0.0
  0
LINE
  5
20C
  8
0
 10
76.903800000000004
 20
30.350000000000001
 30
0.0
 11
76.903800000000004
 21
31.029399999999999
 31
0.0
  0
LINE
  5
20D
  8
0
 10
76.903800000000004
 20
30.350000000000001
 30
0.0
 11
76.903800000000004
 21
30.102900000000002
 31
0.0
  0
LINE
  5
20E
  8
0
 10
76.903800000000004
 20
30.102900000000002
 30
0.0
 11
76.903800000000004
 21
30.350000000000001
 31
0.0
  0
LINE
  5
20F
  8
0
 10
76.903800000000004
 20
30.102900000000002
 30
0.0
 11
77.0
 21
30.308800000000002
 31
0.0
  0
LINE
  5
210
  8
0
 10
76.903800000000004
 20
32.120600000000003
 30
0.0
 11
76.903800000000004
 21
33.561799999999998
 31
0.0
  0
LINE
  5
211
  8
0
 10
76.903800000000004
 20
32.120600000000003
 30
0.0
 11
76.903800000000004
 21
31.029399999999999
 31
0.0
  0
LINE
  5
212
  8
0
 10
76.903800000000004
 20
40.438200000000002
 30
0.0
 11
76.903800000000004
 21
41.879399999999997
 31
0.0
  0
LINE
  5
213
  8
0
 10
76.903800000000004
 20
40.438200000000002
 30
0.0
 11
76.903800000000004
 21
38.770600000000002
 31
0.0
  0
LINE
  5
214
  8
0
 10
76.903800000000004
 20
38.770600000000002
 30
0.0
 11
76.903800000000004
 21
40.438200000000002
 31
0.0
  0
LINE
  5
215
  8
0
 10
76.903800000000004
 20
38.770600000000002
 30
0.0
 11
76.903800000000004
 21
37.0
 31
0.0
  0
LINE
  5
216
  8
0
 10
76.903800000000004
 20
41.879399999999997
 30
0.0
 11
76.903800000000004
 21
42.970599999999997
 31
0.0
  0
LINE
  5
217
  8
0
 10
76.903800000000004
 20
41.879399999999997
 30
0.0
 11
76.903800000000004
 21
40.438200000000002
 31
0.0
  0
LINE
  5
218
  8
0
 10
76.903800000000004
 20
42.970599999999997
 30
0.0
 11
76.903800000000004
 21
43.649999999999999
 31
0.0
  0
LINE
  5
219
  8
0
 10
76.903800000000004
 20
42.970599999999997
 30
0.0
 11
76.903800000000004
 21
41.879399999999997
 31
0.0
  0
LINE
  5
21A
  8
0
 10
76.903800000000004
 20
43.649999999999999
 30
0.0
 11
76.903800000000004
 21
43.897100000000002
 31
0.0
  0
LINE
  5
21B
  8
0
 10
76.903800000000004
 20
43.649999999999999
 30
0.0
 11
76.903800000000004
 21
42.970599999999997
 31
0.0
  0
LINE
  5
21C
  8
0
 10
76.903800000000004
 20
43.897100000000002
 30
0.0
 11
77.0
 21
43.691200000000002
 31
0.0
  0
LINE
  5
21D
  8
0
 10
76.903800000000004
 20
43.897100000000002
 30
0.0
 11
76.903800000000004
 21
43.649999999999999
 31
0.0
  0
LINE
  5
21E
  8
0
 10
76.903800000000004
 20
37.0
 30
0.0
 11
76.903800000000004
 21
35.229399999999998
 31
0.0
  0
LINE
  5
21F
  8
0
 10
76.903800000000004
 20
37.0
 30
0.0
 11
76.903800000000004
 21
38.770600000000002
 31
0.0
  0
LINE
  5
220
  8
0
 10
76.903800000000004
 20
33.561799999999998
 30
0.0
 11
76.903800000000004
 21
35.229399999999998
 31
0.0
  0
LINE
  5
221
  8
0
 10
76.903800000000004
 20
33.561799999999998
 30
0.0
 11
76.903800000000004
 21
32.120600000000003
 31
0.0
  0
LINE
  5
222
  8
0
 10
77.0
 20
33.664700000000003
 30
0.0
 11
77.0
 21
30.555900000000001
 31
0.0
  0
LINE
  5
223
  8
0
 10
77.0
 20
30.555900000000001
 30
0.0
 11
77.0
 21
30.308800000000002
 31
0.0
  0
LINE
  5
224
  8
0
 10
77.0
 20
30.555900000000001
 30
0.0
 11
77.0
 21
33.664700000000003
 31
0.0
  0
LINE
  5
225
  8
0
 10
77.0
 20
30.308800000000002
 30
0.0
 11
77.0
 21
30.555900000000001
 31
0.0
  0
LINE
  5
226
  8
0
 10
77.0
 20
33.664700000000003
 30
0.0
 11
77.0
 21
35.270600000000002
 31
0.0
  0
LINE
  5
227
  8
0
 10
77.0
 20
38.729399999999991
 30
0.0
 11
77.0
 21
37.0
 31
0.0
  0
LINE
  5
228
  8
0
 10
77.0
 20
38.729399999999991
 30
0.0
 11
77.0
 21
41.735300000000002
 31
0.0
  0
LINE
  5
229
  8
0
 10
77.0
 20
41.735300000000002
 30
0.0
 11
77.0
 21
42.785299999999992
 31
0.0
  0
LINE
  5
22A
  8
0
 10
77.0
 20
41.735300000000002
 30
0.0
 11
77.0
 21
38.729399999999991
 31
0.0
  0
LINE
  5
22B
  8
0
 10
77.0
 20
42.785299999999992
 30
0.0
 11
77.0
 21
43.444099999999992
 31
0.0
  0
LINE
  5
22C
  8
0
 10
77.0
 20
42.785299999999992
 30
0.0
 11
77.0
 21
41.735300000000002
 31
0.0
  0
LINE
  5
22D
  8
0
 10
77.0
 20
43.691200000000002
 30
0.0
 11
77.0
 21
43.444099999999992
 31
0.0
  0
LINE
  5
22E
  8
0
 10
77.0
 20
43.444099999999992
 30
0.0
 11
77.0
 21
43.691200000000002
 31
0.0
  0
LINE
  5
22F
  8
0
 10
77.0
 20
43.444099999999992
 30
0.0
 11
77.0
 21
42.785299999999992
 31
0.0
  0
LINE
  5
230
  8
0
 10
77.0
 20
37.0
 30
0.0
 11
77.0
 21
35.270600000000002
 31
0.0
  0
LINE
  5
231
  8
0
 10
77.0
 20
37.0
 30
0.0
 11
77.0
 21
38.729399999999991
 31
0.0
  0
LINE
  5
232
  8
0
 10
77.0
 20
35.270600000000002
 30
0.0
 11
77.0
 21
37.0
 31
0.0
  0
LINE
  5
233
  8
0
 10
77.0
 20
35.270600000000002
 30
0.0
 11
77.0
 21
33.664700000000003
 31
0.0
  0
LINE
  5
234
  8
0
 10
76.903800000000004
 20
35.229399999999998
 30
0.0
 11
76.903800000000004
 21
37.0
 31
0.0
  0
LINE
  5
235
  8
0
 10
76.903800000000004
 20
35.229399999999998
 30
0.0
 11
76.903800000000004
 21
33.561799999999998
 31
0.0
  0
LINE
  5
236
  8
0
 10
76.711500000000001
 20
44.0
 30
0.0
 11
76.903800000000004
 21
43.897100000000002
 31
0.0
  0
LINE
  5
237
  8
0
 10
75.0
 20
5.9999999999999902
 30
0.0
 11
75.0
 21
27.0
 31
0.0
  0
LINE
  5
238
  8
0
 10
75.0
 20
5.9999999999999902
 30
0.0
 11
75.0
 21
4.4639999999999898
 31
0.0
  0
LINE
  5
239
  8
0
 10
74.423999999999992
 20
192.0
 30
0.0
 11
75.0
 21
192.0
 31
0.0
  0
LINE
  5
23A
  8
0
 10
75.0
 20
157.36000000000001
 30
0.0
 11
75.0
 21
158.31999999999991
 31
0.0
  0
LINE
  5
23B
  8
0
 10
75.0
 20
157.36000000000001
 30
0.0
 11
75.0
 21
157.0
 31
0.0
  0
LINE
  5
23C
  8
0
 10
75.0
 20
160.0
 30
0.0
 11
76.711500000000001
 21
160.0
 31
0.0
  0
LINE
  5
23D
  8
0
 10
75.0
 20
158.31999999999991
 30
0.0
 11
75.0
 21
159.9199999999999
 31
0.0
  0
LINE
  5
23E
  8
0
 10
75.0
 20
158.31999999999991
 30
0.0
 11
75.0
 21
157.36000000000001
 31
0.0
  0
LINE
  5
23F
  8
0
 10
75.0
 20
159.9199999999999
 30
0.0
 11
75.0
 21
162.03999999999999
 31
0.0
  0
LINE
  5
240
  8
0
 10
75.0
 20
159.9199999999999
 30
0.0
 11
75.0
 21
158.31999999999991
 31
0.0
  0
LINE
  5
241
  8
0
 10
75.0
 20
174.0
 30
0.0
 11
76.711500000000001
 21
174.0
 31
0.0
  0
LINE
  5
242
  8
0
 10
75.0
 20
177.0
 30
0.0
 11
75.0
 21
176.6399999999999
 31
0.0
  0
LINE
  5
243
  8
0
 10
75.0
 20
176.6399999999999
 30
0.0
 11
75.0
 21
177.0
 31
0.0
  0
LINE
  5
244
  8
0
 10
75.0
 20
176.6399999999999
 30
0.0
 11
75.0
 21
175.68000000000001
 31
0.0
  0
LINE
  5
245
  8
0
 10
75.0
 20
175.68000000000001
 30
0.0
 11
75.0
 21
176.6399999999999
 31
0.0
  0
LINE
  5
246
  8
0
 10
75.0
 20
175.68000000000001
 30
0.0
 11
75.0
 21
174.08000000000001
 31
0.0
  0
LINE
  5
247
  8
0
 10
75.0
 20
174.08000000000001
 30
0.0
 11
75.0
 21
175.68000000000001
 31
0.0
  0
LINE
  5
248
  8
0
 10
75.0
 20
174.08000000000001
 30
0.0
 11
75.0
 21
171.95999999999989
 31
0.0
  0
LINE
  5
249
  8
0
 10
75.0
 20
171.95999999999989
 30
0.0
 11
75.0
 21
174.08000000000001
 31
0.0
  0
LINE
  5
24A
  8
0
 10
75.0
 20
171.95999999999989
 30
0.0
 11
75.0
 21
169.55999999999989
 31
0.0
  0
LINE
  5
24B
  8
0
 10
75.0
 20
169.55999999999989
 30
0.0
 11
75.0
 21
171.95999999999989
 31
0.0
  0
LINE
  5
24C
  8
0
 10
75.0
 20
169.55999999999989
 30
0.0
 11
75.0
 21
167.0
 31
0.0
  0
LINE
  5
24D
  8
0
 10
75.0
 20
167.0
 30
0.0
 11
75.0
 21
164.44
 31
0.0
  0
LINE
  5
24E
  8
0
 10
75.0
 20
167.0
 30
0.0
 11
75.0
 21
169.55999999999989
 31
0.0
  0
LINE
  5
24F
  8
0
 10
75.0
 20
162.03999999999999
 30
0.0
 11
75.0
 21
164.44
 31
0.0
  0
LINE
  5
250
  8
0
 10
75.0
 20
162.03999999999999
 30
0.0
 11
75.0
 21
159.9199999999999
 31
0.0
  0
LINE
  5
251
  8
0
 10
76.903800000000004
 20
161.02899999999991
 30
0.0
 11
76.903800000000004
 21
162.12100000000001
 31
0.0
  0
LINE
  5
252
  8
0
 10
76.903800000000004
 20
161.02899999999991
 30
0.0
 11
76.903800000000004
 21
160.34999999999991
 31
0.0
  0
LINE
  5
253
  8
0
 10
76.903800000000004
 20
160.34999999999991
 30
0.0
 11
76.903800000000004
 21
161.02899999999991
 31
0.0
  0
LINE
  5
254
  8
0
 10
76.903800000000004
 20
160.34999999999991
 30
0.0
 11
76.903800000000004
 21
160.10299999999989
 31
0.0
  0
LINE
  5
255
  8
0
 10
76.903800000000004
 20
160.10299999999989
 30
0.0
 11
76.903800000000004
 21
160.34999999999991
 31
0.0
  0
LINE
  5
256
  8
0
 10
76.903800000000004
 20
160.10299999999989
 30
0.0
 11
77.0
 21
160.30899999999991
 31
0.0
  0
LINE
  5
257
  8
0
 10
76.903800000000004
 20
162.12100000000001
 30
0.0
 11
76.903800000000004
 21
163.56200000000001
 31
0.0
  0
LINE
  5
258
  8
0
 10
76.903800000000004
 20
162.12100000000001
 30
0.0
 11
76.903800000000004
 21
161.02899999999991
 31
0.0
  0
LINE
  5
259
  8
0
 10
77.0
 20
161.21499999999989
 30
0.0
 11
77.0
 21
162.2649999999999
 31
0.0
  0
LINE
  5
25A
  8
0
 10
77.0
 20
161.21499999999989
 30
0.0
 11
77.0
 21
160.55600000000001
 31
0.0
  0
LINE
  5
25B
  8
0
 10
77.0
 20
160.30899999999991
 30
0.0
 11
77.0
 21
161.21499999999989
 31
0.0
  0
LINE
  5
25C
  8
0
 10
77.0
 20
165.2709999999999
 30
0.0
 11
77.0
 21
162.2649999999999
 31
0.0
  0
LINE
  5
25D
  8
0
 10
77.0
 20
162.2649999999999
 30
0.0
 11
77.0
 21
165.2709999999999
 31
0.0
  0
LINE
  5
25E
  8
0
 10
77.0
 20
162.2649999999999
 30
0.0
 11
77.0
 21
161.21499999999989
 31
0.0
  0
LINE
  5
25F
  8
0
 10
76.903800000000004
 20
163.56200000000001
 30
0.0
 11
76.903800000000004
 21
165.22900000000001
 31
0.0
  0
LINE
  5
260
  8
0
 10
76.903800000000004
 20
163.56200000000001
 30
0.0
 11
76.903800000000004
 21
162.12100000000001
 31
0.0
  0
LINE
  5
261
  8
0
 10
77.0
 20
167.0
 30
0.0
 11
77.0
 21
165.2709999999999
 31
0.0
  0
LINE
  5
262
  8
0
 10
77.0
 20
167.0
 30
0.0
 11
77.0
 21
168.72900000000001
 31
0.0
  0
LINE
  5
263
  8
0
 10
76.903800000000004
 20
170.43799999999999
 30
0.0
 11
76.903800000000004
 21
171.87899999999999
 31
0.0
  0
LINE
  5
264
  8
0
 10
76.903800000000004
 20
170.43799999999999
 30
0.0
 11
76.903800000000004
 21
168.7709999999999
 31
0.0
  0
LINE
  5
265
  8
0
 10
76.903800000000004
 20
168.7709999999999
 30
0.0
 11
76.903800000000004
 21
170.43799999999999
 31
0.0
  0
LINE
  5
266
  8
0
 10
76.903800000000004
 20
168.7709999999999
 30
0.0
 11
76.903800000000004
 21
167.0
 31
0.0
  0
LINE
  5
267
  8
0
 10
76.903800000000004
 20
171.87899999999999
 30
0.0
 11
76.903800000000004
 21
172.97099999999989
 31
0.0
  0
LINE
  5
268
  8
0
 10
76.903800000000004
 20
171.87899999999999
 30
0.0
 11
76.903800000000004
 21
170.43799999999999
 31
0.0
  0
LINE
  5
269
  8
0
 10
76.903800000000004
 20
172.97099999999989
 30
0.0
 11
76.903800000000004
 21
173.65000000000001
 31
0.0
  0
LINE
  5
26A
  8
0
 10
76.903800000000004
 20
172.97099999999989
 30
0.0
 11
76.903800000000004
 21
171.87899999999999
 31
0.0
  0
LINE
  5
26B
  8
0
 10
76.903800000000004
 20
173.65000000000001
 30
0.0
 11
76.903800000000004
 21
173.89699999999999
 31
0.0
  0
LINE
  5
26C
  8
0
 10
76.903800000000004
 20
173.65000000000001
 30
0.0
 11
76.903800000000004
 21
172.97099999999989
 31
0.0
  0
LINE
  5
26D
  8
0
 10
77.0
 20
168.72900000000001
 30
0.0
 11
77.0
 21
167.0
 31
0.0
  0
LINE
  5
26E
  8
0
 10
77.0
 20
168.72900000000001
 30
0.0
 11
77.0
 21
171.73500000000001
 31
0.0
  0
LINE
  5
26F
  8
0
 10
77.0
 20
171.73500000000001
 30
0.0
 11
77.0
 21
172.785
 31
0.0
  0
LINE
  5
270
  8
0
 10
77.0
 20
171.73500000000001
 30
0.0
 11
77.0
 21
168.72900000000001
 31
0.0
  0
LINE
  5
271
  8
0
 10
77.0
 20
173.69099999999989
 30
0.0
 11
77.0
 21
172.785
 31
0.0
  0
LINE
  5
272
  8
0
 10
77.0
 20
172.785
 30
0.0
 11
77.0
 21
173.69099999999989
 31
0.0
  0
LINE
  5
273
  8
0
 10
77.0
 20
172.785
 30
0.0
 11
77.0
 21
171.73500000000001
 31
0.0
  0
LINE
  5
274
  8
0
 10
76.903800000000004
 20
173.89699999999999
 30
0.0
 11
77.0
 21
173.69099999999989
 31
0.0
  0
LINE
  5
275
  8
0
 10
76.903800000000004
 20
173.89699999999999
 30
0.0
 11
76.903800000000004
 21
173.65000000000001
 31
0.0
  0
LINE
  5
276
  8
0
 10
76.903800000000004
 20
167.0
 30
0.0
 11
76.903800000000004
 21
165.22900000000001
 31
0.0
  0
LINE
  5
277
  8
0
 10
76.903800000000004
 20
167.0
 30
0.0
 11
76.903800000000004
 21
168.7709999999999
 31
0.0
  0
LINE
  5
278
  8
0
 10
77.0
 20
165.2709999999999
 30
0.0
 11
77.0
 21
167.0
 31
0.0
  0
LINE
  5
279
  8
0
 10
76.903800000000004
 20
165.22900000000001
 30
0.0
 11
76.903800000000004
 21
167.0
 31
0.0
  0
LINE
  5
27A
  8
0
 10
76.903800000000004
 20
165.22900000000001
 30
0.0
 11
76.903800000000004
 21
163.56200000000001
 31
0.0
  0
LINE
  5
27B
  8
0
 10
76.711500000000001
 20
174.0
 30
0.0
 11
76.903800000000004
 21
173.89699999999999
 31
0.0
  0
LINE
  5
27C
  8
0
 10
76.711500000000001
 20
160.0
 30
0.0
 11
76.903800000000004
 21
160.10299999999989
 31
0.0
  0
LINE
  5
27D
  8
0
 10
75.0
 20
164.44
 30
0.0
 11
75.0
 21
167.0
 31
0.0
  0
LINE
  5
27E
  8
0
 10
75.0
 20
164.44
 30
0.0
 11
75.0
 21
162.03999999999999
 31
0.0
  0
LINE
  5
27F
  8
0
 10
75.0
 20
192.0
 30
0.0
 11
75.0
 21
187.0
 31
0.0
  0
LINE
  5
280
  8
0
 10
75.0
 20
187.0
 30
0.0
 11
75.0
 21
192.0
 31
0.0
  0
LINE
  5
281
  8
0
 10
74.423999999999992
 20
187.0
 30
0.0
 11
75.0
 21
187.0
 31
0.0
  0
LINE
  5
282
  8
0
 10
75.0
 20
157.0
 30
0.0
 11
75.0
 21
157.36000000000001
 31
0.0
  0
LINE
  5
283
  8
0
 10
73.0
 20
157.0
 30
0.0
 11
75.0
 21
157.0
 31
0.0
  0
LINE
  5
284
  8
0
 10
73.0
 20
195.0
 30
0.0
 11
73.0
 21
192.0
 31
0.0
  0
LINE
  5
285
  8
0
 10
73.0
 20
195.0
 30
0.0
 11
73.459999999999994
 21
195.0
 31
0.0
  0
LINE
  5
286
  8
0
 10
73.0
 20
199.0
 30
0.0
 11
73.0
 21
197.0
 31
0.0
  0
LINE
  5
287
  8
0
 10
73.0
 20
199.0
 30
0.0
 11
73.459999999999994
 21
199.0
 31
0.0
  0
LINE
  5
288
  8
0
 10
73.0
 20
203.0
 30
0.0
 11
73.0
 21
201.0
 31
0.0
  0
LINE
  5
289
  8
0
 10
73.0
 20
197.0
 30
0.0
 11
73.0
 21
199.0
 31
0.0
  0
LINE
  5
28A
  8
0
 10
73.459999999999994
 20
195.0
 30
0.0
 11
74.0
 21
195.0
 31
0.0
  0
LINE
  5
28B
  8
0
 10
74.0
 20
197.0
 30
0.0
 11
74.0
 21
195.0
 31
0.0
  0
LINE
  5
28C
  8
0
 10
74.0
 20
195.0
 30
0.0
 11
74.0
 21
197.0
 31
0.0
  0
LINE
  5
28D
  8
0
 10
73.459999999999994
 20
197.0
 30
0.0
 11
74.0
 21
197.0
 31
0.0
  0
LINE
  5
28E
  8
0
 10
74.0
 20
201.0
 30
0.0
 11
74.0
 21
199.0
 31
0.0
  0
LINE
  5
28F
  8
0
 10
73.459999999999994
 20
199.0
 30
0.0
 11
74.0
 21
199.0
 31
0.0
  0
LINE
  5
290
  8
0
 10
74.0
 20
199.0
 30
0.0
 11
74.0
 21
201.0
 31
0.0
  0
LINE
  5
291
  8
0
 10
73.459999999999994
 20
201.0
 30
0.0
 11
74.0
 21
201.0
 31
0.0
  0
LINE
  5
292
  8
0
 10
73.0
 20
201.0
 30
0.0
 11
73.0
 21
203.0
 31
0.0
  0
LINE
  5
293
  8
0
 10
73.0
 20
192.0
 30
0.0
 11
73.0
 21
195.0
 31
0.0
  0
LINE
  5
294
  8
0
 10
72.495999999999995
 20
203.0
 30
0.0
 11
73.0
 21
203.0
 31
0.0
  0
LINE
  5
295
  8
0
 10
71.152000000000001
 20
203.0
 30
0.0
 11
72.495999999999995
 21
203.0
 31
0.0
  0
LINE
  5
296
  8
0
 10
68.911999999999992
 20
203.0
 30
0.0
 11
71.152000000000001
 21
203.0
 31
0.0
  0
LINE
  5
297
  8
0
 10
65.944000000000003
 20
203.0
 30
0.0
 11
68.911999999999992
 21
203.0
 31
0.0
  0
LINE
  5
298
  8
0
 10
62.583999999999989
 20
203.0
 30
0.0
 11
65.944000000000003
 21
203.0
 31
0.0
  0
LINE
  5
299
  8
0
 10
59.0
 20
203.0
 30
0.0
 11
62.583999999999989
 21
203.0
 31
0.0
  0
LINE
  5
29A
  8
0
 10
52.055999999999997
 20
203.0
 30
0.0
 11
55.415999999999997
 21
203.0
 31
0.0
  0
LINE
  5
29B
  8
0
 10
55.415999999999997
 20
203.0
 30
0.0
 11
59.0
 21
203.0
 31
0.0
  0
LINE
  5
29C
  8
0
 10
45.0
 20
192.0
 30
0.0
 11
45.0
 21
195.0
 31
0.0
  0
ENDSEC
  0
EOF
