  0
SECTION
  2
HEADER
  9
$ACADVER
  1
AC1009
  9
$INSBASE
 10
0.0
 20
0.0
 30
0.0
  9
$EXTMIN
 10
0.0
 20
-0.0000000000000136
 30
0.0
  9
$EXTMAX
 10
120.0
 20
68.0
 30
0.0
  9
$LIMMIN
 10
0.0
 20
0.0
  9
$LIMMAX
 10
12.0
 20
9.0
  9
$ORTHOMODE
 70
     0
  9
$REGENMODE
 70
     1
  9
$FILLMODE
 70
     1
  9
$QTEXTMODE
 70
     0
  9
$MIRRTEXT
 70
     1
  9
$DRAGMODE
 70
     2
  9
$LTSCALE
 40
1.0
  9
$OSMODE
 70
    37
  9
$ATTMODE
 70
     1
  9
$TEXTSIZE
 40
0.2
  9
$TRACEWID
 40
0.05
  9
$TEXTSTYLE
  7
STANDARD
  9
$CLAYER
  8
0
  9
$CELTYPE
  6
CONTINUOUS
  9
$CECOLOR
 62
   256
  9
$DIMSCALE
 40
1.0
  9
$DIMASZ
 40
0.18
  9
$DIMEXO
 40
0.0625
  9
$DIMDLI
 40
0.38
  9
$DIMRND
 40
0.0
  9
$DIMDLE
 40
0.0
  9
$DIMEXE
 40
0.18
  9
$DIMTP
 40
0.0
  9
$DIMTM
 40
0.0
  9
$DIMTXT
 40
0.18
  9
$DIMCEN
 40
0.09
  9
$DIMTSZ
 40
0.0
  9
$DIMTOL
 70
     0
  9
$DIMLIM
 70
     0
  9
$DIMTIH
 70
     1
  9
$DIMTOH
 70
     1
  9
$DIMSE1
 70
     0
  9
$DIMSE2
 70
     0
  9
$DIMTAD
 70
     0
  9
$DIMZIN
 70
     0
  9
$DIMBLK
  1

  9
$DIMASO
 70
     1
  9
$DIMSHO
 70
     1
  9
$DIMPOST
  1

  9
$DIMAPOST
  1

  9
$DIMALT
 70
     0
  9
$DIMALTD
 70
     2
  9
$DIMALTF
 40
25.399999999999999
  9
$DIMLFAC
 40
1.0
  9
$DIMTOFL
 70
     0
  9
$DIMTVP
 40
0.0
  9
$DIMTIX
 70
     0
  9
$DIMSOXD
 70
     0
  9
$DIMSAH
 70
     0
  9
$DIMBLK1
  1

  9
$DIMBLK2
  1

  9
$DIMSTYLE
  2
STANDARD
  9
$DIMCLRD
 70
     0
  9
$DIMCLRE
 70
     0
  9
$DIMCLRT
 70
     0
  9
$DIMTFAC
 40
1.0
  9
$DIMGAP
 40
0.09
  9
$LUNITS
 70
     2
  9
$LUPREC
 70
     4
  9
$SKETCHINC
 40
0.1
  9
$FILLETRAD
 40
0.0
  9
$AUNITS
 70
     0
  9
$AUPREC
 70
     0
  9
$MENU
  1
.
  9
$ELEVATION
 40
0.0
  9
$PELEVATION
 40
0.0
  9
$THICKNESS
 40
0.0
  9
$LIMCHECK
 70
     0
  9
$BLIPMODE
 70
     0
  9
$CHAMFERA
 40
0.0
  9
$CHAMFERB
 40
0.0
  9
$SKPOLY
 70
     0
  9
$TDCREATE
 40
2454674.5817129631
  9
$TDUPDATE
 40
2454674.5850327308
  9
$TDINDWG
 40
0.0033197685
  9
$TDUSRTIMER
 40
0.0033197685
  9
$USRTIMER
 70
     1
  9
$ANGBASE
 50
0.0
  9
$ANGDIR
 70
     0
  9
$PDMODE
 70
     0
  9
$PDSIZE
 40
0.0
  9
$PLINEWID
 40
0.0
  9
$COORDS
 70
     1
  9
$SPLFRAME
 70
     0
  9
$SPLINETYPE
 70
     6
  9
$SPLINESEGS
 70
     8
  9
$ATTDIA
 70
     0
  9
$ATTREQ
 70
     1
  9
$HANDLING
 70
 22529
  9
$HANDSEED
  5
209
  9
$SURFTAB1
 70
     6
  9
$SURFTAB2
 70
     6
  9
$SURFTYPE
 70
     6
  9
$SURFU
 70
     6
  9
$SURFV
 70
     6
  9
$UCSNAME
  2

  9
$UCSORG
 10
0.0
 20
0.0
 30
0.0
  9
$UCSXDIR
 10
1.0
 20
0.0
 30
0.0
  9
$UCSYDIR
 10
0.0
 20
1.0
 30
0.0
  9
$PUCSNAME
  2

  9
$PUCSORG
 10
0.0
 20
0.0
 30
0.0
  9
$PUCSXDIR
 10
1.0
 20
0.0
 30
0.0
  9
$PUCSYDIR
 10
0.0
 20
1.0
 30
0.0
  9
$USERI1
 70
     0
  9
$USERI2
 70
     0
  9
$USERI3
 70
     0
  9
$USERI4
 70
     0
  9
$USERI5
 70
     0
  9
$USERR1
 40
0.0
  9
$USERR2
 40
0.0
  9
$USERR3
 40
0.0
  9
$USERR4
 40
0.0
  9
$USERR5
 40
0.0
  9
$WORLDVIEW
 70
     1
  9
$SHADEDGE
 70
     3
  9
$SHADEDIF
 70
    70
  9
$TILEMODE
 70
     1
  9
$MAXACTVP
 70
    64
  9
$PLIMCHECK
 70
     0
  9
$PEXTMIN
 10
1.0000000000000000E+020
 20
1.0000000000000000E+020
 30
1.0000000000000000E+020
  9
$PEXTMAX
 10
-1.0000000000000000E+020
 20
-1.0000000000000000E+020
 30
-1.0000000000000000E+020
  9
$PLIMMIN
 10
0.0
 20
0.0
  9
$PLIMMAX
 10
12.0
 20
9.0
  9
$UNITMODE
 70
     0
  9
$VISRETAIN
 70
     1
  9
$PLINEGEN
 70
     0
  9
$PSLTSCALE
 70
     1
  0
ENDSEC
  0
SECTION
  2
TABLES
  0
TABLE
  2
VPORT
 70
     4
  0
VPORT
  2
*ACTIVE
 70
     0
 10
0.0
 20
0.0
 11
1.0
 21
1.0
 12
60.0
 22
33.999999999999993
 13
0.0
 23
0.0
 14
1.0
 24
1.0
 15
0.0
 25
0.0
 16
0.0
 26
0.0
 36
1.0
 17
0.0
 27
0.0
 37
0.0
 40
68.521739130434796
 41
2.0435339308578739
 42
50.0
 43
0.0
 44
0.0
 50
0.0
 51
0.0
 71
     0
 72
   100
 73
     1
 74
     3
 75
     0
 76
     0
 77
     0
 78
     0
  0
ENDTAB
  0
TABLE
  2
LTYPE
 70
     1
  0
LTYPE
  2
CONTINUOUS
 70
     0
  3
Solid line
 72
    65
 73
     0
 40
0.0
  0
ENDTAB
  0
TABLE
  2
LAYER
 70
     1
  0
LAYER
  2
0
 70
     0
 62
     7
  6
CONTINUOUS
  0
ENDTAB
  0
TABLE
  2
STYLE
 70
     1
  0
STYLE
  2
STANDARD
 70
     0
 40
0.0
 41
1.0
 50
0.0
 71
     0
 42
0.2
  3
txt
  4

  0
ENDTAB
  0
TABLE
  2
VIEW
 70
     0
  0
ENDTAB
  0
TABLE
  2
UCS
 70
     0
  0
ENDTAB
  0
TABLE
  2
APPID
 70
     1
  0
APPID
  2
ACAD
 70
     0
  0
ENDTAB
  0
TABLE
  2
DIMSTYLE
 70
     1
  0
DIMSTYLE
  2
STANDARD
 70
     0
  3

  4

  5

  6

  7

 40
1.0
 41
0.18
 42
0.0625
 43
0.38
 44
0.18
 45
0.0
 46
0.0
 47
0.0
 48
0.0
140
0.18
141
0.09
142
0.0
143
25.399999999999999
144
1.0
145
0.0
146
1.0
147
0.09
 71
     0
 72
     0
 73
     1
 74
     1
 75
     0
 76
     0
 77
     0
 78
     0
170
     0
171
     2
172
     0
173
     0
174
     0
175
     0
176
     0
177
     0
178
     0
  0
ENDTAB
  0
ENDSEC
  0
SECTION
  2
BLOCKS
  0
BLOCK
  8
0
  2
$MODEL_SPACE
 70
     0
 10
0.0
 20
0.0
 30
0.0
  3
$MODEL_SPACE
  1

  0
ENDBLK
  5
20
  8
0
  0
BLOCK
 67
     1
  8
0
  2
$PAPER_SPACE
 70
     0
 10
0.0
 20
0.0
 30
0.0
  3
$PAPER_SPACE
  1

  0
ENDBLK
  5
1C
 67
     1
  8
0
  0
ENDSEC
  0
SECTION
  2
ENTITIES
  0
LINE
  5
22
  8
0
 10
37.439999999999991
 20
-0.0000000000000118
 30
0.0
 11
39.744
 21
-0.0000000000000114
 31
0.0
  0
LINE
  5
23
  8
0
 10
36.576000000000001
 20
-0.0000000000000121
 30
0.0
 11
37.439999999999991
 21
-0.0000000000000125
 31
0.0
  0
LINE
  5
24
  8
0
 10
36.576000000000001
 20
-0.0000000000000121
 30
0.0
 11
37.439999999999991
 21
-0.0000000000000118
 31
0.0
  0
LINE
  5
25
  8
0
 10
39.744
 20
-0.0000000000000114
 30
0.0
 11
43.487999999999992
 21
-0.0000000000000111
 31
0.0
  0
LINE
  5
26
  8
0
 10
43.487999999999992
 20
-0.0000000000000111
 30
0.0
 11
48.384
 21
-0.0000000000000109
 31
0.0
  0
LINE
  5
27
  8
0
 10
37.439999999999991
 20
-0.0000000000000125
 30
0.0
 11
39.744
 21
-0.0000000000000128
 31
0.0
  0
LINE
  5
28
  8
0
 10
39.744
 20
-0.0000000000000128
 30
0.0
 11
43.487999999999992
 21
-0.0000000000000131
 31
0.0
  0
LINE
  5
29
  8
0
 10
48.384
 20
-0.0000000000000109
 30
0.0
 11
53.951999999999991
 21
-0.0000000000000108
 31
0.0
  0
LINE
  5
2A
  8
0
 10
53.951999999999991
 20
-0.0000000000000108
 30
0.0
 11
60.0
 21
-0.0000000000000107
 31
0.0
  0
LINE
  5
2B
  8
0
 10
43.487999999999992
 20
-0.0000000000000131
 30
0.0
 11
48.384
 21
-0.0000000000000134
 31
0.0
  0
LINE
  5
2C
  8
0
 10
48.384
 20
-0.0000000000000134
 30
0.0
 11
53.951999999999991
 21
-0.0000000000000135
 31
0.0
  0
LINE
  5
2D
  8
0
 10
60.0
 20
-0.0000000000000107
 30
0.0
 11
66.048000000000002
 21
-0.0000000000000108
 31
0.0
  0
LINE
  5
2E
  8
0
 10
53.951999999999991
 20
-0.0000000000000135
 30
0.0
 11
60.0
 21
-0.0000000000000136
 31
0.0
  0
LINE
  5
2F
  8
0
 10
35.799999999999997
 20
18.0
 30
0.0
 11
36.0
 21
18.0
 31
0.0
  0
LINE
  5
30
  8
0
 10
35.799999999999997
 20
18.0
 30
0.0
 11
36.045400000000001
 21
18.21599999999999
 31
0.0
  0
LINE
  5
31
  8
0
 10
35.799999999999997
 20
18.0
 30
0.0
 11
35.799999999999997
 21
30.0
 31
0.0
  0
LINE
  5
32
  8
0
 10
35.799999999999997
 20
30.0
 30
0.0
 11
36.0
 21
30.0
 31
0.0
  0
LINE
  5
33
  8
0
 10
35.799999999999997
 20
30.0
 30
0.0
 11
36.045400000000001
 21
29.783999999999999
 31
0.0
  0
LINE
  5
34
  8
0
 10
35.799999999999997
 20
30.0
 30
0.0
 11
35.799999999999997
 21
18.0
 31
0.0
  0
LINE
  5
35
  8
0
 10
36.0
 20
18.0
 30
0.0
 11
36.0
 21
0.608973999999988
 31
0.0
  0
LINE
  5
36
  8
0
 10
36.863999999999997
 20
0.608973999999988
 30
0.0
 11
39.167999999999999
 21
0.6089739999999891
 31
0.0
  0
LINE
  5
37
  8
0
 10
36.045400000000001
 20
18.21599999999999
 30
0.0
 11
36.254800000000003
 21
18.792000000000002
 31
0.0
  0
LINE
  5
38
  8
0
 10
36.254800000000003
 20
18.792000000000002
 30
0.0
 11
36.429299999999991
 21
19.751999999999999
 31
0.0
  0
LINE
  5
39
  8
0
 10
36.429299999999991
 20
19.751999999999999
 30
0.0
 11
36.574699999999993
 21
21.024000000000001
 31
0.0
  0
LINE
  5
3A
  8
0
 10
36.574699999999993
 20
21.024000000000001
 30
0.0
 11
36.661999999999992
 21
22.463999999999999
 31
0.0
  0
LINE
  5
3B
  8
0
 10
36.661999999999992
 20
22.463999999999999
 30
0.0
 11
36.685200000000002
 21
24.0
 31
0.0
  0
LINE
  5
3C
  8
0
 10
36.045400000000001
 20
29.783999999999999
 30
0.0
 11
36.254800000000003
 21
29.207999999999998
 31
0.0
  0
LINE
  5
3D
  8
0
 10
36.254800000000003
 20
29.207999999999998
 30
0.0
 11
36.429299999999991
 21
28.248000000000001
 31
0.0
  0
LINE
  5
3E
  8
0
 10
36.429299999999991
 20
28.248000000000001
 30
0.0
 11
36.574699999999993
 21
26.975999999999988
 31
0.0
  0
LINE
  5
3F
  8
0
 10
36.574699999999993
 20
26.975999999999988
 30
0.0
 11
36.661999999999992
 21
25.535999999999991
 31
0.0
  0
LINE
  5
40
  8
0
 10
36.661999999999992
 20
25.535999999999991
 30
0.0
 11
36.685200000000002
 21
24.0
 31
0.0
  0
LINE
  5
41
  8
0
 10
36.863999999999997
 20
37.390999999999998
 30
0.0
 11
39.167999999999999
 21
37.390999999999998
 31
0.0
  0
LINE
  5
42
  8
0
 10
39.167999999999999
 20
37.390999999999998
 30
0.0
 11
43.008000000000003
 21
37.390999999999998
 31
0.0
  0
LINE
  5
43
  8
0
 10
39.167999999999999
 20
0.6089739999999891
 30
0.0
 11
43.008000000000003
 21
0.6089739999999891
 31
0.0
  0
LINE
  5
44
  8
0
 10
43.008000000000003
 20
0.6089739999999891
 30
0.0
 11
48.095999999999997
 21
0.6089739999999891
 31
0.0
  0
LINE
  5
45
  8
0
 10
43.008000000000003
 20
37.390999999999998
 30
0.0
 11
48.095999999999997
 21
37.390999999999998
 31
0.0
  0
LINE
  5
46
  8
0
 10
48.095999999999997
 20
0.6089739999999891
 30
0.0
 11
53.856000000000002
 21
0.6089739999999891
 31
0.0
  0
LINE
  5
47
  8
0
 10
48.095999999999997
 20
37.390999999999998
 30
0.0
 11
53.856000000000002
 21
37.390999999999998
 31
0.0
  0
LINE
  5
48
  8
0
 10
60.0
 20
18.0
 30
0.0
 11
61.536000000000001
 21
18.21599999999999
 31
0.0
  0
LINE
  5
49
  8
0
 10
58.463999999999999
 20
18.21599999999999
 30
0.0
 11
60.0
 21
18.0
 31
0.0
  0
LINE
  5
4A
  8
0
 10
57.026099999999992
 20
18.792000000000002
 30
0.0
 11
58.463999999999999
 21
18.21599999999999
 31
0.0
  0
LINE
  5
4B
  8
0
 10
55.751300000000001
 20
19.751999999999999
 30
0.0
 11
57.026099999999992
 21
18.792000000000002
 31
0.0
  0
LINE
  5
4C
  8
0
 10
54.790700000000001
 20
21.024000000000001
 30
0.0
 11
55.751300000000001
 21
19.751999999999999
 31
0.0
  0
LINE
  5
4D
  8
0
 10
54.208599999999997
 20
22.463999999999999
 30
0.0
 11
54.790700000000001
 21
21.024000000000001
 31
0.0
  0
LINE
  5
4E
  8
0
 10
60.0
 20
30.0
 30
0.0
 11
61.536000000000001
 21
29.783999999999999
 31
0.0
  0
LINE
  5
4F
  8
0
 10
58.463999999999999
 20
29.783999999999999
 30
0.0
 11
60.0
 21
30.0
 31
0.0
  0
LINE
  5
50
  8
0
 10
57.026099999999992
 20
29.207999999999998
 30
0.0
 11
58.463999999999999
 21
29.783999999999999
 31
0.0
  0
LINE
  5
51
  8
0
 10
55.751300000000001
 20
28.248000000000001
 30
0.0
 11
57.026099999999992
 21
29.207999999999998
 31
0.0
  0
LINE
  5
52
  8
0
 10
54.790700000000001
 20
26.975999999999988
 30
0.0
 11
55.751300000000001
 21
28.248000000000001
 31
0.0
  0
LINE
  5
53
  8
0
 10
54.208599999999997
 20
25.535999999999991
 30
0.0
 11
54.790700000000001
 21
26.975999999999988
 31
0.0
  0
LINE
  5
54
  8
0
 10
53.993200000000002
 20
24.0
 30
0.0
 11
54.208599999999997
 21
22.463999999999999
 31
0.0
  0
LINE
  5
55
  8
0
 10
53.993200000000002
 20
24.0
 30
0.0
 11
54.208599999999997
 21
25.535999999999991
 31
0.0
  0
LINE
  5
56
  8
0
 10
53.856000000000002
 20
0.6089739999999891
 30
0.0
 11
60.0
 21
0.6089739999999891
 31
0.0
  0
LINE
  5
57
  8
0
 10
53.856000000000002
 20
37.390999999999998
 30
0.0
 11
60.0
 21
37.390999999999998
 31
0.0
  0
LINE
  5
58
  8
0
 10
60.0
 20
0.6089739999999891
 30
0.0
 11
66.143999999999991
 21
0.6089739999999891
 31
0.0
  0
LINE
  5
59
  8
0
 10
60.0
 20
37.390999999999998
 30
0.0
 11
66.143999999999991
 21
37.390999999999998
 31
0.0
  0
LINE
  5
5A
  8
0
 10
36.0
 20
30.0
 30
0.0
 11
36.0
 21
37.390999999999998
 31
0.0
  0
LINE
  5
5B
  8
0
 10
36.0
 20
0.608973999999988
 30
0.0
 11
36.0
 21
18.0
 31
0.0
  0
LINE
  5
5C
  8
0
 10
36.0
 20
0.608973999999988
 30
0.0
 11
36.576000000000001
 21
-0.0000000000000121
 31
0.0
  0
LINE
  5
5D
  8
0
 10
36.0
 20
0.608973999999988
 30
0.0
 11
36.863999999999997
 21
0.608973999999988
 31
0.0
  0
LINE
  5
5E
  8
0
 10
36.0
 20
0.608973999999988
 30
0.0
 11
36.576000000000001
 21
-0.0000000000000122
 31
0.0
  0
LINE
  5
5F
  8
0
 10
65.791399999999996
 20
25.535999999999991
 30
0.0
 11
66.006799999999998
 21
24.0
 31
0.0
  0
LINE
  5
60
  8
0
 10
65.791399999999996
 20
22.463999999999999
 30
0.0
 11
66.006799999999998
 21
24.0
 31
0.0
  0
LINE
  5
61
  8
0
 10
65.209299999999985
 20
21.024000000000001
 30
0.0
 11
65.791399999999996
 21
22.463999999999999
 31
0.0
  0
LINE
  5
62
  8
0
 10
65.209299999999985
 20
26.975999999999988
 30
0.0
 11
65.791399999999996
 21
25.535999999999991
 31
0.0
  0
LINE
  5
63
  8
0
 10
64.248699999999999
 20
19.751999999999999
 30
0.0
 11
65.209299999999985
 21
21.024000000000001
 31
0.0
  0
LINE
  5
64
  8
0
 10
64.248699999999999
 20
28.248000000000001
 30
0.0
 11
65.209299999999985
 21
26.975999999999988
 31
0.0
  0
LINE
  5
65
  8
0
 10
62.9739
 20
18.792000000000002
 30
0.0
 11
64.248699999999999
 21
19.751999999999999
 31
0.0
  0
LINE
  5
66
  8
0
 10
62.9739
 20
29.207999999999998
 30
0.0
 11
64.248699999999999
 21
28.248000000000001
 31
0.0
  0
LINE
  5
67
  8
0
 10
61.536000000000001
 20
18.21599999999999
 30
0.0
 11
62.9739
 21
18.792000000000002
 31
0.0
  0
LINE
  5
68
  8
0
 10
61.536000000000001
 20
29.783999999999999
 30
0.0
 11
62.9739
 21
29.207999999999998
 31
0.0
  0
LINE
  5
69
  8
0
 10
60.0
 20
-0.0000000000000136
 30
0.0
 11
66.048000000000002
 21
-0.0000000000000135
 31
0.0
  0
LINE
  5
6A
  8
0
 10
36.576000000000001
 20
38.0
 30
0.0
 11
37.439999999999991
 21
38.0
 31
0.0
  0
LINE
  5
6B
  8
0
 10
37.439999999999991
 20
38.0
 30
0.0
 11
39.744
 21
38.0
 31
0.0
  0
LINE
  5
6C
  8
0
 10
39.744
 20
38.0
 30
0.0
 11
43.487999999999992
 21
38.0
 31
0.0
  0
LINE
  5
6D
  8
0
 10
43.487999999999992
 20
38.0
 30
0.0
 11
48.384
 21
38.0
 31
0.0
  0
LINE
  5
6E
  8
0
 10
48.384
 20
38.0
 30
0.0
 11
53.951999999999991
 21
38.0
 31
0.0
  0
LINE
  5
6F
  8
0
 10
53.951999999999991
 20
38.0
 30
0.0
 11
60.0
 21
38.0
 31
0.0
  0
LINE
  5
70
  8
0
 10
60.0
 20
38.0
 30
0.0
 11
66.048000000000002
 21
38.0
 31
0.0
  0
LINE
  5
71
  8
0
 10
36.0
 20
37.390999999999998
 30
0.0
 11
36.576000000000001
 21
38.0
 31
0.0
  0
LINE
  5
72
  8
0
 10
36.0
 20
37.390999999999998
 30
0.0
 11
36.0
 21
30.0
 31
0.0
  0
LINE
  5
73
  8
0
 10
36.0
 20
37.390999999999998
 30
0.0
 11
36.863999999999997
 21
37.390999999999998
 31
0.0
  0
LINE
  5
74
  8
0
 10
66.048000000000002
 20
-0.0000000000000108
 30
0.0
 11
71.615999999999985
 21
-0.0000000000000109
 31
0.0
  0
LINE
  5
75
  8
0
 10
76.512
 20
-0.0000000000000111
 30
0.0
 11
80.256
 21
-0.0000000000000114
 31
0.0
  0
LINE
  5
76
  8
0
 10
71.615999999999985
 20
-0.0000000000000109
 30
0.0
 11
76.512
 21
-0.0000000000000111
 31
0.0
  0
LINE
  5
77
  8
0
 10
82.560000000000002
 20
-0.0000000000000118
 30
0.0
 11
83.423999999999992
 21
-0.0000000000000121
 31
0.0
  0
LINE
  5
78
  8
0
 10
83.423999999999992
 20
-0.0000000000000121
 30
0.0
 11
84.0
 21
0.608973999999988
 31
0.0
  0
LINE
  5
79
  8
0
 10
80.256
 20
-0.0000000000000114
 30
0.0
 11
82.560000000000002
 21
-0.0000000000000118
 31
0.0
  0
LINE
  5
7A
  8
0
 10
82.560000000000002
 20
-0.0000000000000125
 30
0.0
 11
83.423999999999992
 21
-0.0000000000000121
 31
0.0
  0
LINE
  5
7B
  8
0
 10
83.423999999999992
 20
-0.0000000000000122
 30
0.0
 11
84.0
 21
0.608973999999988
 31
0.0
  0
LINE
  5
7C
  8
0
 10
80.256
 20
-0.0000000000000128
 30
0.0
 11
82.560000000000002
 21
-0.0000000000000125
 31
0.0
  0
LINE
  5
7D
  8
0
 10
76.512
 20
-0.0000000000000131
 30
0.0
 11
80.256
 21
-0.0000000000000128
 31
0.0
  0
LINE
  5
7E
  8
0
 10
71.615999999999985
 20
-0.0000000000000134
 30
0.0
 11
76.512
 21
-0.0000000000000131
 31
0.0
  0
LINE
  5
7F
  8
0
 10
66.048000000000002
 20
-0.0000000000000135
 30
0.0
 11
71.615999999999985
 21
-0.0000000000000134
 31
0.0
  0
LINE
  5
80
  8
0
 10
80.831999999999994
 20
0.6089739999999891
 30
0.0
 11
83.135999999999996
 21
0.608973999999988
 31
0.0
  0
LINE
  5
81
  8
0
 10
80.831999999999994
 20
37.390999999999998
 30
0.0
 11
83.135999999999996
 21
37.390999999999998
 31
0.0
  0
LINE
  5
82
  8
0
 10
76.992000000000004
 20
0.6089739999999891
 30
0.0
 11
80.831999999999994
 21
0.6089739999999891
 31
0.0
  0
LINE
  5
83
  8
0
 10
76.992000000000004
 20
37.390999999999998
 30
0.0
 11
80.831999999999994
 21
37.390999999999998
 31
0.0
  0
LINE
  5
84
  8
0
 10
71.903999999999996
 20
0.6089739999999891
 30
0.0
 11
76.992000000000004
 21
0.6089739999999891
 31
0.0
  0
LINE
  5
85
  8
0
 10
71.903999999999996
 20
37.390999999999998
 30
0.0
 11
76.992000000000004
 21
37.390999999999998
 31
0.0
  0
LINE
  5
86
  8
0
 10
66.143999999999991
 20
0.6089739999999891
 30
0.0
 11
71.903999999999996
 21
0.6089739999999891
 31
0.0
  0
LINE
  5
87
  8
0
 10
80.256
 20
38.0
 30
0.0
 11
82.560000000000002
 21
38.0
 31
0.0
  0
LINE
  5
88
  8
0
 10
76.512
 20
38.0
 30
0.0
 11
80.256
 21
38.0
 31
0.0
  0
LINE
  5
89
  8
0
 10
71.615999999999985
 20
38.0
 30
0.0
 11
76.512
 21
38.0
 31
0.0
  0
LINE
  5
8A
  8
0
 10
66.048000000000002
 20
38.0
 30
0.0
 11
71.615999999999985
 21
38.0
 31
0.0
  0
LINE
  5
8B
  8
0
 10
66.143999999999991
 20
37.390999999999998
 30
0.0
 11
71.903999999999996
 21
37.390999999999998
 31
0.0
  0
LINE
  5
8C
  8
0
 10
82.560000000000002
 20
38.0
 30
0.0
 11
83.423999999999992
 21
38.0
 31
0.0
  0
LINE
  5
8D
  8
0
 10
83.135999999999996
 20
0.608973999999988
 30
0.0
 11
84.0
 21
0.608973999999988
 31
0.0
  0
LINE
  5
8E
  8
0
 10
83.314800000000005
 20
24.0
 30
0.0
 11
83.337999999999994
 21
25.535999999999991
 31
0.0
  0
LINE
  5
8F
  8
0
 10
83.314800000000005
 20
24.0
 30
0.0
 11
83.337999999999994
 21
22.463999999999999
 31
0.0
  0
LINE
  5
90
  8
0
 10
83.337999999999994
 20
22.463999999999999
 30
0.0
 11
83.425299999999993
 21
21.024000000000001
 31
0.0
  0
LINE
  5
91
  8
0
 10
83.337999999999994
 20
25.535999999999991
 30
0.0
 11
83.425299999999993
 21
26.975999999999988
 31
0.0
  0
LINE
  5
92
  8
0
 10
83.135999999999996
 20
37.390999999999998
 30
0.0
 11
84.0
 21
37.390999999999998
 31
0.0
  0
LINE
  5
93
  8
0
 10
36.863999999999997
 20
38.609000000000002
 30
0.0
 11
39.167999999999999
 21
38.609000000000002
 31
0.0
  0
LINE
  5
94
  8
0
 10
36.0
 20
38.609000000000002
 30
0.0
 11
36.0
 21
47.390999999999998
 31
0.0
  0
LINE
  5
95
  8
0
 10
36.0
 20
38.609000000000002
 30
0.0
 11
36.576000000000001
 21
38.0
 31
0.0
  0
LINE
  5
96
  8
0
 10
36.0
 20
38.609000000000002
 30
0.0
 11
36.863999999999997
 21
38.609000000000002
 31
0.0
  0
LINE
  5
97
  8
0
 10
39.167999999999999
 20
38.609000000000002
 30
0.0
 11
43.008000000000003
 21
38.609000000000002
 31
0.0
  0
LINE
  5
98
  8
0
 10
43.008000000000003
 20
38.609000000000002
 30
0.0
 11
48.095999999999997
 21
38.609000000000002
 31
0.0
  0
LINE
  5
99
  8
0
 10
48.095999999999997
 20
38.609000000000002
 30
0.0
 11
53.856000000000002
 21
38.609000000000002
 31
0.0
  0
LINE
  5
9A
  8
0
 10
53.856000000000002
 20
38.609000000000002
 30
0.0
 11
60.0
 21
38.609000000000002
 31
0.0
  0
LINE
  5
9B
  8
0
 10
76.992000000000004
 20
38.609000000000002
 30
0.0
 11
80.831999999999994
 21
38.609000000000002
 31
0.0
  0
LINE
  5
9C
  8
0
 10
71.903999999999996
 20
38.609000000000002
 30
0.0
 11
76.992000000000004
 21
38.609000000000002
 31
0.0
  0
LINE
  5
9D
  8
0
 10
66.143999999999991
 20
38.609000000000002
 30
0.0
 11
71.903999999999996
 21
38.609000000000002
 31
0.0
  0
LINE
  5
9E
  8
0
 10
60.0
 20
38.609000000000002
 30
0.0
 11
66.143999999999991
 21
38.609000000000002
 31
0.0
  0
LINE
  5
9F
  8
0
 10
0.3
 20
48.299999999999997
 30
0.0
 11
1.0
 21
48.0
 31
0.0
  0
LINE
  5
A0
  8
0
 10
0.3
 20
48.299999999999997
 30
0.0
 11
1.0
 21
48.0
 31
0.0
  0
LINE
  5
A1
  8
0
 10
0.0
 20
49.0
 30
0.0
 11
0.0
 21
67.0
 31
0.0
  0
LINE
  5
A2
  8
0
 10
0.0
 20
49.0
 30
0.0
 11
0.3
 21
48.299999999999997
 31
0.0
  0
LINE
  5
A4
  8
0
 10
0.999999999999996
 20
48.0
 30
0.0
 11
36.576000000000001
 21
48.0
 31
0.0
  0
LINE
  5
A5
  8
0
 10
1.0
 20
48.0
 30
0.0
 11
36.576000000000001
 21
48.0
 31
0.0
  0
LINE
  5
A6
  8
0
 10
0.999999999999996
 20
48.299999999999997
 30
0.0
 11
119.0
 21
48.299999999999997
 31
0.0
  0
LINE
  5
A7
  8
0
 10
1.0
 20
48.299999999999997
 30
0.0
 11
119.0
 21
48.299999999999997
 31
0.0
  0
LINE
  5
A8
  8
0
 10
0.5
 20
48.5
 30
0.0
 11
1.0
 21
48.299999999999997
 31
0.0
  0
LINE
  5
A9
  8
0
 10
0.0
 20
67.0
 30
0.0
 11
0.3
 21
67.700000000000003
 31
0.0
  0
LINE
  5
AA
  8
0
 10
0.0
 20
67.0
 30
0.0
 11
0.0
 21
49.0
 31
0.0
  0
LINE
  5
AB
  8
0
 10
0.3
 20
67.0
 30
0.0
 11
0.5
 21
67.5
 31
0.0
  0
LINE
  5
AC
  8
0
 10
0.3
 20
67.0
 30
0.0
 11
0.3
 21
49.0
 31
0.0
  0
LINE
  5
AE
  8
0
 10
0.3
 20
67.700000000000003
 30
0.0
 11
1.0
 21
68.0
 31
0.0
  0
LINE
  5
AF
  8
0
 10
0.3
 20
67.700000000000003
 30
0.0
 11
1.0
 21
68.0
 31
0.0
  0
LINE
  5
B0
  8
0
 10
0.999999999999996
 20
68.0
 30
0.0
 11
119.0
 21
68.0
 31
0.0
  0
LINE
  5
B1
  8
0
 10
0.5
 20
67.5
 30
0.0
 11
1.0
 21
67.700000000000003
 31
0.0
  0
LINE
  5
F2
  8
0
 10
1.0
 20
68.0
 30
0.0
 11
119.0
 21
68.0
 31
0.0
  0
LINE
  5
F3
  8
0
 10
1.0
 20
67.700000000000003
 30
0.0
 11
119.0
 21
67.700000000000003
 31
0.0
  0
LINE
  5
F4
  8
0
 10
0.999999999999996
 20
67.700000000000003
 30
0.0
 11
119.0
 21
67.700000000000003
 31
0.0
  0
LINE
  5
F5
  8
0
 10
0.3
 20
49.0
 30
0.0
 11
0.5
 21
48.5
 31
0.0
  0
LINE
  5
F6
  8
0
 10
0.3
 20
49.0
 30
0.0
 11
0.3
 21
67.0
 31
0.0
  0
LINE
  5
F7
  8
0
 10
36.863999999999997
 20
47.390999999999998
 30
0.0
 11
39.167999999999999
 21
47.390999999999998
 31
0.0
  0
LINE
  5
F8
  8
0
 10
39.167999999999999
 20
47.390999999999998
 30
0.0
 11
43.008000000000003
 21
47.390999999999998
 31
0.0
  0
LINE
  5
F9
  8
0
 10
43.008000000000003
 20
47.390999999999998
 30
0.0
 11
48.095999999999997
 21
47.390999999999998
 31
0.0
  0
LINE
  5
FA
  8
0
 10
48.095999999999997
 20
47.390999999999998
 30
0.0
 11
53.856000000000002
 21
47.390999999999998
 31
0.0
  0
LINE
  5
FB
  8
0
 10
53.856000000000002
 20
47.390999999999998
 30
0.0
 11
60.0
 21
47.390999999999998
 31
0.0
  0
LINE
  5
FC
  8
0
 10
76.992000000000004
 20
47.390999999999998
 30
0.0
 11
80.831999999999994
 21
47.390999999999998
 31
0.0
  0
LINE
  5
FD
  8
0
 10
71.903999999999996
 20
47.390999999999998
 30
0.0
 11
76.992000000000004
 21
47.390999999999998
 31
0.0
  0
LINE
  5
FE
  8
0
 10
66.143999999999991
 20
47.390999999999998
 30
0.0
 11
71.903999999999996
 21
47.390999999999998
 31
0.0
  0
LINE
  5
FF
  8
0
 10
36.576000000000001
 20
48.0
 30
0.0
 11
37.439999999999991
 21
48.0
 31
0.0
  0
LINE
  5
100
  8
0
 10
37.439999999999991
 20
48.0
 30
0.0
 11
39.744
 21
48.0
 31
0.0
  0
LINE
  5
101
  8
0
 10
39.744
 20
48.0
 30
0.0
 11
43.487999999999992
 21
48.0
 31
0.0
  0
LINE
  5
102
  8
0
 10
43.487999999999992
 20
48.0
 30
0.0
 11
48.384
 21
48.0
 31
0.0
  0
LINE
  5
103
  8
0
 10
48.384
 20
48.0
 30
0.0
 11
53.951999999999991
 21
48.0
 31
0.0
  0
LINE
  5
15E
  8
0
 10
53.951999999999991
 20
48.0
 30
0.0
 11
60.0
 21
48.0
 31
0.0
  0
LINE
  5
15F
  8
0
 10
76.512
 20
48.0
 30
0.0
 11
80.256
 21
48.0
 31
0.0
  0
LINE
  5
160
  8
0
 10
71.615999999999985
 20
48.0
 30
0.0
 11
76.512
 21
48.0
 31
0.0
  0
LINE
  5
19A
  8
0
 10
66.048000000000002
 20
48.0
 30
0.0
 11
71.615999999999985
 21
48.0
 31
0.0
  0
LINE
  5
19B
  8
0
 10
60.0
 20
48.0
 30
0.0
 11
66.048000000000002
 21
48.0
 31
0.0
  0
LINE
  5
19C
  8
0
 10
60.0
 20
47.390999999999998
 30
0.0
 11
66.143999999999991
 21
47.390999999999998
 31
0.0
  0
LINE
  5
19D
  8
0
 10
36.0
 20
47.390999999999998
 30
0.0
 11
36.576000000000001
 21
48.0
 31
0.0
  0
LINE
  5
19E
  8
0
 10
36.0
 20
47.390999999999998
 30
0.0
 11
36.0
 21
38.609000000000002
 31
0.0
  0
LINE
  5
19F
  8
0
 10
36.0
 20
47.390999999999998
 30
0.0
 11
36.863999999999997
 21
47.390999999999998
 31
0.0
  0
LINE
  5
1A0
  8
0
 10
83.135999999999996
 20
38.609000000000002
 30
0.0
 11
84.0
 21
38.609000000000002
 31
0.0
  0
LINE
  5
1A1
  8
0
 10
80.831999999999994
 20
38.609000000000002
 30
0.0
 11
83.135999999999996
 21
38.609000000000002
 31
0.0
  0
LINE
  5
1A2
  8
0
 10
83.135999999999996
 20
47.390999999999998
 30
0.0
 11
84.0
 21
47.390999999999998
 31
0.0
  0
LINE
  5
1AE
  8
0
 10
82.560000000000002
 20
48.0
 30
0.0
 11
83.423999999999992
 21
48.0
 31
0.0
  0
LINE
  5
1AF
  8
0
 10
80.256
 20
48.0
 30
0.0
 11
82.560000000000002
 21
48.0
 31
0.0
  0
LINE
  5
1B0
  8
0
 10
80.831999999999994
 20
47.390999999999998
 30
0.0
 11
83.135999999999996
 21
47.390999999999998
 31
0.0
  0
LINE
  5
1B1
  8
0
 10
83.423999999999992
 20
48.0
 30
0.0
 11
84.0
 21
47.390999999999998
 31
0.0
  0
LINE
  5
1B2
  8
0
 10
83.425299999999993
 20
21.024000000000001
 30
0.0
 11
83.570700000000002
 21
19.751999999999999
 31
0.0
  0
LINE
  5
1B3
  8
0
 10
83.425299999999993
 20
26.975999999999988
 30
0.0
 11
83.570700000000002
 21
28.248000000000001
 31
0.0
  0
LINE
  5
1B4
  8
0
 10
83.570700000000002
 20
19.751999999999999
 30
0.0
 11
83.745199999999997
 21
18.792000000000002
 31
0.0
  0
LINE
  5
1B5
  8
0
 10
83.570700000000002
 20
28.248000000000001
 30
0.0
 11
83.745199999999997
 21
29.207999999999998
 31
0.0
  0
LINE
  5
1B6
  8
0
 10
83.745199999999997
 20
18.792000000000002
 30
0.0
 11
83.954599999999985
 21
18.21599999999999
 31
0.0
  0
LINE
  5
1B7
  8
0
 10
83.745199999999997
 20
29.207999999999998
 30
0.0
 11
83.954599999999985
 21
29.783999999999999
 31
0.0
  0
LINE
  5
1B8
  8
0
 10
84.0
 20
18.0
 30
0.0
 11
84.199999999999989
 21
18.0
 31
0.0
  0
LINE
  5
1B9
  8
0
 10
83.954599999999985
 20
18.21599999999999
 30
0.0
 11
84.199999999999989
 21
18.0
 31
0.0
  0
LINE
  5
1BA
  8
0
 10
83.954599999999985
 20
29.783999999999999
 30
0.0
 11
84.199999999999989
 21
30.0
 31
0.0
  0
LINE
  5
1BB
  8
0
 10
84.0
 20
30.0
 30
0.0
 11
84.0
 21
37.390999999999998
 31
0.0
  0
LINE
  5
1BC
  8
0
 10
84.0
 20
30.0
 30
0.0
 11
84.199999999999989
 21
30.0
 31
0.0
  0
LINE
  5
1BD
  8
0
 10
84.0
 20
0.608973999999988
 30
0.0
 11
84.0
 21
18.014399999999991
 31
0.0
  0
LINE
  5
1BE
  8
0
 10
84.199999999999989
 20
30.0
 30
0.0
 11
84.199999999999989
 21
18.0
 31
0.0
  0
LINE
  5
1BF
  8
0
 10
84.199999999999989
 20
18.0
 30
0.0
 11
84.199999999999989
 21
30.0
 31
0.0
  0
LINE
  5
1C0
  8
0
 10
84.0
 20
18.014399999999991
 30
0.0
 11
84.0
 21
0.608973999999988
 31
0.0
  0
LINE
  5
1C5
  8
0
 10
83.423999999999992
 20
48.0
 30
0.0
 11
119.0
 21
48.0
 31
0.0
  0
LINE
  5
1C6
  8
0
 10
84.0
 20
38.609000000000002
 30
0.0
 11
84.0
 21
47.390999999999998
 31
0.0
  0
LINE
  5
1C7
  8
0
 10
119.7
 20
48.299999999999997
 30
0.0
 11
120.0
 21
49.0
 31
0.0
  0
LINE
  5
1C8
  8
0
 10
119.0
 20
48.0
 30
0.0
 11
119.7
 21
48.299999999999997
 31
0.0
  0
LINE
  5
1E8
  8
0
 10
119.0
 20
68.0
 30
0.0
 11
119.7
 21
67.700000000000003
 31
0.0
  0
LINE
  5
1E9
  8
0
 10
119.0
 20
67.700000000000003
 30
0.0
 11
119.5
 21
67.5
 31
0.0
  0
LINE
  5
1EA
  8
0
 10
119.5
 20
67.5
 30
0.0
 11
119.7
 21
67.0
 31
0.0
  0
LINE
  5
1EC
  8
0
 10
120.0
 20
49.0
 30
0.0
 11
120.0
 21
67.0
 31
0.0
  0
LINE
  5
1ED
  8
0
 10
119.7
 20
67.700000000000003
 30
0.0
 11
120.0
 21
67.0
 31
0.0
  0
LINE
  5
1EE
  8
0
 10
120.0
 20
67.0
 30
0.0
 11
120.0
 21
49.0
 31
0.0
  0
LINE
  5
1EF
  8
0
 10
119.7
 20
67.0
 30
0.0
 11
119.7
 21
49.0
 31
0.0
  0
LINE
  5
1F0
  8
0
 10
119.7
 20
49.0
 30
0.0
 11
119.7
 21
67.0
 31
0.0
  0
LINE
  5
1F1
  8
0
 10
119.5
 20
48.5
 30
0.0
 11
119.7
 21
49.0
 31
0.0
  0
LINE
  5
1F3
  8
0
 10
119.0
 20
48.299999999999997
 30
0.0
 11
119.5
 21
48.5
 31
0.0
  0
LINE
  5
1F4
  8
0
 10
84.0
 20
47.390999999999998
 30
0.0
 11
84.0
 21
38.609000000000002
 31
0.0
  0
LINE
  5
1F5
  8
0
 10
84.0
 20
37.390999999999998
 30
0.0
 11
84.0
 21
30.0
 31
0.0
  0
LINE
  5
1F6
  8
0
 10
83.423999999999992
 20
38.0
 30
0.0
 11
84.0
 21
37.390999999999998
 31
0.0
  0
LINE
  5
1F7
  8
0
 10
83.423999999999992
 20
38.0
 30
0.0
 11
84.0
 21
38.609000000000002
 31
0.0
  0
ENDSEC
  0
EOF
