  0
SECTION
  2
HEADER
  9
$ACADVER
  1
AC1009
  9
$INSBASE
 10
0.0
 20
0.0
 30
0.0
  9
$EXTMIN
 10
0.0
 20
-0.00000000000001
 30
0.0
  9
$EXTMAX
 10
350.0
 20
30.0
 30
0.0
  9
$LIMMIN
 10
0.0
 20
0.0
  9
$LIMMAX
 10
12.0
 20
9.0
  9
$ORTHOMODE
 70
     0
  9
$REGENMODE
 70
     1
  9
$FILLMODE
 70
     1
  9
$QTEXTMODE
 70
     0
  9
$MIRRTEXT
 70
     1
  9
$DRAGMODE
 70
     2
  9
$LTSCALE
 40
1.0
  9
$OSMODE
 70
    37
  9
$ATTMODE
 70
     1
  9
$TEXTSIZE
 40
0.2
  9
$TRACEWID
 40
0.05
  9
$TEXTSTYLE
  7
STANDARD
  9
$CLAYER
  8
0
  9
$CELTYPE
  6
CONTINUOUS
  9
$CECOLOR
 62
   256
  9
$DIMSCALE
 40
1.0
  9
$DIMASZ
 40
0.18
  9
$DIMEXO
 40
0.0625
  9
$DIMDLI
 40
0.38
  9
$DIMRND
 40
0.0
  9
$DIMDLE
 40
0.0
  9
$DIMEXE
 40
0.18
  9
$DIMTP
 40
0.0
  9
$DIMTM
 40
0.0
  9
$DIMTXT
 40
0.18
  9
$DIMCEN
 40
0.09
  9
$DIMTSZ
 40
0.0
  9
$DIMTOL
 70
     0
  9
$DIMLIM
 70
     0
  9
$DIMTIH
 70
     1
  9
$DIMTOH
 70
     1
  9
$DIMSE1
 70
     0
  9
$DIMSE2
 70
     0
  9
$DIMTAD
 70
     0
  9
$DIMZIN
 70
     0
  9
$DIMBLK
  1

  9
$DIMASO
 70
     1
  9
$DIMSHO
 70
     1
  9
$DIMPOST
  1

  9
$DIMAPOST
  1

  9
$DIMALT
 70
     0
  9
$DIMALTD
 70
     2
  9
$DIMALTF
 40
25.399999999999999
  9
$DIMLFAC
 40
1.0
  9
$DIMTOFL
 70
     0
  9
$DIMTVP
 40
0.0
  9
$DIMTIX
 70
     0
  9
$DIMSOXD
 70
     0
  9
$DIMSAH
 70
     0
  9
$DIMBLK1
  1

  9
$DIMBLK2
  1

  9
$DIMSTYLE
  2
STANDARD
  9
$DIMCLRD
 70
     0
  9
$DIMCLRE
 70
     0
  9
$DIMCLRT
 70
     0
  9
$DIMTFAC
 40
1.0
  9
$DIMGAP
 40
0.09
  9
$LUNITS
 70
     2
  9
$LUPREC
 70
     4
  9
$SKETCHINC
 40
0.1
  9
$FILLETRAD
 40
0.0
  9
$AUNITS
 70
     0
  9
$AUPREC
 70
     0
  9
$MENU
  1
.
  9
$ELEVATION
 40
0.0
  9
$PELEVATION
 40
0.0
  9
$THICKNESS
 40
0.0
  9
$LIMCHECK
 70
     0
  9
$BLIPMODE
 70
     0
  9
$CHAMFERA
 40
0.0
  9
$CHAMFERB
 40
0.0
  9
$SKPOLY
 70
     0
  9
$TDCREATE
 40
2454674.637405775
  9
$TDUPDATE
 40
2454674.6390601378
  9
$TDINDWG
 40
0.0016543634
  9
$TDUSRTIMER
 40
0.0016543634
  9
$USRTIMER
 70
     1
  9
$ANGBASE
 50
0.0
  9
$ANGDIR
 70
     0
  9
$PDMODE
 70
     0
  9
$PDSIZE
 40
0.0
  9
$PLINEWID
 40
0.0
  9
$COORDS
 70
     1
  9
$SPLFRAME
 70
     0
  9
$SPLINETYPE
 70
     6
  9
$SPLINESEGS
 70
     8
  9
$ATTDIA
 70
     0
  9
$ATTREQ
 70
     1
  9
$HANDLING
 70
 22529
  9
$HANDSEED
  5
440
  9
$SURFTAB1
 70
     6
  9
$SURFTAB2
 70
     6
  9
$SURFTYPE
 70
     6
  9
$SURFU
 70
     6
  9
$SURFV
 70
     6
  9
$UCSNAME
  2

  9
$UCSORG
 10
0.0
 20
0.0
 30
0.0
  9
$UCSXDIR
 10
1.0
 20
0.0
 30
0.0
  9
$UCSYDIR
 10
0.0
 20
1.0
 30
0.0
  9
$PUCSNAME
  2

  9
$PUCSORG
 10
0.0
 20
0.0
 30
0.0
  9
$PUCSXDIR
 10
1.0
 20
0.0
 30
0.0
  9
$PUCSYDIR
 10
0.0
 20
1.0
 30
0.0
  9
$USERI1
 70
     0
  9
$USERI2
 70
     0
  9
$USERI3
 70
     0
  9
$USERI4
 70
     0
  9
$USERI5
 70
     0
  9
$USERR1
 40
0.0
  9
$USERR2
 40
0.0
  9
$USERR3
 40
0.0
  9
$USERR4
 40
0.0
  9
$USERR5
 40
0.0
  9
$WORLDVIEW
 70
     1
  9
$SHADEDGE
 70
     3
  9
$SHADEDIF
 70
    70
  9
$TILEMODE
 70
     1
  9
$MAXACTVP
 70
    64
  9
$PLIMCHECK
 70
     0
  9
$PEXTMIN
 10
1.0000000000000000E+020
 20
1.0000000000000000E+020
 30
1.0000000000000000E+020
  9
$PEXTMAX
 10
-1.0000000000000000E+020
 20
-1.0000000000000000E+020
 30
-1.0000000000000000E+020
  9
$PLIMMIN
 10
0.0
 20
0.0
  9
$PLIMMAX
 10
12.0
 20
9.0
  9
$UNITMODE
 70
     0
  9
$VISRETAIN
 70
     1
  9
$PLINEGEN
 70
     0
  9
$PSLTSCALE
 70
     1
  0
ENDSEC
  0
SECTION
  2
TABLES
  0
TABLE
  2
VPORT
 70
     3
  0
VPORT
  2
*ACTIVE
 70
     0
 10
0.0
 20
0.0
 11
1.0
 21
1.0
 12
175.0
 22
14.999999999999989
 13
0.0
 23
0.0
 14
1.0
 24
1.0
 15
0.0
 25
0.0
 16
0.0
 26
0.0
 36
1.0
 17
0.0
 27
0.0
 37
0.0
 40
171.9154060793812
 41
2.0435339308578739
 42
50.0
 43
0.0
 44
0.0
 50
0.0
 51
0.0
 71
     0
 72
   100
 73
     1
 74
     3
 75
     0
 76
     0
 77
     0
 78
     0
  0
ENDTAB
  0
TABLE
  2
LTYPE
 70
     1
  0
LTYPE
  2
CONTINUOUS
 70
     0
  3
Solid line
 72
    65
 73
     0
 40
0.0
  0
ENDTAB
  0
TABLE
  2
LAYER
 70
     1
  0
LAYER
  2
0
 70
     0
 62
     7
  6
CONTINUOUS
  0
ENDTAB
  0
TABLE
  2
STYLE
 70
     1
  0
STYLE
  2
STANDARD
 70
     0
 40
0.0
 41
1.0
 50
0.0
 71
     0
 42
0.2
  3
txt
  4

  0
ENDTAB
  0
TABLE
  2
VIEW
 70
     0
  0
ENDTAB
  0
TABLE
  2
UCS
 70
     0
  0
ENDTAB
  0
TABLE
  2
APPID
 70
     1
  0
APPID
  2
ACAD
 70
     0
  0
ENDTAB
  0
TABLE
  2
DIMSTYLE
 70
     1
  0
DIMSTYLE
  2
STANDARD
 70
     0
  3

  4

  5

  6

  7

 40
1.0
 41
0.18
 42
0.0625
 43
0.38
 44
0.18
 45
0.0
 46
0.0
 47
0.0
 48
0.0
140
0.18
141
0.09
142
0.0
143
25.399999999999999
144
1.0
145
0.0
146
1.0
147
0.09
 71
     0
 72
     0
 73
     1
 74
     1
 75
     0
 76
     0
 77
     0
 78
     0
170
     0
171
     2
172
     0
173
     0
174
     0
175
     0
176
     0
177
     0
178
     0
  0
ENDTAB
  0
ENDSEC
  0
SECTION
  2
BLOCKS
  0
BLOCK
  8
0
  2
$MODEL_SPACE
 70
     0
 10
0.0
 20
0.0
 30
0.0
  3
$MODEL_SPACE
  1

  0
ENDBLK
  5
20
  8
0
  0
BLOCK
 67
     1
  8
0
  2
$PAPER_SPACE
 70
     0
 10
0.0
 20
0.0
 30
0.0
  3
$PAPER_SPACE
  1

  0
ENDBLK
  5
1C
 67
     1
  8
0
  0
ENDSEC
  0
SECTION
  2
ENTITIES
  0
LINE
  5
22
  8
0
 10
0.0
 20
10.0
 30
0.0
 11
0.72
 21
10.0
 31
0.0
  0
LINE
  5
23
  8
0
 10
0.0
 20
10.0
 30
0.0
 11
0.0
 21
12.0
 31
0.0
  0
LINE
  5
24
  8
0
 10
0.0
 20
9.9999999999999911
 30
0.0
 11
0.72
 21
9.9999999999999911
 31
0.0
  0
LINE
  5
25
  8
0
 10
0.0
 20
9.9999999999999911
 30
0.0
 11
0.0
 21
12.0
 31
0.0
  0
LINE
  5
26
  8
0
 10
20.0
 20
9.9999999999999911
 30
0.0
 11
33.0
 21
9.9999999999999911
 31
0.0
  0
LINE
  5
27
  8
0
 10
14.880000000000001
 20
9.9999999999999911
 30
0.0
 11
20.0
 21
9.9999999999999911
 31
0.0
  0
LINE
  5
28
  8
0
 10
20.0
 20
9.9999999999999911
 30
0.0
 11
22.800000000000001
 21
9.9999999999999911
 31
0.0
  0
LINE
  5
29
  8
0
 10
17.199999999999989
 20
9.9999999999999911
 30
0.0
 11
20.0
 21
9.9999999999999911
 31
0.0
  0
LINE
  5
2A
  8
0
 10
10.08
 20
9.9999999999999911
 30
0.0
 11
14.880000000000001
 21
9.9999999999999911
 31
0.0
  0
LINE
  5
2B
  8
0
 10
5.839999999999999
 20
9.9999999999999911
 30
0.0
 11
10.08
 21
9.9999999999999911
 31
0.0
  0
LINE
  5
2C
  8
0
 10
16.0
 20
9.9999999999999911
 30
0.0
 11
17.199999999999989
 21
9.9999999999999911
 31
0.0
  0
LINE
  5
2D
  8
0
 10
2.6400000000000001
 20
9.9999999999999911
 30
0.0
 11
5.839999999999999
 21
9.9999999999999911
 31
0.0
  0
LINE
  5
2E
  8
0
 10
16.0
 20
9.9999999999999911
 30
0.0
 11
17.199999999999989
 21
9.9999999999999911
 31
0.0
  0
LINE
  5
2F
  8
0
 10
0.72
 20
9.9999999999999911
 30
0.0
 11
2.6400000000000001
 21
9.9999999999999911
 31
0.0
  0
LINE
  5
30
  8
0
 10
22.800000000000001
 20
9.9999999999999911
 30
0.0
 11
24.0
 21
9.9999999999999911
 31
0.0
  0
LINE
  5
31
  8
0
 10
22.800000000000001
 20
9.9999999999999911
 30
0.0
 11
24.0
 21
9.9999999999999911
 31
0.0
  0
LINE
  5
32
  8
0
 10
20.0
 20
9.9999999999999911
 30
0.0
 11
22.800000000000001
 21
9.9999999999999911
 31
0.0
  0
LINE
  5
33
  8
0
 10
0.72
 20
10.0
 30
0.0
 11
2.6400000000000001
 21
10.0
 31
0.0
  0
LINE
  5
34
  8
0
 10
20.0
 20
10.0
 30
0.0
 11
33.0
 21
10.0
 31
0.0
  0
LINE
  5
35
  8
0
 10
20.0
 20
10.0
 30
0.0
 11
33.0
 21
10.0
 31
0.0
  0
LINE
  5
36
  8
0
 10
14.880000000000001
 20
10.0
 30
0.0
 11
20.0
 21
10.0
 31
0.0
  0
LINE
  5
37
  8
0
 10
10.08
 20
10.0
 30
0.0
 11
14.880000000000001
 21
10.0
 31
0.0
  0
LINE
  5
38
  8
0
 10
5.839999999999999
 20
10.0
 30
0.0
 11
10.08
 21
10.0
 31
0.0
  0
LINE
  5
39
  8
0
 10
16.0
 20
10.0
 30
0.0
 11
17.199999999999989
 21
10.0
 31
0.0
  0
LINE
  5
3A
  8
0
 10
22.800000000000001
 20
10.0
 30
0.0
 11
24.0
 21
10.0
 31
0.0
  0
LINE
  5
3B
  8
0
 10
20.0
 20
10.0
 30
0.0
 11
22.800000000000001
 21
10.0
 31
0.0
  0
LINE
  5
3C
  8
0
 10
17.199999999999989
 20
10.0
 30
0.0
 11
20.0
 21
10.0
 31
0.0
  0
LINE
  5
3D
  8
0
 10
2.6400000000000001
 20
10.0
 30
0.0
 11
5.839999999999999
 21
10.0
 31
0.0
  0
LINE
  5
3E
  8
0
 10
2.6400000000000001
 20
10.0
 30
0.0
 11
5.839999999999999
 21
10.0
 31
0.0
  0
LINE
  5
3F
  8
0
 10
0.72
 20
10.0
 30
0.0
 11
2.6400000000000001
 21
10.0
 31
0.0
  0
LINE
  5
40
  8
0
 10
17.199999999999989
 20
9.9999999999999911
 30
0.0
 11
20.0
 21
9.9999999999999911
 31
0.0
  0
LINE
  5
41
  8
0
 10
0.0
 20
9.9999999999999911
 30
0.0
 11
0.0
 21
12.0
 31
0.0
  0
LINE
  5
42
  8
0
 10
0.0
 20
9.9999999999999911
 30
0.0
 11
0.72
 21
10.0
 31
0.0
  0
LINE
  5
43
  8
0
 10
0.72
 20
10.0
 30
0.0
 11
2.6400000000000001
 21
10.0
 31
0.0
  0
LINE
  5
44
  8
0
 10
0.0
 20
10.0
 30
0.0
 11
0.0
 21
12.0
 31
0.0
  0
LINE
  5
45
  8
0
 10
0.0
 20
10.0
 30
0.0
 11
0.72
 21
10.0
 31
0.0
  0
LINE
  5
46
  8
0
 10
2.6400000000000001
 20
10.0
 30
0.0
 11
5.839999999999999
 21
10.0
 31
0.0
  0
LINE
  5
47
  8
0
 10
5.839999999999999
 20
10.0
 30
0.0
 11
10.08
 21
10.0
 31
0.0
  0
LINE
  5
48
  8
0
 10
10.08
 20
10.0
 30
0.0
 11
14.880000000000001
 21
10.0
 31
0.0
  0
LINE
  5
49
  8
0
 10
16.0
 20
10.0
 30
0.0
 11
17.199999999999989
 21
10.0
 31
0.0
  0
LINE
  5
4A
  8
0
 10
17.199999999999989
 20
10.0
 30
0.0
 11
20.0
 21
10.0
 31
0.0
  0
LINE
  5
4B
  8
0
 10
20.0
 20
10.0
 30
0.0
 11
22.800000000000001
 21
10.0
 31
0.0
  0
LINE
  5
4C
  8
0
 10
22.800000000000001
 20
10.0
 30
0.0
 11
24.0
 21
10.0
 31
0.0
  0
LINE
  5
4D
  8
0
 10
20.0
 20
10.0
 30
0.0
 11
33.0
 21
10.0
 31
0.0
  0
LINE
  5
4E
  8
0
 10
20.0
 20
10.0
 30
0.0
 11
33.0
 21
10.0
 31
0.0
  0
LINE
  5
4F
  8
0
 10
14.880000000000001
 20
10.0
 30
0.0
 11
20.0
 21
10.0
 31
0.0
  0
LINE
  5
50
  8
0
 10
33.0
 20
10.0
 30
0.0
 11
33.0
 21
-0.0000000000000067
 31
0.0
  0
LINE
  5
51
  8
0
 10
33.0
 20
-0.0000000000000083
 30
0.0
 11
33.431999999999988
 21
-0.0000000000000083
 31
0.0
  0
LINE
  5
52
  8
0
 10
33.0
 20
-0.0000000000000083
 30
0.0
 11
33.0
 21
10.0
 31
0.0
  0
LINE
  5
53
  8
0
 10
0.0
 20
10.0
 30
0.0
 11
0.0
 21
12.0
 31
0.0
  0
LINE
  5
54
  8
0
 10
0.0
 20
10.0
 30
0.0
 11
0.72
 21
10.0
 31
0.0
  0
LINE
  5
55
  8
0
 10
0.72
 20
10.0
 30
0.0
 11
2.6400000000000001
 21
10.0
 31
0.0
  0
LINE
  5
56
  8
0
 10
16.0
 20
10.0
 30
0.0
 11
17.199999999999989
 21
10.0
 31
0.0
  0
LINE
  5
57
  8
0
 10
17.199999999999989
 20
10.0
 30
0.0
 11
20.0
 21
10.0
 31
0.0
  0
LINE
  5
58
  8
0
 10
0.72
 20
10.0
 30
0.0
 11
2.6400000000000001
 21
10.0
 31
0.0
  0
LINE
  5
5A
  8
0
 10
0.0
 20
10.0
 30
0.0
 11
0.72
 21
10.0
 31
0.0
  0
LINE
  5
5B
  8
0
 10
0.0
 20
10.0
 30
0.0
 11
0.0
 21
12.0
 31
0.0
  0
LINE
  5
5C
  8
0
 10
14.880000000000001
 20
10.0
 30
0.0
 11
20.0
 21
10.0
 31
0.0
  0
LINE
  5
5E
  8
0
 10
10.08
 20
10.0
 30
0.0
 11
14.880000000000001
 21
10.0
 31
0.0
  0
LINE
  5
60
  8
0
 10
5.839999999999999
 20
10.0
 30
0.0
 11
10.08
 21
10.0
 31
0.0
  0
LINE
  5
62
  8
0
 10
0.0
 20
12.0
 30
0.0
 11
0.0
 21
10.0
 31
0.0
  0
LINE
  5
63
  8
0
 10
0.0
 20
12.0
 30
0.0
 11
0.0
 21
10.0
 31
0.0
  0
LINE
  5
64
  8
0
 10
0.0
 20
12.0
 30
0.0
 11
0.0
 21
9.9999999999999911
 31
0.0
  0
LINE
  5
65
  8
0
 10
0.0
 20
12.0
 30
0.0
 11
0.0
 21
9.9999999999999911
 31
0.0
  0
LINE
  5
66
  8
0
 10
0.0
 20
12.0
 30
0.0
 11
0.0
 21
10.0
 31
0.0
  0
LINE
  5
68
  8
0
 10
14.880000000000001
 20
12.0
 30
0.0
 11
20.0
 21
12.0
 31
0.0
  0
LINE
  5
6A
  8
0
 10
10.08
 20
12.0
 30
0.0
 11
14.880000000000001
 21
12.0
 31
0.0
  0
LINE
  5
6C
  8
0
 10
5.839999999999999
 20
12.0
 30
0.0
 11
10.08
 21
12.0
 31
0.0
  0
LINE
  5
6E
  8
0
 10
2.6400000000000001
 20
12.0
 30
0.0
 11
5.839999999999999
 21
12.0
 31
0.0
  0
LINE
  5
70
  8
0
 10
0.72
 20
12.0
 30
0.0
 11
2.6400000000000001
 21
12.0
 31
0.0
  0
LINE
  5
71
  8
0
 10
0.0
 20
12.0
 30
0.0
 11
0.72
 21
12.0
 31
0.0
  0
LINE
  5
72
  8
0
 10
0.0
 20
12.0
 30
0.0
 11
0.0
 21
10.0
 31
0.0
  0
LINE
  5
73
  8
0
 10
2.6400000000000001
 20
10.0
 30
0.0
 11
5.839999999999999
 21
10.0
 31
0.0
  0
LINE
  5
75
  8
0
 10
16.0
 20
10.0
 30
0.0
 11
17.199999999999989
 21
10.0
 31
0.0
  0
LINE
  5
76
  8
0
 10
22.800000000000001
 20
10.0
 30
0.0
 11
24.0
 21
10.0
 31
0.0
  0
LINE
  5
77
  8
0
 10
20.0
 20
10.0
 30
0.0
 11
22.800000000000001
 21
10.0
 31
0.0
  0
LINE
  5
78
  8
0
 10
22.800000000000001
 20
10.0
 30
0.0
 11
24.0
 21
10.0
 31
0.0
  0
LINE
  5
79
  8
0
 10
20.0
 20
12.0
 30
0.0
 11
88.0
 21
12.0
 31
0.0
  0
LINE
  5
7A
  8
0
 10
20.0
 20
10.0
 30
0.0
 11
88.0
 21
10.0
 31
0.0
  0
LINE
  5
7C
  8
0
 10
20.0
 20
12.0
 30
0.0
 11
88.0
 21
12.0
 31
0.0
  0
LINE
  5
7D
  8
0
 10
30.0
 20
14.0
 30
0.0
 11
30.0
 21
12.0
 31
0.0
  0
LINE
  5
7E
  8
0
 10
30.0
 20
14.0
 30
0.0
 11
30.0
 21
12.0
 31
0.0
  0
LINE
  5
7F
  8
0
 10
30.0
 20
12.0
 30
0.0
 11
30.0
 21
14.0
 31
0.0
  0
LINE
  5
80
  8
0
 10
30.0
 20
12.0
 30
0.0
 11
30.0
 21
14.0
 31
0.0
  0
LINE
  5
81
  8
0
 10
30.0
 20
12.0
 30
0.0
 11
30.0
 21
14.0
 31
0.0
  0
LINE
  5
84
  8
0
 10
20.0
 20
10.0
 30
0.0
 11
88.0
 21
10.0
 31
0.0
  0
LINE
  5
86
  8
0
 10
20.0
 20
10.0
 30
0.0
 11
22.800000000000001
 21
10.0
 31
0.0
  0
LINE
  5
87
  8
0
 10
17.199999999999989
 20
10.0
 30
0.0
 11
20.0
 21
10.0
 31
0.0
  0
LINE
  5
88
  8
0
 10
33.0
 20
10.0
 30
0.0
 11
33.0
 21
0.0
 31
0.0
  0
LINE
  5
89
  8
0
 10
33.0
 20
0.0
 30
0.0
 11
33.431999999999988
 21
0.0
 31
0.0
  0
LINE
  5
8A
  8
0
 10
33.0
 20
0.0
 30
0.0
 11
33.0
 21
10.0
 31
0.0
  0
LINE
  5
8B
  8
0
 10
33.0
 20
0.0
 30
0.0
 11
33.431999999999988
 21
-0.0000000000000017
 31
0.0
  0
LINE
  5
8C
  8
0
 10
31.98
 20
14.0
 30
0.0
 11
34.380000000000003
 21
14.0
 31
0.0
  0
LINE
  5
8E
  8
0
 10
30.539999999999999
 20
14.0
 30
0.0
 11
31.98
 21
14.0
 31
0.0
  0
LINE
  5
90
  8
0
 10
30.0
 20
14.0
 30
0.0
 11
30.539999999999999
 21
14.0
 31
0.0
  0
LINE
  5
91
  8
0
 10
30.0
 20
14.0
 30
0.0
 11
30.0
 21
12.0
 31
0.0
  0
LINE
  5
92
  8
0
 10
33.0
 20
30.0
 30
0.0
 11
33.0
 21
14.0
 31
0.0
  0
LINE
  5
93
  8
0
 10
33.0
 20
14.0
 30
0.0
 11
33.0
 21
30.0
 31
0.0
  0
LINE
  5
94
  8
0
 10
33.0
 20
14.0
 30
0.0
 11
33.0
 21
30.0
 31
0.0
  0
LINE
  5
95
  8
0
 10
33.0
 20
30.0
 30
0.0
 11
33.0
 21
14.0
 31
0.0
  0
LINE
  5
96
  8
0
 10
33.0
 20
14.0
 30
0.0
 11
33.0
 21
30.0
 31
0.0
  0
LINE
  5
97
  8
0
 10
33.0
 20
10.0
 30
0.0
 11
33.0
 21
0.0000000000000067
 31
0.0
  0
LINE
  5
98
  8
0
 10
33.0
 20
30.0
 30
0.0
 11
33.431999999999988
 21
30.0
 31
0.0
  0
LINE
  5
99
  8
0
 10
33.0
 20
30.0
 30
0.0
 11
33.0
 21
14.0
 31
0.0
  0
LINE
  5
9A
  8
0
 10
34.584000000000003
 20
-0.0000000000000083
 30
0.0
 11
36.503999999999991
 21
-0.0000000000000083
 31
0.0
  0
LINE
  5
9B
  8
0
 10
34.584000000000003
 20
-0.0000000000000083
 30
0.0
 11
36.503999999999991
 21
-0.00000000000001
 31
0.0
  0
LINE
  5
9C
  8
0
 10
33.431999999999988
 20
-0.0000000000000083
 30
0.0
 11
34.584000000000003
 21
-0.0000000000000083
 31
0.0
  0
LINE
  5
9D
  8
0
 10
34.584000000000003
 20
-0.0000000000000017
 30
0.0
 11
36.503999999999991
 21
-0.0000000000000017
 31
0.0
  0
LINE
  5
9E
  8
0
 10
33.431999999999988
 20
-0.0000000000000017
 30
0.0
 11
34.584000000000003
 21
-0.0000000000000017
 31
0.0
  0
LINE
  5
9F
  8
0
 10
35.359999999999999
 20
-0.0000000000000083
 30
0.0
 11
36.32
 21
-0.0000000000000083
 31
0.0
  0
LINE
  5
A0
  8
0
 10
35.0
 20
-0.0000000000000083
 30
0.0
 11
35.359999999999999
 21
-0.0000000000000083
 31
0.0
  0
LINE
  5
A1
  8
0
 10
35.359999999999999
 20
-0.0000000000000017
 30
0.0
 11
36.32
 21
-0.0000000000000017
 31
0.0
  0
LINE
  5
A2
  8
0
 10
35.359999999999999
 20
0.0
 30
0.0
 11
36.32
 21
0.0
 31
0.0
  0
LINE
  5
A3
  8
0
 10
35.0
 20
0.0
 30
0.0
 11
35.359999999999999
 21
0.0
 31
0.0
  0
LINE
  5
A4
  8
0
 10
35.0
 20
0.0
 30
0.0
 11
35.359999999999999
 21
-0.0000000000000017
 31
0.0
  0
LINE
  5
A5
  8
0
 10
34.584000000000003
 20
0.0
 30
0.0
 11
36.503999999999991
 21
0.0
 31
0.0
  0
LINE
  5
A6
  8
0
 10
33.431999999999988
 20
0.0
 30
0.0
 11
34.584000000000003
 21
0.0
 31
0.0
  0
LINE
  5
A7
  8
0
 10
36.32
 20
-0.0000000000000083
 30
0.0
 11
37.920000000000002
 21
-0.0000000000000083
 31
0.0
  0
LINE
  5
A8
  8
0
 10
36.503999999999991
 20
-0.00000000000001
 30
0.0
 11
39.048000000000002
 21
-0.00000000000001
 31
0.0
  0
LINE
  5
A9
  8
0
 10
36.503999999999991
 20
-0.0000000000000083
 30
0.0
 11
39.048000000000002
 21
-0.0000000000000083
 31
0.0
  0
LINE
  5
AA
  8
0
 10
36.32
 20
-0.0000000000000017
 30
0.0
 11
37.920000000000002
 21
-0.0000000000000017
 31
0.0
  0
LINE
  5
AB
  8
0
 10
36.32
 20
0.0
 30
0.0
 11
37.920000000000002
 21
0.0
 31
0.0
  0
LINE
  5
AC
  8
0
 10
36.503999999999991
 20
-0.0000000000000017
 30
0.0
 11
39.048000000000002
 21
-0.0000000000000017
 31
0.0
  0
LINE
  5
AD
  8
0
 10
36.503999999999991
 20
0.0
 30
0.0
 11
39.048000000000002
 21
0.0
 31
0.0
  0
LINE
  5
AE
  8
0
 10
36.32
 20
0.0000000000000067
 30
0.0
 11
37.920000000000002
 21
0.0000000000000067
 31
0.0
  0
LINE
  5
AF
  8
0
 10
35.359999999999999
 20
0.0000000000000067
 30
0.0
 11
36.32
 21
0.0000000000000083
 31
0.0
  0
LINE
  5
B0
  8
0
 10
35.359999999999999
 20
0.0000000000000067
 30
0.0
 11
36.32
 21
0.0000000000000067
 31
0.0
  0
LINE
  5
B1
  8
0
 10
35.0
 20
0.0000000000000067
 30
0.0
 11
35.359999999999999
 21
0.0000000000000067
 31
0.0
  0
LINE
  5
B2
  8
0
 10
37.920000000000002
 20
-0.0000000000000083
 30
0.0
 11
40.039999999999999
 21
-0.0000000000000083
 31
0.0
  0
LINE
  5
B3
  8
0
 10
37.920000000000002
 20
-0.0000000000000083
 30
0.0
 11
40.039999999999999
 21
-0.00000000000001
 31
0.0
  0
LINE
  5
B4
  8
0
 10
39.048000000000002
 20
-0.00000000000001
 30
0.0
 11
41.927999999999997
 21
-0.00000000000001
 31
0.0
  0
LINE
  5
B5
  8
0
 10
39.048000000000002
 20
-0.0000000000000083
 30
0.0
 11
41.927999999999997
 21
-0.0000000000000083
 31
0.0
  0
LINE
  5
B6
  8
0
 10
37.920000000000002
 20
-0.0000000000000017
 30
0.0
 11
40.039999999999999
 21
-0.0000000000000017
 31
0.0
  0
LINE
  5
B7
  8
0
 10
37.920000000000002
 20
0.0
 30
0.0
 11
40.039999999999999
 21
0.0
 31
0.0
  0
LINE
  5
B8
  8
0
 10
40.039999999999999
 20
-0.00000000000001
 30
0.0
 11
42.439999999999991
 21
-0.00000000000001
 31
0.0
  0
LINE
  5
B9
  8
0
 10
40.039999999999999
 20
-0.0000000000000083
 30
0.0
 11
42.439999999999991
 21
-0.0000000000000083
 31
0.0
  0
LINE
  5
BA
  8
0
 10
40.039999999999999
 20
-0.0000000000000017
 30
0.0
 11
42.439999999999991
 21
-0.0000000000000017
 31
0.0
  0
LINE
  5
BB
  8
0
 10
40.039999999999999
 20
0.0
 30
0.0
 11
42.439999999999991
 21
0.0
 31
0.0
  0
LINE
  5
BC
  8
0
 10
39.048000000000002
 20
-0.0000000000000017
 30
0.0
 11
41.927999999999997
 21
-0.0000000000000017
 31
0.0
  0
LINE
  5
BD
  8
0
 10
39.048000000000002
 20
0.0
 30
0.0
 11
41.927999999999997
 21
0.0
 31
0.0
  0
LINE
  5
BE
  8
0
 10
41.927999999999997
 20
-0.00000000000001
 30
0.0
 11
45.0
 21
-0.00000000000001
 31
0.0
  0
LINE
  5
BF
  8
0
 10
41.927999999999997
 20
-0.0000000000000083
 30
0.0
 11
45.0
 21
-0.0000000000000083
 31
0.0
  0
LINE
  5
C0
  8
0
 10
41.927999999999997
 20
-0.0000000000000017
 30
0.0
 11
45.0
 21
-0.0000000000000017
 31
0.0
  0
LINE
  5
C1
  8
0
 10
41.927999999999997
 20
0.0
 30
0.0
 11
45.0
 21
0.0
 31
0.0
  0
LINE
  5
C2
  8
0
 10
40.039999999999999
 20
0.0000000000000067
 30
0.0
 11
42.439999999999991
 21
0.0000000000000067
 31
0.0
  0
LINE
  5
C3
  8
0
 10
37.920000000000002
 20
0.0000000000000067
 30
0.0
 11
40.039999999999999
 21
0.0000000000000067
 31
0.0
  0
LINE
  5
C4
  8
0
 10
42.439999999999991
 20
-0.00000000000001
 30
0.0
 11
45.0
 21
-0.00000000000001
 31
0.0
  0
LINE
  5
C5
  8
0
 10
42.439999999999991
 20
-0.0000000000000083
 30
0.0
 11
45.0
 21
-0.0000000000000083
 31
0.0
  0
LINE
  5
C6
  8
0
 10
45.0
 20
-0.00000000000001
 30
0.0
 11
48.071999999999989
 21
-0.00000000000001
 31
0.0
  0
LINE
  5
C7
  8
0
 10
45.0
 20
-0.00000000000001
 30
0.0
 11
47.560000000000002
 21
-0.00000000000001
 31
0.0
  0
LINE
  5
C8
  8
0
 10
45.0
 20
-0.0000000000000083
 30
0.0
 11
48.071999999999989
 21
-0.0000000000000083
 31
0.0
  0
LINE
  5
C9
  8
0
 10
45.0
 20
-0.0000000000000083
 30
0.0
 11
47.560000000000002
 21
-0.0000000000000083
 31
0.0
  0
LINE
  5
CA
  8
0
 10
42.439999999999991
 20
-0.0000000000000017
 30
0.0
 11
45.0
 21
-0.0000000000000017
 31
0.0
  0
LINE
  5
CB
  8
0
 10
42.439999999999991
 20
0.0
 30
0.0
 11
45.0
 21
0.0
 31
0.0
  0
LINE
  5
CC
  8
0
 10
45.0
 20
-0.0000000000000017
 30
0.0
 11
48.071999999999989
 21
-0.0000000000000017
 31
0.0
  0
LINE
  5
CD
  8
0
 10
45.0
 20
-0.0000000000000017
 30
0.0
 11
47.560000000000002
 21
-0.0000000000000017
 31
0.0
  0
LINE
  5
CE
  8
0
 10
45.0
 20
0.0
 30
0.0
 11
48.071999999999989
 21
0.0
 31
0.0
  0
LINE
  5
CF
  8
0
 10
45.0
 20
0.0
 30
0.0
 11
47.560000000000002
 21
0.0
 31
0.0
  0
LINE
  5
D0
  8
0
 10
42.439999999999991
 20
0.0000000000000067
 30
0.0
 11
45.0
 21
0.0000000000000067
 31
0.0
  0
LINE
  5
D1
  8
0
 10
41.927999999999997
 20
0.0000000000000067
 30
0.0
 11
45.0
 21
0.0000000000000067
 31
0.0
  0
LINE
  5
D2
  8
0
 10
39.048000000000002
 20
0.0000000000000067
 30
0.0
 11
41.927999999999997
 21
0.0000000000000067
 31
0.0
  0
LINE
  5
D3
  8
0
 10
36.503999999999991
 20
0.0000000000000067
 30
0.0
 11
39.048000000000002
 21
0.0000000000000067
 31
0.0
  0
LINE
  5
D4
  8
0
 10
34.584000000000003
 20
0.0000000000000067
 30
0.0
 11
36.503999999999991
 21
0.0000000000000067
 31
0.0
  0
LINE
  5
D5
  8
0
 10
47.560000000000002
 20
-0.00000000000001
 30
0.0
 11
49.960000000000001
 21
-0.00000000000001
 31
0.0
  0
LINE
  5
D6
  8
0
 10
47.560000000000002
 20
-0.0000000000000083
 30
0.0
 11
49.960000000000001
 21
-0.0000000000000083
 31
0.0
  0
LINE
  5
D7
  8
0
 10
47.560000000000002
 20
-0.0000000000000017
 30
0.0
 11
49.960000000000001
 21
-0.0000000000000017
 31
0.0
  0
LINE
  5
D8
  8
0
 10
47.560000000000002
 20
0.0
 30
0.0
 11
49.960000000000001
 21
0.0
 31
0.0
  0
LINE
  5
D9
  8
0
 10
48.071999999999989
 20
-0.00000000000001
 30
0.0
 11
50.951999999999998
 21
-0.00000000000001
 31
0.0
  0
LINE
  5
DA
  8
0
 10
48.071999999999989
 20
-0.0000000000000083
 30
0.0
 11
50.951999999999998
 21
-0.0000000000000083
 31
0.0
  0
LINE
  5
DB
  8
0
 10
48.071999999999989
 20
-0.0000000000000017
 30
0.0
 11
50.951999999999998
 21
-0.0000000000000017
 31
0.0
  0
LINE
  5
DC
  8
0
 10
49.960000000000001
 20
-0.00000000000001
 30
0.0
 11
52.079999999999998
 21
-0.0000000000000083
 31
0.0
  0
LINE
  5
DD
  8
0
 10
49.960000000000001
 20
-0.0000000000000083
 30
0.0
 11
52.079999999999998
 21
-0.0000000000000083
 31
0.0
  0
LINE
  5
DE
  8
0
 10
50.951999999999998
 20
-0.00000000000001
 30
0.0
 11
53.496000000000002
 21
-0.00000000000001
 31
0.0
  0
LINE
  5
DF
  8
0
 10
50.951999999999998
 20
-0.0000000000000083
 30
0.0
 11
53.496000000000002
 21
-0.0000000000000083
 31
0.0
  0
LINE
  5
E0
  8
0
 10
49.960000000000001
 20
-0.0000000000000017
 30
0.0
 11
52.079999999999998
 21
-0.0000000000000017
 31
0.0
  0
LINE
  5
E1
  8
0
 10
49.960000000000001
 20
0.0
 30
0.0
 11
52.079999999999998
 21
0.0
 31
0.0
  0
LINE
  5
E2
  8
0
 10
50.951999999999998
 20
-0.0000000000000017
 30
0.0
 11
53.496000000000002
 21
-0.0000000000000017
 31
0.0
  0
LINE
  5
E3
  8
0
 10
48.071999999999989
 20
0.0
 30
0.0
 11
50.951999999999998
 21
0.0
 31
0.0
  0
LINE
  5
E4
  8
0
 10
50.951999999999998
 20
0.0
 30
0.0
 11
53.496000000000002
 21
0.0
 31
0.0
  0
LINE
  5
E5
  8
0
 10
47.560000000000002
 20
0.0000000000000067
 30
0.0
 11
49.960000000000001
 21
0.0000000000000067
 31
0.0
  0
LINE
  5
E6
  8
0
 10
49.960000000000001
 20
0.0000000000000067
 30
0.0
 11
52.079999999999998
 21
0.0000000000000067
 31
0.0
  0
LINE
  5
E7
  8
0
 10
45.0
 20
0.0000000000000067
 30
0.0
 11
48.071999999999989
 21
0.0000000000000067
 31
0.0
  0
LINE
  5
E8
  8
0
 10
45.0
 20
0.0000000000000067
 30
0.0
 11
47.560000000000002
 21
0.0000000000000067
 31
0.0
  0
LINE
  5
E9
  8
0
 10
48.071999999999989
 20
0.0000000000000067
 30
0.0
 11
50.951999999999998
 21
0.0000000000000067
 31
0.0
  0
LINE
  5
EA
  8
0
 10
52.079999999999998
 20
-0.0000000000000083
 30
0.0
 11
53.68
 21
-0.0000000000000083
 31
0.0
  0
LINE
  5
EB
  8
0
 10
53.496000000000002
 20
-0.00000000000001
 30
0.0
 11
55.415999999999997
 21
-0.0000000000000083
 31
0.0
  0
LINE
  5
EC
  8
0
 10
53.496000000000002
 20
-0.0000000000000083
 30
0.0
 11
55.415999999999997
 21
-0.0000000000000083
 31
0.0
  0
LINE
  5
ED
  8
0
 10
52.079999999999998
 20
-0.0000000000000017
 30
0.0
 11
53.68
 21
-0.0000000000000017
 31
0.0
  0
LINE
  5
EE
  8
0
 10
52.079999999999998
 20
0.0
 30
0.0
 11
53.68
 21
0.0
 31
0.0
  0
LINE
  5
EF
  8
0
 10
53.496000000000002
 20
-0.0000000000000017
 30
0.0
 11
55.415999999999997
 21
-0.0000000000000017
 31
0.0
  0
LINE
  5
F0
  8
0
 10
53.68
 20
-0.0000000000000083
 30
0.0
 11
54.640000000000001
 21
-0.0000000000000083
 31
0.0
  0
LINE
  5
F1
  8
0
 10
53.68
 20
-0.0000000000000017
 30
0.0
 11
54.640000000000001
 21
-0.0000000000000017
 31
0.0
  0
LINE
  5
F2
  8
0
 10
53.68
 20
0.0
 30
0.0
 11
54.640000000000001
 21
0.0
 31
0.0
  0
LINE
  5
F3
  8
0
 10
53.496000000000002
 20
0.0
 30
0.0
 11
55.415999999999997
 21
0.0
 31
0.0
  0
LINE
  5
F4
  8
0
 10
52.079999999999998
 20
0.0000000000000067
 30
0.0
 11
53.68
 21
0.0000000000000067
 31
0.0
  0
LINE
  5
F5
  8
0
 10
54.640000000000001
 20
-0.0000000000000083
 30
0.0
 11
55.0
 21
-0.0000000000000083
 31
0.0
  0
LINE
  5
F6
  8
0
 10
55.415999999999997
 20
-0.0000000000000083
 30
0.0
 11
56.567999999999998
 21
-0.0000000000000083
 31
0.0
  0
LINE
  5
F7
  8
0
 10
54.640000000000001
 20
-0.0000000000000017
 30
0.0
 11
55.0
 21
0.0
 31
0.0
  0
LINE
  5
F8
  8
0
 10
54.640000000000001
 20
0.0
 30
0.0
 11
55.0
 21
0.0
 31
0.0
  0
LINE
  5
F9
  8
0
 10
55.415999999999997
 20
-0.0000000000000017
 30
0.0
 11
56.567999999999998
 21
-0.0000000000000017
 31
0.0
  0
LINE
  5
FA
  8
0
 10
55.415999999999997
 20
0.0
 30
0.0
 11
56.567999999999998
 21
0.0
 31
0.0
  0
LINE
  5
FB
  8
0
 10
53.68
 20
0.0000000000000067
 30
0.0
 11
54.640000000000001
 21
0.0000000000000067
 31
0.0
  0
LINE
  5
FC
  8
0
 10
54.640000000000001
 20
0.0000000000000067
 30
0.0
 11
55.0
 21
0.0000000000000067
 31
0.0
  0
LINE
  5
FD
  8
0
 10
50.951999999999998
 20
0.0000000000000067
 30
0.0
 11
53.496000000000002
 21
0.0000000000000067
 31
0.0
  0
LINE
  5
FE
  8
0
 10
53.496000000000002
 20
0.0000000000000067
 30
0.0
 11
55.415999999999997
 21
0.0000000000000067
 31
0.0
  0
LINE
  5
FF
  8
0
 10
56.567999999999998
 20
-0.0000000000000083
 30
0.0
 11
57.0
 21
-0.0000000000000083
 31
0.0
  0
LINE
  5
100
  8
0
 10
56.567999999999998
 20
-0.0000000000000017
 30
0.0
 11
57.0
 21
0.0
 31
0.0
  0
LINE
  5
101
  8
0
 10
56.567999999999998
 20
0.0
 30
0.0
 11
57.0
 21
0.0
 31
0.0
  0
LINE
  5
102
  8
0
 10
55.415999999999997
 20
0.0000000000000067
 30
0.0
 11
56.567999999999998
 21
0.0000000000000067
 31
0.0
  0
LINE
  5
103
  8
0
 10
56.567999999999998
 20
0.0000000000000067
 30
0.0
 11
57.0
 21
0.0000000000000067
 31
0.0
  0
LINE
  5
104
  8
0
 10
163.43199999999999
 20
-0.0000000000000083
 30
0.0
 11
164.58399999999989
 21
-0.0000000000000083
 31
0.0
  0
LINE
  5
105
  8
0
 10
163.0
 20
-0.0000000000000083
 30
0.0
 11
163.43199999999999
 21
-0.0000000000000083
 31
0.0
  0
LINE
  5
106
  8
0
 10
163.0
 20
-0.0000000000000083
 30
0.0
 11
163.0
 21
10.0
 31
0.0
  0
LINE
  5
107
  8
0
 10
163.43199999999999
 20
-0.0000000000000017
 30
0.0
 11
164.58399999999989
 21
-0.0000000000000017
 31
0.0
  0
LINE
  5
108
  8
0
 10
163.43199999999999
 20
0.0
 30
0.0
 11
164.58399999999989
 21
0.0
 31
0.0
  0
LINE
  5
109
  8
0
 10
163.0
 20
0.0
 30
0.0
 11
163.43199999999999
 21
0.0
 31
0.0
  0
LINE
  5
10A
  8
0
 10
163.0
 20
0.0
 30
0.0
 11
163.0
 21
10.0
 31
0.0
  0
LINE
  5
10B
  8
0
 10
163.0
 20
0.0
 30
0.0
 11
163.43199999999999
 21
-0.0000000000000017
 31
0.0
  0
LINE
  5
10C
  8
0
 10
164.58399999999989
 20
-0.0000000000000083
 30
0.0
 11
166.50399999999999
 21
-0.0000000000000083
 31
0.0
  0
LINE
  5
10D
  8
0
 10
164.58399999999989
 20
-0.0000000000000083
 30
0.0
 11
166.50399999999999
 21
-0.00000000000001
 31
0.0
  0
LINE
  5
10E
  8
0
 10
164.58399999999989
 20
-0.0000000000000017
 30
0.0
 11
166.50399999999999
 21
-0.0000000000000017
 31
0.0
  0
LINE
  5
10F
  8
0
 10
164.58399999999989
 20
0.0
 30
0.0
 11
166.50399999999999
 21
0.0
 31
0.0
  0
LINE
  5
110
  8
0
 10
165.36000000000001
 20
-0.0000000000000083
 30
0.0
 11
166.31999999999991
 21
-0.0000000000000083
 31
0.0
  0
LINE
  5
111
  8
0
 10
165.0
 20
-0.0000000000000083
 30
0.0
 11
165.36000000000001
 21
-0.0000000000000083
 31
0.0
  0
LINE
  5
112
  8
0
 10
165.36000000000001
 20
-0.0000000000000017
 30
0.0
 11
166.31999999999991
 21
-0.0000000000000017
 31
0.0
  0
LINE
  5
113
  8
0
 10
165.36000000000001
 20
0.0
 30
0.0
 11
166.31999999999991
 21
0.0
 31
0.0
  0
LINE
  5
114
  8
0
 10
165.0
 20
0.0
 30
0.0
 11
165.36000000000001
 21
0.0
 31
0.0
  0
LINE
  5
115
  8
0
 10
165.0
 20
0.0
 30
0.0
 11
165.36000000000001
 21
-0.0000000000000017
 31
0.0
  0
LINE
  5
116
  8
0
 10
166.31999999999991
 20
-0.0000000000000083
 30
0.0
 11
167.9199999999999
 21
-0.0000000000000083
 31
0.0
  0
LINE
  5
117
  8
0
 10
166.50399999999999
 20
-0.00000000000001
 30
0.0
 11
169.04799999999989
 21
-0.00000000000001
 31
0.0
  0
LINE
  5
118
  8
0
 10
166.50399999999999
 20
-0.0000000000000083
 30
0.0
 11
169.04799999999989
 21
-0.0000000000000083
 31
0.0
  0
LINE
  5
119
  8
0
 10
166.31999999999991
 20
-0.0000000000000017
 30
0.0
 11
167.9199999999999
 21
-0.0000000000000017
 31
0.0
  0
LINE
  5
11A
  8
0
 10
166.31999999999991
 20
0.0
 30
0.0
 11
167.9199999999999
 21
0.0
 31
0.0
  0
LINE
  5
11B
  8
0
 10
167.9199999999999
 20
-0.0000000000000083
 30
0.0
 11
170.03999999999991
 21
-0.0000000000000083
 31
0.0
  0
LINE
  5
11C
  8
0
 10
167.9199999999999
 20
-0.0000000000000083
 30
0.0
 11
170.03999999999991
 21
-0.00000000000001
 31
0.0
  0
LINE
  5
11D
  8
0
 10
167.9199999999999
 20
-0.0000000000000017
 30
0.0
 11
170.03999999999991
 21
-0.0000000000000017
 31
0.0
  0
LINE
  5
11E
  8
0
 10
167.9199999999999
 20
0.0
 30
0.0
 11
170.03999999999991
 21
0.0
 31
0.0
  0
LINE
  5
11F
  8
0
 10
166.50399999999999
 20
-0.0000000000000017
 30
0.0
 11
169.04799999999989
 21
-0.0000000000000017
 31
0.0
  0
LINE
  5
120
  8
0
 10
166.50399999999999
 20
0.0
 30
0.0
 11
169.04799999999989
 21
0.0
 31
0.0
  0
LINE
  5
121
  8
0
 10
169.04799999999989
 20
-0.00000000000001
 30
0.0
 11
171.92799999999991
 21
-0.00000000000001
 31
0.0
  0
LINE
  5
122
  8
0
 10
169.04799999999989
 20
-0.0000000000000083
 30
0.0
 11
171.92799999999991
 21
-0.0000000000000083
 31
0.0
  0
LINE
  5
123
  8
0
 10
169.04799999999989
 20
-0.0000000000000017
 30
0.0
 11
171.92799999999991
 21
-0.0000000000000017
 31
0.0
  0
LINE
  5
124
  8
0
 10
169.04799999999989
 20
0.0
 30
0.0
 11
171.92799999999991
 21
0.0
 31
0.0
  0
LINE
  5
125
  8
0
 10
167.9199999999999
 20
0.0000000000000067
 30
0.0
 11
170.03999999999991
 21
0.0000000000000067
 31
0.0
  0
LINE
  5
126
  8
0
 10
166.31999999999991
 20
0.0000000000000067
 30
0.0
 11
167.9199999999999
 21
0.0000000000000067
 31
0.0
  0
LINE
  5
127
  8
0
 10
165.36000000000001
 20
0.0000000000000067
 30
0.0
 11
166.31999999999991
 21
0.0000000000000083
 31
0.0
  0
LINE
  5
128
  8
0
 10
165.36000000000001
 20
0.0000000000000067
 30
0.0
 11
166.31999999999991
 21
0.0000000000000067
 31
0.0
  0
LINE
  5
129
  8
0
 10
165.0
 20
0.0000000000000067
 30
0.0
 11
165.36000000000001
 21
0.0000000000000067
 31
0.0
  0
LINE
  5
12A
  8
0
 10
170.03999999999991
 20
-0.00000000000001
 30
0.0
 11
172.43999999999991
 21
-0.00000000000001
 31
0.0
  0
LINE
  5
12B
  8
0
 10
170.03999999999991
 20
-0.0000000000000083
 30
0.0
 11
172.43999999999991
 21
-0.0000000000000083
 31
0.0
  0
LINE
  5
12C
  8
0
 10
171.92799999999991
 20
-0.00000000000001
 30
0.0
 11
175.0
 21
-0.00000000000001
 31
0.0
  0
LINE
  5
12D
  8
0
 10
171.92799999999991
 20
-0.0000000000000083
 30
0.0
 11
175.0
 21
-0.0000000000000083
 31
0.0
  0
LINE
  5
12E
  8
0
 10
170.03999999999991
 20
-0.0000000000000017
 30
0.0
 11
172.43999999999991
 21
-0.0000000000000017
 31
0.0
  0
LINE
  5
12F
  8
0
 10
170.03999999999991
 20
0.0
 30
0.0
 11
172.43999999999991
 21
0.0
 31
0.0
  0
LINE
  5
130
  8
0
 10
172.43999999999991
 20
-0.00000000000001
 30
0.0
 11
175.0
 21
-0.00000000000001
 31
0.0
  0
LINE
  5
131
  8
0
 10
172.43999999999991
 20
-0.0000000000000083
 30
0.0
 11
175.0
 21
-0.0000000000000083
 31
0.0
  0
LINE
  5
132
  8
0
 10
172.43999999999991
 20
-0.0000000000000017
 30
0.0
 11
175.0
 21
-0.0000000000000017
 31
0.0
  0
LINE
  5
133
  8
0
 10
172.43999999999991
 20
0.0
 30
0.0
 11
175.0
 21
0.0
 31
0.0
  0
LINE
  5
134
  8
0
 10
171.92799999999991
 20
-0.0000000000000017
 30
0.0
 11
175.0
 21
-0.0000000000000017
 31
0.0
  0
LINE
  5
135
  8
0
 10
171.92799999999991
 20
0.0
 30
0.0
 11
175.0
 21
0.0
 31
0.0
  0
LINE
  5
136
  8
0
 10
175.0
 20
-0.00000000000001
 30
0.0
 11
178.072
 21
-0.00000000000001
 31
0.0
  0
LINE
  5
137
  8
0
 10
175.0
 20
-0.00000000000001
 30
0.0
 11
177.56
 21
-0.00000000000001
 31
0.0
  0
LINE
  5
138
  8
0
 10
175.0
 20
-0.0000000000000083
 30
0.0
 11
178.072
 21
-0.0000000000000083
 31
0.0
  0
LINE
  5
139
  8
0
 10
175.0
 20
-0.0000000000000083
 30
0.0
 11
177.56
 21
-0.0000000000000083
 31
0.0
  0
LINE
  5
13A
  8
0
 10
177.56
 20
-0.00000000000001
 30
0.0
 11
179.96000000000001
 21
-0.00000000000001
 31
0.0
  0
LINE
  5
13B
  8
0
 10
177.56
 20
-0.0000000000000083
 30
0.0
 11
179.96000000000001
 21
-0.0000000000000083
 31
0.0
  0
LINE
  5
13C
  8
0
 10
177.56
 20
-0.0000000000000017
 30
0.0
 11
179.96000000000001
 21
-0.0000000000000017
 31
0.0
  0
LINE
  5
13D
  8
0
 10
177.56
 20
0.0
 30
0.0
 11
179.96000000000001
 21
0.0
 31
0.0
  0
LINE
  5
13E
  8
0
 10
175.0
 20
-0.0000000000000017
 30
0.0
 11
178.072
 21
-0.0000000000000017
 31
0.0
  0
LINE
  5
13F
  8
0
 10
175.0
 20
-0.0000000000000017
 30
0.0
 11
177.56
 21
-0.0000000000000017
 31
0.0
  0
LINE
  5
140
  8
0
 10
175.0
 20
0.0
 30
0.0
 11
178.072
 21
0.0
 31
0.0
  0
LINE
  5
141
  8
0
 10
175.0
 20
0.0
 30
0.0
 11
177.56
 21
0.0
 31
0.0
  0
LINE
  5
142
  8
0
 10
172.43999999999991
 20
0.0000000000000067
 30
0.0
 11
175.0
 21
0.0000000000000067
 31
0.0
  0
LINE
  5
143
  8
0
 10
170.03999999999991
 20
0.0000000000000067
 30
0.0
 11
172.43999999999991
 21
0.0000000000000067
 31
0.0
  0
LINE
  5
144
  8
0
 10
178.072
 20
-0.00000000000001
 30
0.0
 11
180.952
 21
-0.00000000000001
 31
0.0
  0
LINE
  5
145
  8
0
 10
178.072
 20
-0.0000000000000083
 30
0.0
 11
180.952
 21
-0.0000000000000083
 31
0.0
  0
LINE
  5
146
  8
0
 10
178.072
 20
-0.0000000000000017
 30
0.0
 11
180.952
 21
-0.0000000000000017
 31
0.0
  0
LINE
  5
147
  8
0
 10
178.072
 20
0.0
 30
0.0
 11
180.952
 21
0.0
 31
0.0
  0
LINE
  5
148
  8
0
 10
177.56
 20
0.0000000000000067
 30
0.0
 11
179.96000000000001
 21
0.0000000000000067
 31
0.0
  0
LINE
  5
149
  8
0
 10
171.92799999999991
 20
0.0000000000000067
 30
0.0
 11
175.0
 21
0.0000000000000067
 31
0.0
  0
LINE
  5
14A
  8
0
 10
169.04799999999989
 20
0.0000000000000067
 30
0.0
 11
171.92799999999991
 21
0.0000000000000067
 31
0.0
  0
LINE
  5
14B
  8
0
 10
166.50399999999999
 20
0.0000000000000067
 30
0.0
 11
169.04799999999989
 21
0.0000000000000067
 31
0.0
  0
LINE
  5
14C
  8
0
 10
164.58399999999989
 20
0.0000000000000067
 30
0.0
 11
166.50399999999999
 21
0.0000000000000067
 31
0.0
  0
LINE
  5
14D
  8
0
 10
175.0
 20
0.0000000000000067
 30
0.0
 11
178.072
 21
0.0000000000000067
 31
0.0
  0
LINE
  5
14E
  8
0
 10
175.0
 20
0.0000000000000067
 30
0.0
 11
177.56
 21
0.0000000000000067
 31
0.0
  0
LINE
  5
14F
  8
0
 10
179.96000000000001
 20
-0.00000000000001
 30
0.0
 11
182.08000000000001
 21
-0.0000000000000083
 31
0.0
  0
LINE
  5
150
  8
0
 10
179.96000000000001
 20
-0.0000000000000083
 30
0.0
 11
182.08000000000001
 21
-0.0000000000000083
 31
0.0
  0
LINE
  5
151
  8
0
 10
179.96000000000001
 20
-0.0000000000000017
 30
0.0
 11
182.08000000000001
 21
-0.0000000000000017
 31
0.0
  0
LINE
  5
152
  8
0
 10
179.96000000000001
 20
0.0
 30
0.0
 11
182.08000000000001
 21
0.0
 31
0.0
  0
LINE
  5
153
  8
0
 10
180.952
 20
-0.00000000000001
 30
0.0
 11
183.4959999999999
 21
-0.00000000000001
 31
0.0
  0
LINE
  5
154
  8
0
 10
180.952
 20
-0.0000000000000083
 30
0.0
 11
183.4959999999999
 21
-0.0000000000000083
 31
0.0
  0
LINE
  5
155
  8
0
 10
180.952
 20
-0.0000000000000017
 30
0.0
 11
183.4959999999999
 21
-0.0000000000000017
 31
0.0
  0
LINE
  5
156
  8
0
 10
182.08000000000001
 20
-0.0000000000000083
 30
0.0
 11
183.68000000000001
 21
-0.0000000000000083
 31
0.0
  0
LINE
  5
157
  8
0
 10
183.4959999999999
 20
-0.00000000000001
 30
0.0
 11
185.416
 21
-0.0000000000000083
 31
0.0
  0
LINE
  5
158
  8
0
 10
183.4959999999999
 20
-0.0000000000000083
 30
0.0
 11
185.416
 21
-0.0000000000000083
 31
0.0
  0
LINE
  5
159
  8
0
 10
182.08000000000001
 20
-0.0000000000000017
 30
0.0
 11
183.68000000000001
 21
-0.0000000000000017
 31
0.0
  0
LINE
  5
15A
  8
0
 10
182.08000000000001
 20
0.0
 30
0.0
 11
183.68000000000001
 21
0.0
 31
0.0
  0
LINE
  5
15B
  8
0
 10
183.4959999999999
 20
-0.0000000000000017
 30
0.0
 11
185.416
 21
-0.0000000000000017
 31
0.0
  0
LINE
  5
15C
  8
0
 10
180.952
 20
0.0
 30
0.0
 11
183.4959999999999
 21
0.0
 31
0.0
  0
LINE
  5
15D
  8
0
 10
183.4959999999999
 20
0.0
 30
0.0
 11
185.416
 21
0.0
 31
0.0
  0
LINE
  5
15E
  8
0
 10
179.96000000000001
 20
0.0000000000000067
 30
0.0
 11
182.08000000000001
 21
0.0000000000000067
 31
0.0
  0
LINE
  5
15F
  8
0
 10
182.08000000000001
 20
0.0000000000000067
 30
0.0
 11
183.68000000000001
 21
0.0000000000000067
 31
0.0
  0
LINE
  5
160
  8
0
 10
178.072
 20
0.0000000000000067
 30
0.0
 11
180.952
 21
0.0000000000000067
 31
0.0
  0
LINE
  5
161
  8
0
 10
180.952
 20
0.0000000000000067
 30
0.0
 11
183.4959999999999
 21
0.0000000000000067
 31
0.0
  0
LINE
  5
162
  8
0
 10
183.68000000000001
 20
-0.0000000000000083
 30
0.0
 11
184.6399999999999
 21
-0.0000000000000083
 31
0.0
  0
LINE
  5
163
  8
0
 10
183.68000000000001
 20
-0.0000000000000017
 30
0.0
 11
184.6399999999999
 21
-0.0000000000000017
 31
0.0
  0
LINE
  5
164
  8
0
 10
183.68000000000001
 20
0.0
 30
0.0
 11
184.6399999999999
 21
0.0
 31
0.0
  0
LINE
  5
165
  8
0
 10
184.6399999999999
 20
-0.0000000000000083
 30
0.0
 11
185.0
 21
-0.0000000000000083
 31
0.0
  0
LINE
  5
166
  8
0
 10
185.416
 20
-0.0000000000000083
 30
0.0
 11
186.5679999999999
 21
-0.0000000000000083
 31
0.0
  0
LINE
  5
167
  8
0
 10
184.6399999999999
 20
-0.0000000000000017
 30
0.0
 11
185.0
 21
0.0
 31
0.0
  0
LINE
  5
168
  8
0
 10
184.6399999999999
 20
0.0
 30
0.0
 11
185.0
 21
0.0
 31
0.0
  0
LINE
  5
169
  8
0
 10
185.416
 20
-0.0000000000000017
 30
0.0
 11
186.5679999999999
 21
-0.0000000000000017
 31
0.0
  0
LINE
  5
16A
  8
0
 10
186.5679999999999
 20
-0.0000000000000083
 30
0.0
 11
187.0
 21
-0.0000000000000083
 31
0.0
  0
LINE
  5
16B
  8
0
 10
186.5679999999999
 20
-0.0000000000000017
 30
0.0
 11
187.0
 21
0.0
 31
0.0
  0
LINE
  5
16C
  8
0
 10
185.416
 20
0.0
 30
0.0
 11
186.5679999999999
 21
0.0
 31
0.0
  0
LINE
  5
16D
  8
0
 10
186.5679999999999
 20
0.0
 30
0.0
 11
187.0
 21
0.0
 31
0.0
  0
LINE
  5
16E
  8
0
 10
183.68000000000001
 20
0.0000000000000067
 30
0.0
 11
184.6399999999999
 21
0.0000000000000067
 31
0.0
  0
LINE
  5
16F
  8
0
 10
184.6399999999999
 20
0.0000000000000067
 30
0.0
 11
185.0
 21
0.0000000000000067
 31
0.0
  0
LINE
  5
170
  8
0
 10
183.4959999999999
 20
0.0000000000000067
 30
0.0
 11
185.416
 21
0.0000000000000067
 31
0.0
  0
LINE
  5
171
  8
0
 10
185.416
 20
0.0000000000000067
 30
0.0
 11
186.5679999999999
 21
0.0000000000000067
 31
0.0
  0
LINE
  5
172
  8
0
 10
293.0
 20
-0.0000000000000083
 30
0.0
 11
293.0
 21
10.0
 31
0.0
  0
LINE
  5
173
  8
0
 10
293.0
 20
-0.0000000000000083
 30
0.0
 11
293.4319999999999
 21
-0.0000000000000083
 31
0.0
  0
LINE
  5
174
  8
0
 10
293.0
 20
0.0
 30
0.0
 11
293.0
 21
10.0
 31
0.0
  0
LINE
  5
175
  8
0
 10
293.0
 20
0.0
 30
0.0
 11
293.4319999999999
 21
0.0
 31
0.0
  0
LINE
  5
176
  8
0
 10
293.0
 20
0.0
 30
0.0
 11
293.4319999999999
 21
-0.0000000000000017
 31
0.0
  0
LINE
  5
177
  8
0
 10
186.5679999999999
 20
0.0000000000000067
 30
0.0
 11
187.0
 21
0.0000000000000067
 31
0.0
  0
LINE
  5
178
  8
0
 10
187.0
 20
0.0000000000000067
 30
0.0
 11
187.0
 21
10.0
 31
0.0
  0
LINE
  5
179
  8
0
 10
163.43199999999999
 20
0.0000000000000067
 30
0.0
 11
164.58399999999989
 21
0.0000000000000083
 31
0.0
  0
LINE
  5
17A
  8
0
 10
163.43199999999999
 20
0.0000000000000067
 30
0.0
 11
164.58399999999989
 21
0.0000000000000067
 31
0.0
  0
LINE
  5
17B
  8
0
 10
163.0
 20
0.0000000000000067
 30
0.0
 11
163.43199999999999
 21
0.0000000000000067
 31
0.0
  0
LINE
  5
17C
  8
0
 10
163.0
 20
0.0000000000000067
 30
0.0
 11
163.0
 21
10.0
 31
0.0
  0
LINE
  5
17D
  8
0
 10
294.584
 20
-0.0000000000000083
 30
0.0
 11
296.50400000000002
 21
-0.0000000000000083
 31
0.0
  0
LINE
  5
17E
  8
0
 10
294.584
 20
-0.0000000000000083
 30
0.0
 11
296.50400000000002
 21
-0.00000000000001
 31
0.0
  0
LINE
  5
17F
  8
0
 10
293.4319999999999
 20
-0.0000000000000083
 30
0.0
 11
294.584
 21
-0.0000000000000083
 31
0.0
  0
LINE
  5
180
  8
0
 10
294.584
 20
-0.0000000000000017
 30
0.0
 11
296.50400000000002
 21
-0.0000000000000017
 31
0.0
  0
LINE
  5
181
  8
0
 10
293.4319999999999
 20
-0.0000000000000017
 30
0.0
 11
294.584
 21
-0.0000000000000017
 31
0.0
  0
LINE
  5
182
  8
0
 10
294.584
 20
0.0
 30
0.0
 11
296.50400000000002
 21
0.0
 31
0.0
  0
LINE
  5
183
  8
0
 10
293.4319999999999
 20
0.0
 30
0.0
 11
294.584
 21
0.0
 31
0.0
  0
LINE
  5
184
  8
0
 10
295.36000000000001
 20
-0.0000000000000083
 30
0.0
 11
296.31999999999999
 21
-0.0000000000000083
 31
0.0
  0
LINE
  5
185
  8
0
 10
295.0
 20
-0.0000000000000083
 30
0.0
 11
295.36000000000001
 21
-0.0000000000000083
 31
0.0
  0
LINE
  5
186
  8
0
 10
295.36000000000001
 20
-0.0000000000000017
 30
0.0
 11
296.31999999999999
 21
-0.0000000000000017
 31
0.0
  0
LINE
  5
187
  8
0
 10
295.36000000000001
 20
0.0
 30
0.0
 11
296.31999999999999
 21
0.0
 31
0.0
  0
LINE
  5
188
  8
0
 10
295.0
 20
0.0
 30
0.0
 11
295.36000000000001
 21
0.0
 31
0.0
  0
LINE
  5
189
  8
0
 10
295.0
 20
0.0
 30
0.0
 11
295.36000000000001
 21
-0.0000000000000017
 31
0.0
  0
LINE
  5
18A
  8
0
 10
296.31999999999999
 20
-0.0000000000000083
 30
0.0
 11
297.92000000000002
 21
-0.0000000000000083
 31
0.0
  0
LINE
  5
18B
  8
0
 10
296.50400000000002
 20
-0.00000000000001
 30
0.0
 11
299.048
 21
-0.00000000000001
 31
0.0
  0
LINE
  5
18C
  8
0
 10
296.50400000000002
 20
-0.0000000000000083
 30
0.0
 11
299.048
 21
-0.0000000000000083
 31
0.0
  0
LINE
  5
18D
  8
0
 10
296.31999999999999
 20
-0.0000000000000017
 30
0.0
 11
297.92000000000002
 21
-0.0000000000000017
 31
0.0
  0
LINE
  5
18E
  8
0
 10
296.31999999999999
 20
0.0
 30
0.0
 11
297.92000000000002
 21
0.0
 31
0.0
  0
LINE
  5
18F
  8
0
 10
297.92000000000002
 20
-0.0000000000000083
 30
0.0
 11
300.04000000000002
 21
-0.0000000000000083
 31
0.0
  0
LINE
  5
190
  8
0
 10
297.92000000000002
 20
-0.0000000000000083
 30
0.0
 11
300.04000000000002
 21
-0.00000000000001
 31
0.0
  0
LINE
  5
191
  8
0
 10
297.92000000000002
 20
-0.0000000000000017
 30
0.0
 11
300.04000000000002
 21
-0.0000000000000017
 31
0.0
  0
LINE
  5
192
  8
0
 10
297.92000000000002
 20
0.0
 30
0.0
 11
300.04000000000002
 21
0.0
 31
0.0
  0
LINE
  5
193
  8
0
 10
296.50400000000002
 20
-0.0000000000000017
 30
0.0
 11
299.048
 21
-0.0000000000000017
 31
0.0
  0
LINE
  5
194
  8
0
 10
296.50400000000002
 20
0.0
 30
0.0
 11
299.048
 21
0.0
 31
0.0
  0
LINE
  5
195
  8
0
 10
299.048
 20
-0.00000000000001
 30
0.0
 11
301.928
 21
-0.00000000000001
 31
0.0
  0
LINE
  5
196
  8
0
 10
299.048
 20
-0.0000000000000083
 30
0.0
 11
301.928
 21
-0.0000000000000083
 31
0.0
  0
LINE
  5
197
  8
0
 10
299.048
 20
-0.0000000000000017
 30
0.0
 11
301.928
 21
-0.0000000000000017
 31
0.0
  0
LINE
  5
198
  8
0
 10
299.048
 20
0.0
 30
0.0
 11
301.928
 21
0.0
 31
0.0
  0
LINE
  5
199
  8
0
 10
297.92000000000002
 20
0.0000000000000067
 30
0.0
 11
300.04000000000002
 21
0.0000000000000067
 31
0.0
  0
LINE
  5
19A
  8
0
 10
296.31999999999999
 20
0.0000000000000067
 30
0.0
 11
297.92000000000002
 21
0.0000000000000067
 31
0.0
  0
LINE
  5
19B
  8
0
 10
295.36000000000001
 20
0.0000000000000067
 30
0.0
 11
296.31999999999999
 21
0.0000000000000083
 31
0.0
  0
LINE
  5
19C
  8
0
 10
295.36000000000001
 20
0.0000000000000067
 30
0.0
 11
296.31999999999999
 21
0.0000000000000067
 31
0.0
  0
LINE
  5
19D
  8
0
 10
295.0
 20
0.0000000000000067
 30
0.0
 11
295.36000000000001
 21
0.0000000000000067
 31
0.0
  0
LINE
  5
19E
  8
0
 10
300.04000000000002
 20
-0.00000000000001
 30
0.0
 11
302.43999999999988
 21
-0.00000000000001
 31
0.0
  0
LINE
  5
19F
  8
0
 10
300.04000000000002
 20
-0.0000000000000083
 30
0.0
 11
302.43999999999988
 21
-0.0000000000000083
 31
0.0
  0
LINE
  5
1A0
  8
0
 10
300.04000000000002
 20
-0.0000000000000017
 30
0.0
 11
302.43999999999988
 21
-0.0000000000000017
 31
0.0
  0
LINE
  5
1A1
  8
0
 10
300.04000000000002
 20
0.0
 30
0.0
 11
302.43999999999988
 21
0.0
 31
0.0
  0
LINE
  5
1A2
  8
0
 10
301.928
 20
-0.00000000000001
 30
0.0
 11
305.0
 21
-0.00000000000001
 31
0.0
  0
LINE
  5
1A3
  8
0
 10
301.928
 20
-0.0000000000000083
 30
0.0
 11
305.0
 21
-0.0000000000000083
 31
0.0
  0
LINE
  5
1A4
  8
0
 10
301.928
 20
-0.0000000000000017
 30
0.0
 11
305.0
 21
-0.0000000000000017
 31
0.0
  0
LINE
  5
1A5
  8
0
 10
302.43999999999988
 20
-0.00000000000001
 30
0.0
 11
305.0
 21
-0.00000000000001
 31
0.0
  0
LINE
  5
1A6
  8
0
 10
302.43999999999988
 20
-0.0000000000000083
 30
0.0
 11
305.0
 21
-0.0000000000000083
 31
0.0
  0
LINE
  5
1A7
  8
0
 10
305.0
 20
-0.00000000000001
 30
0.0
 11
308.07199999999989
 21
-0.00000000000001
 31
0.0
  0
LINE
  5
1A8
  8
0
 10
305.0
 20
-0.00000000000001
 30
0.0
 11
307.56
 21
-0.00000000000001
 31
0.0
  0
LINE
  5
1A9
  8
0
 10
307.56
 20
-0.00000000000001
 30
0.0
 11
309.95999999999992
 21
-0.00000000000001
 31
0.0
  0
LINE
  5
1AA
  8
0
 10
307.56
 20
-0.0000000000000083
 30
0.0
 11
309.95999999999992
 21
-0.0000000000000083
 31
0.0
  0
LINE
  5
1AB
  8
0
 10
305.0
 20
-0.0000000000000083
 30
0.0
 11
308.07199999999989
 21
-0.0000000000000083
 31
0.0
  0
LINE
  5
1AC
  8
0
 10
305.0
 20
-0.0000000000000083
 30
0.0
 11
307.56
 21
-0.0000000000000083
 31
0.0
  0
LINE
  5
1AD
  8
0
 10
307.56
 20
-0.0000000000000017
 30
0.0
 11
309.95999999999992
 21
-0.0000000000000017
 31
0.0
  0
LINE
  5
1AE
  8
0
 10
302.43999999999988
 20
-0.0000000000000017
 30
0.0
 11
305.0
 21
-0.0000000000000017
 31
0.0
  0
LINE
  5
1AF
  8
0
 10
302.43999999999988
 20
0.0
 30
0.0
 11
305.0
 21
0.0
 31
0.0
  0
LINE
  5
1B0
  8
0
 10
307.56
 20
0.0
 30
0.0
 11
309.95999999999992
 21
0.0
 31
0.0
  0
LINE
  5
1B1
  8
0
 10
305.0
 20
-0.0000000000000017
 30
0.0
 11
308.07199999999989
 21
-0.0000000000000017
 31
0.0
  0
LINE
  5
1B2
  8
0
 10
305.0
 20
-0.0000000000000017
 30
0.0
 11
307.56
 21
-0.0000000000000017
 31
0.0
  0
LINE
  5
1B3
  8
0
 10
301.928
 20
0.0
 30
0.0
 11
305.0
 21
0.0
 31
0.0
  0
LINE
  5
1B4
  8
0
 10
305.0
 20
0.0
 30
0.0
 11
308.07199999999989
 21
0.0
 31
0.0
  0
LINE
  5
1B5
  8
0
 10
305.0
 20
0.0
 30
0.0
 11
307.56
 21
0.0
 31
0.0
  0
LINE
  5
1B6
  8
0
 10
308.07199999999989
 20
-0.00000000000001
 30
0.0
 11
310.95199999999988
 21
-0.00000000000001
 31
0.0
  0
LINE
  5
1B7
  8
0
 10
308.07199999999989
 20
-0.0000000000000083
 30
0.0
 11
310.95199999999988
 21
-0.0000000000000083
 31
0.0
  0
LINE
  5
1B8
  8
0
 10
308.07199999999989
 20
-0.0000000000000017
 30
0.0
 11
310.95199999999988
 21
-0.0000000000000017
 31
0.0
  0
LINE
  5
1B9
  8
0
 10
308.07199999999989
 20
0.0
 30
0.0
 11
310.95199999999988
 21
0.0
 31
0.0
  0
LINE
  5
1BA
  8
0
 10
307.56
 20
0.0000000000000067
 30
0.0
 11
309.95999999999992
 21
0.0000000000000067
 31
0.0
  0
LINE
  5
1BB
  8
0
 10
302.43999999999988
 20
0.0000000000000067
 30
0.0
 11
305.0
 21
0.0000000000000067
 31
0.0
  0
LINE
  5
1BC
  8
0
 10
300.04000000000002
 20
0.0000000000000067
 30
0.0
 11
302.43999999999988
 21
0.0000000000000067
 31
0.0
  0
LINE
  5
1BD
  8
0
 10
305.0
 20
0.0000000000000067
 30
0.0
 11
308.07199999999989
 21
0.0000000000000067
 31
0.0
  0
LINE
  5
1BE
  8
0
 10
305.0
 20
0.0000000000000067
 30
0.0
 11
307.56
 21
0.0000000000000067
 31
0.0
  0
LINE
  5
1BF
  8
0
 10
309.95999999999992
 20
-0.00000000000001
 30
0.0
 11
312.07999999999998
 21
-0.0000000000000083
 31
0.0
  0
LINE
  5
1C0
  8
0
 10
309.95999999999992
 20
-0.0000000000000083
 30
0.0
 11
312.07999999999998
 21
-0.0000000000000083
 31
0.0
  0
LINE
  5
1C1
  8
0
 10
309.95999999999992
 20
-0.0000000000000017
 30
0.0
 11
312.07999999999998
 21
-0.0000000000000017
 31
0.0
  0
LINE
  5
1C2
  8
0
 10
309.95999999999992
 20
0.0
 30
0.0
 11
312.07999999999998
 21
0.0
 31
0.0
  0
LINE
  5
1C3
  8
0
 10
310.95199999999988
 20
-0.00000000000001
 30
0.0
 11
313.49599999999992
 21
-0.00000000000001
 31
0.0
  0
LINE
  5
1C4
  8
0
 10
310.95199999999988
 20
-0.0000000000000083
 30
0.0
 11
313.49599999999992
 21
-0.0000000000000083
 31
0.0
  0
LINE
  5
1C5
  8
0
 10
310.95199999999988
 20
-0.0000000000000017
 30
0.0
 11
313.49599999999992
 21
-0.0000000000000017
 31
0.0
  0
LINE
  5
1C6
  8
0
 10
312.07999999999998
 20
-0.0000000000000083
 30
0.0
 11
313.68000000000001
 21
-0.0000000000000083
 31
0.0
  0
LINE
  5
1C7
  8
0
 10
313.49599999999992
 20
-0.00000000000001
 30
0.0
 11
315.416
 21
-0.0000000000000083
 31
0.0
  0
LINE
  5
1C8
  8
0
 10
313.49599999999992
 20
-0.0000000000000083
 30
0.0
 11
315.416
 21
-0.0000000000000083
 31
0.0
  0
LINE
  5
1C9
  8
0
 10
312.07999999999998
 20
-0.0000000000000017
 30
0.0
 11
313.68000000000001
 21
-0.0000000000000017
 31
0.0
  0
LINE
  5
1CA
  8
0
 10
312.07999999999998
 20
0.0
 30
0.0
 11
313.68000000000001
 21
0.0
 31
0.0
  0
LINE
  5
1CB
  8
0
 10
313.49599999999992
 20
-0.0000000000000017
 30
0.0
 11
315.416
 21
-0.0000000000000017
 31
0.0
  0
LINE
  5
1CC
  8
0
 10
310.95199999999988
 20
0.0
 30
0.0
 11
313.49599999999992
 21
0.0
 31
0.0
  0
LINE
  5
1CD
  8
0
 10
313.49599999999992
 20
0.0
 30
0.0
 11
315.416
 21
0.0
 31
0.0
  0
LINE
  5
1CE
  8
0
 10
309.95999999999992
 20
0.0000000000000067
 30
0.0
 11
312.07999999999998
 21
0.0000000000000067
 31
0.0
  0
LINE
  5
1CF
  8
0
 10
312.07999999999998
 20
0.0000000000000067
 30
0.0
 11
313.68000000000001
 21
0.0000000000000067
 31
0.0
  0
LINE
  5
1D0
  8
0
 10
308.07199999999989
 20
0.0000000000000067
 30
0.0
 11
310.95199999999988
 21
0.0000000000000067
 31
0.0
  0
LINE
  5
1D1
  8
0
 10
310.95199999999988
 20
0.0000000000000067
 30
0.0
 11
313.49599999999992
 21
0.0000000000000067
 31
0.0
  0
LINE
  5
1D2
  8
0
 10
313.68000000000001
 20
-0.0000000000000083
 30
0.0
 11
314.63999999999987
 21
-0.0000000000000083
 31
0.0
  0
LINE
  5
1D3
  8
0
 10
313.68000000000001
 20
-0.0000000000000017
 30
0.0
 11
314.63999999999987
 21
-0.0000000000000017
 31
0.0
  0
LINE
  5
1D4
  8
0
 10
313.68000000000001
 20
0.0
 30
0.0
 11
314.63999999999987
 21
0.0
 31
0.0
  0
LINE
  5
1D5
  8
0
 10
314.63999999999987
 20
-0.0000000000000083
 30
0.0
 11
315.0
 21
-0.0000000000000083
 31
0.0
  0
LINE
  5
1D6
  8
0
 10
315.416
 20
-0.0000000000000083
 30
0.0
 11
316.56799999999998
 21
-0.0000000000000083
 31
0.0
  0
LINE
  5
1D7
  8
0
 10
314.63999999999987
 20
-0.0000000000000017
 30
0.0
 11
315.0
 21
0.0
 31
0.0
  0
LINE
  5
1D8
  8
0
 10
314.63999999999987
 20
0.0
 30
0.0
 11
315.0
 21
0.0
 31
0.0
  0
LINE
  5
1D9
  8
0
 10
315.416
 20
-0.0000000000000017
 30
0.0
 11
316.56799999999998
 21
-0.0000000000000017
 31
0.0
  0
LINE
  5
1DA
  8
0
 10
316.56799999999998
 20
-0.0000000000000083
 30
0.0
 11
317.0
 21
-0.0000000000000083
 31
0.0
  0
LINE
  5
1DB
  8
0
 10
316.56799999999998
 20
-0.0000000000000017
 30
0.0
 11
317.0
 21
0.0
 31
0.0
  0
LINE
  5
1DC
  8
0
 10
315.416
 20
0.0
 30
0.0
 11
316.56799999999998
 21
0.0
 31
0.0
  0
LINE
  5
1DD
  8
0
 10
316.56799999999998
 20
0.0
 30
0.0
 11
317.0
 21
0.0
 31
0.0
  0
LINE
  5
1DE
  8
0
 10
313.68000000000001
 20
0.0000000000000067
 30
0.0
 11
314.63999999999987
 21
0.0000000000000067
 31
0.0
  0
LINE
  5
1DF
  8
0
 10
314.63999999999987
 20
0.0000000000000067
 30
0.0
 11
315.0
 21
0.0000000000000067
 31
0.0
  0
LINE
  5
1E0
  8
0
 10
313.49599999999992
 20
0.0000000000000067
 30
0.0
 11
315.416
 21
0.0000000000000067
 31
0.0
  0
LINE
  5
1E1
  8
0
 10
315.416
 20
0.0000000000000067
 30
0.0
 11
316.56799999999998
 21
0.0000000000000067
 31
0.0
  0
LINE
  5
1E2
  8
0
 10
317.0
 20
0.0000000000000067
 30
0.0
 11
317.0
 21
10.0
 31
0.0
  0
LINE
  5
1E3
  8
0
 10
301.928
 20
0.0000000000000067
 30
0.0
 11
305.0
 21
0.0000000000000067
 31
0.0
  0
LINE
  5
1E4
  8
0
 10
299.048
 20
0.0000000000000067
 30
0.0
 11
301.928
 21
0.0000000000000067
 31
0.0
  0
LINE
  5
1E5
  8
0
 10
296.50400000000002
 20
0.0000000000000067
 30
0.0
 11
299.048
 21
0.0000000000000067
 31
0.0
  0
LINE
  5
1E6
  8
0
 10
294.584
 20
0.0000000000000067
 30
0.0
 11
296.50400000000002
 21
0.0000000000000067
 31
0.0
  0
LINE
  5
1E7
  8
0
 10
293.4319999999999
 20
0.0000000000000067
 30
0.0
 11
294.584
 21
0.0000000000000083
 31
0.0
  0
LINE
  5
1E8
  8
0
 10
293.4319999999999
 20
0.0000000000000067
 30
0.0
 11
294.584
 21
0.0000000000000067
 31
0.0
  0
LINE
  5
1E9
  8
0
 10
293.0
 20
0.0000000000000067
 30
0.0
 11
293.0
 21
10.0
 31
0.0
  0
LINE
  5
1EA
  8
0
 10
293.0
 20
0.0000000000000067
 30
0.0
 11
293.4319999999999
 21
0.0000000000000067
 31
0.0
  0
LINE
  5
1EB
  8
0
 10
316.56799999999998
 20
0.0000000000000067
 30
0.0
 11
317.0
 21
0.0000000000000067
 31
0.0
  0
LINE
  5
1EC
  8
0
 10
57.0
 20
0.0000000000000067
 30
0.0
 11
57.0
 21
10.0
 31
0.0
  0
LINE
  5
1ED
  8
0
 10
36.32
 20
0.0000000000000083
 30
0.0
 11
37.920000000000002
 21
0.0000000000000083
 31
0.0
  0
LINE
  5
1EE
  8
0
 10
40.039999999999999
 20
0.0000000000000083
 30
0.0
 11
42.439999999999991
 21
0.0000000000000083
 31
0.0
  0
LINE
  5
1EF
  8
0
 10
37.920000000000002
 20
0.0000000000000083
 30
0.0
 11
40.039999999999999
 21
0.0000000000000083
 31
0.0
  0
LINE
  5
1F0
  8
0
 10
47.560000000000002
 20
0.0000000000000083
 30
0.0
 11
49.960000000000001
 21
0.0000000000000083
 31
0.0
  0
LINE
  5
1F1
  8
0
 10
42.439999999999991
 20
0.0000000000000083
 30
0.0
 11
45.0
 21
0.0000000000000083
 31
0.0
  0
LINE
  5
1F2
  8
0
 10
45.0
 20
0.0000000000000083
 30
0.0
 11
48.071999999999989
 21
0.0000000000000083
 31
0.0
  0
LINE
  5
1F3
  8
0
 10
45.0
 20
0.0000000000000083
 30
0.0
 11
47.560000000000002
 21
0.0000000000000083
 31
0.0
  0
LINE
  5
1F4
  8
0
 10
49.960000000000001
 20
0.0000000000000083
 30
0.0
 11
52.079999999999998
 21
0.0000000000000083
 31
0.0
  0
LINE
  5
1F5
  8
0
 10
52.079999999999998
 20
0.0000000000000083
 30
0.0
 11
53.68
 21
0.0000000000000083
 31
0.0
  0
LINE
  5
1F6
  8
0
 10
48.071999999999989
 20
0.0000000000000083
 30
0.0
 11
50.951999999999998
 21
0.0000000000000083
 31
0.0
  0
LINE
  5
1F7
  8
0
 10
50.951999999999998
 20
0.0000000000000083
 30
0.0
 11
53.496000000000002
 21
0.0000000000000083
 31
0.0
  0
LINE
  5
1F8
  8
0
 10
167.9199999999999
 20
0.0000000000000083
 30
0.0
 11
170.03999999999991
 21
0.0000000000000083
 31
0.0
  0
LINE
  5
1F9
  8
0
 10
166.31999999999991
 20
0.0000000000000083
 30
0.0
 11
167.9199999999999
 21
0.0000000000000083
 31
0.0
  0
LINE
  5
1FA
  8
0
 10
172.43999999999991
 20
0.0000000000000083
 30
0.0
 11
175.0
 21
0.0000000000000083
 31
0.0
  0
LINE
  5
1FB
  8
0
 10
170.03999999999991
 20
0.0000000000000083
 30
0.0
 11
172.43999999999991
 21
0.0000000000000083
 31
0.0
  0
LINE
  5
1FC
  8
0
 10
177.56
 20
0.0000000000000083
 30
0.0
 11
179.96000000000001
 21
0.0000000000000083
 31
0.0
  0
LINE
  5
1FD
  8
0
 10
179.96000000000001
 20
0.0000000000000083
 30
0.0
 11
182.08000000000001
 21
0.0000000000000083
 31
0.0
  0
LINE
  5
1FE
  8
0
 10
175.0
 20
0.0000000000000083
 30
0.0
 11
178.072
 21
0.0000000000000083
 31
0.0
  0
LINE
  5
1FF
  8
0
 10
175.0
 20
0.0000000000000083
 30
0.0
 11
177.56
 21
0.0000000000000083
 31
0.0
  0
LINE
  5
200
  8
0
 10
178.072
 20
0.0000000000000083
 30
0.0
 11
180.952
 21
0.0000000000000083
 31
0.0
  0
LINE
  5
201
  8
0
 10
182.08000000000001
 20
0.0000000000000083
 30
0.0
 11
183.68000000000001
 21
0.0000000000000083
 31
0.0
  0
LINE
  5
202
  8
0
 10
183.68000000000001
 20
0.0000000000000083
 30
0.0
 11
184.6399999999999
 21
0.0000000000000067
 31
0.0
  0
LINE
  5
203
  8
0
 10
180.952
 20
0.0000000000000083
 30
0.0
 11
183.4959999999999
 21
0.0000000000000083
 31
0.0
  0
LINE
  5
204
  8
0
 10
183.4959999999999
 20
0.0000000000000083
 30
0.0
 11
185.416
 21
0.0000000000000083
 31
0.0
  0
LINE
  5
205
  8
0
 10
185.416
 20
0.0000000000000083
 30
0.0
 11
186.5679999999999
 21
0.0000000000000067
 31
0.0
  0
LINE
  5
206
  8
0
 10
171.92799999999991
 20
0.0000000000000083
 30
0.0
 11
175.0
 21
0.0000000000000083
 31
0.0
  0
LINE
  5
207
  8
0
 10
169.04799999999989
 20
0.0000000000000083
 30
0.0
 11
171.92799999999991
 21
0.0000000000000083
 31
0.0
  0
LINE
  5
208
  8
0
 10
166.50399999999999
 20
0.0000000000000083
 30
0.0
 11
169.04799999999989
 21
0.0000000000000083
 31
0.0
  0
LINE
  5
209
  8
0
 10
164.58399999999989
 20
0.0000000000000083
 30
0.0
 11
166.50399999999999
 21
0.0000000000000083
 31
0.0
  0
LINE
  5
20A
  8
0
 10
296.31999999999999
 20
0.0000000000000083
 30
0.0
 11
297.92000000000002
 21
0.0000000000000083
 31
0.0
  0
LINE
  5
20B
  8
0
 10
300.04000000000002
 20
0.0000000000000083
 30
0.0
 11
302.43999999999988
 21
0.0000000000000083
 31
0.0
  0
LINE
  5
20C
  8
0
 10
297.92000000000002
 20
0.0000000000000083
 30
0.0
 11
300.04000000000002
 21
0.0000000000000083
 31
0.0
  0
LINE
  5
20D
  8
0
 10
302.43999999999988
 20
0.0000000000000083
 30
0.0
 11
305.0
 21
0.0000000000000083
 31
0.0
  0
LINE
  5
20E
  8
0
 10
301.928
 20
0.0000000000000083
 30
0.0
 11
305.0
 21
0.0000000000000083
 31
0.0
  0
LINE
  5
20F
  8
0
 10
299.048
 20
0.0000000000000083
 30
0.0
 11
301.928
 21
0.0000000000000083
 31
0.0
  0
LINE
  5
210
  8
0
 10
296.50400000000002
 20
0.0000000000000083
 30
0.0
 11
299.048
 21
0.0000000000000083
 31
0.0
  0
LINE
  5
211
  8
0
 10
294.584
 20
0.0000000000000083
 30
0.0
 11
296.50400000000002
 21
0.0000000000000083
 31
0.0
  0
LINE
  5
212
  8
0
 10
307.56
 20
0.0000000000000083
 30
0.0
 11
309.95999999999992
 21
0.0000000000000083
 31
0.0
  0
LINE
  5
213
  8
0
 10
309.95999999999992
 20
0.0000000000000083
 30
0.0
 11
312.07999999999998
 21
0.0000000000000083
 31
0.0
  0
LINE
  5
214
  8
0
 10
305.0
 20
0.0000000000000083
 30
0.0
 11
308.07199999999989
 21
0.0000000000000083
 31
0.0
  0
LINE
  5
215
  8
0
 10
305.0
 20
0.0000000000000083
 30
0.0
 11
307.56
 21
0.0000000000000083
 31
0.0
  0
LINE
  5
216
  8
0
 10
308.07199999999989
 20
0.0000000000000083
 30
0.0
 11
310.95199999999988
 21
0.0000000000000083
 31
0.0
  0
LINE
  5
217
  8
0
 10
312.07999999999998
 20
0.0000000000000083
 30
0.0
 11
313.68000000000001
 21
0.0000000000000083
 31
0.0
  0
LINE
  5
218
  8
0
 10
313.68000000000001
 20
0.0000000000000083
 30
0.0
 11
314.63999999999987
 21
0.0000000000000067
 31
0.0
  0
LINE
  5
219
  8
0
 10
310.95199999999988
 20
0.0000000000000083
 30
0.0
 11
313.49599999999992
 21
0.0000000000000083
 31
0.0
  0
LINE
  5
21A
  8
0
 10
313.49599999999992
 20
0.0000000000000083
 30
0.0
 11
315.416
 21
0.0000000000000083
 31
0.0
  0
LINE
  5
21B
  8
0
 10
315.416
 20
0.0000000000000083
 30
0.0
 11
316.56799999999998
 21
0.0000000000000067
 31
0.0
  0
LINE
  5
21C
  8
0
 10
53.68
 20
0.0000000000000083
 30
0.0
 11
54.640000000000001
 21
0.0000000000000067
 31
0.0
  0
LINE
  5
21D
  8
0
 10
53.496000000000002
 20
0.0000000000000083
 30
0.0
 11
55.415999999999997
 21
0.0000000000000083
 31
0.0
  0
LINE
  5
21E
  8
0
 10
55.415999999999997
 20
0.0000000000000083
 30
0.0
 11
56.567999999999998
 21
0.0000000000000067
 31
0.0
  0
LINE
  5
21F
  8
0
 10
41.927999999999997
 20
0.0000000000000083
 30
0.0
 11
45.0
 21
0.0000000000000083
 31
0.0
  0
LINE
  5
220
  8
0
 10
39.048000000000002
 20
0.0000000000000083
 30
0.0
 11
41.927999999999997
 21
0.0000000000000083
 31
0.0
  0
LINE
  5
221
  8
0
 10
36.503999999999991
 20
0.0000000000000083
 30
0.0
 11
39.048000000000002
 21
0.0000000000000083
 31
0.0
  0
LINE
  5
223
  8
0
 10
34.380000000000003
 20
14.0
 30
0.0
 11
37.560000000000002
 21
14.0
 31
0.0
  0
LINE
  5
225
  8
0
 10
37.560000000000002
 20
14.0
 30
0.0
 11
39.9435
 21
14.0
 31
0.0
  0
LINE
  5
228
  8
0
 10
44.0
 20
12.0
 30
0.0
 11
44.0
 21
14.0
 31
0.0
  0
LINE
  5
229
  8
0
 10
44.0
 20
14.0
 30
0.0
 11
44.0
 21
12.0
 31
0.0
  0
LINE
  5
22B
  8
0
 10
39.9435
 20
14.0
 30
0.0
 11
44.0
 21
14.0
 31
0.0
  0
LINE
  5
22D
  8
0
 10
46.0
 20
12.0
 30
0.0
 11
46.0
 21
14.0
 31
0.0
  0
LINE
  5
22F
  8
0
 10
46.0
 20
14.0
 30
0.0
 11
46.0
 21
12.0
 31
0.0
  0
LINE
  5
230
  8
0
 10
46.0
 20
14.0
 30
0.0
 11
50.0565
 21
14.0
 31
0.0
  0
LINE
  5
231
  8
0
 10
50.0565
 20
14.0
 30
0.0
 11
52.439999999999991
 21
14.0
 31
0.0
  0
LINE
  5
233
  8
0
 10
45.0
 20
30.0
 30
0.0
 11
48.071999999999989
 21
30.0
 31
0.0
  0
LINE
  5
234
  8
0
 10
48.071999999999989
 20
30.0
 30
0.0
 11
50.951999999999998
 21
30.0
 31
0.0
  0
LINE
  5
235
  8
0
 10
52.439999999999991
 20
14.0
 30
0.0
 11
55.619999999999997
 21
14.0
 31
0.0
  0
LINE
  5
238
  8
0
 10
50.951999999999998
 20
30.0
 30
0.0
 11
53.496000000000002
 21
30.0
 31
0.0
  0
LINE
  5
239
  8
0
 10
53.496000000000002
 20
30.0
 30
0.0
 11
55.415999999999997
 21
30.0
 31
0.0
  0
LINE
  5
23A
  8
0
 10
57.0
 20
10.0
 30
0.0
 11
108.0
 21
10.0
 31
0.0
  0
LINE
  5
23C
  8
0
 10
55.619999999999997
 20
14.0
 30
0.0
 11
58.020000000000003
 21
14.0
 31
0.0
  0
LINE
  5
23E
  8
0
 10
57.0
 20
10.0
 30
0.0
 11
108.0
 21
10.0
 31
0.0
  0
LINE
  5
23F
  8
0
 10
57.0
 20
10.0
 30
0.0
 11
57.0
 21
0.0000000000000067
 31
0.0
  0
LINE
  5
240
  8
0
 10
57.0
 20
30.0
 30
0.0
 11
57.0
 21
14.0
 31
0.0
  0
LINE
  5
241
  8
0
 10
55.415999999999997
 20
30.0
 30
0.0
 11
56.567999999999998
 21
30.0
 31
0.0
  0
LINE
  5
242
  8
0
 10
56.567999999999998
 20
30.0
 30
0.0
 11
57.0
 21
30.0
 31
0.0
  0
LINE
  5
243
  8
0
 10
57.0
 20
10.0
 30
0.0
 11
108.0
 21
10.0
 31
0.0
  0
LINE
  5
244
  8
0
 10
57.0
 20
9.9999999999999911
 30
0.0
 11
88.0
 21
9.9999999999999911
 31
0.0
  0
LINE
  5
245
  8
0
 10
88.0
 20
9.9999999999999911
 30
0.0
 11
93.120000000000005
 21
9.9999999999999911
 31
0.0
  0
LINE
  5
246
  8
0
 10
93.120000000000005
 20
9.9999999999999911
 30
0.0
 11
97.920000000000016
 21
9.9999999999999911
 31
0.0
  0
LINE
  5
247
  8
0
 10
97.920000000000016
 20
9.9999999999999911
 30
0.0
 11
102.16
 21
9.9999999999999911
 31
0.0
  0
LINE
  5
248
  8
0
 10
81.0
 20
9.9999999999999911
 30
0.0
 11
82.200000000000003
 21
9.9999999999999911
 31
0.0
  0
LINE
  5
249
  8
0
 10
82.200000000000003
 20
9.9999999999999911
 30
0.0
 11
85.0
 21
9.9999999999999911
 31
0.0
  0
LINE
  5
24A
  8
0
 10
85.0
 20
9.9999999999999911
 30
0.0
 11
87.799999999999983
 21
9.9999999999999911
 31
0.0
  0
LINE
  5
24B
  8
0
 10
87.799999999999983
 20
9.9999999999999911
 30
0.0
 11
89.0
 21
9.9999999999999911
 31
0.0
  0
LINE
  5
24C
  8
0
 10
102.16
 20
9.9999999999999911
 30
0.0
 11
105.36
 21
9.9999999999999911
 31
0.0
  0
LINE
  5
24D
  8
0
 10
105.36
 20
9.9999999999999911
 30
0.0
 11
107.2799999999999
 21
9.9999999999999911
 31
0.0
  0
LINE
  5
24E
  8
0
 10
107.2799999999999
 20
9.9999999999999911
 30
0.0
 11
108.0
 21
9.9999999999999911
 31
0.0
  0
LINE
  5
24F
  8
0
 10
108.0
 20
9.9999999999999911
 30
0.0
 11
111.0
 21
9.9999999999999911
 31
0.0
  0
LINE
  5
250
  8
0
 10
85.0
 20
9.9999999999999911
 30
0.0
 11
87.799999999999983
 21
9.9999999999999911
 31
0.0
  0
LINE
  5
251
  8
0
 10
82.200000000000003
 20
9.9999999999999911
 30
0.0
 11
85.0
 21
9.9999999999999911
 31
0.0
  0
LINE
  5
252
  8
0
 10
81.0
 20
9.9999999999999911
 30
0.0
 11
82.200000000000003
 21
9.9999999999999911
 31
0.0
  0
LINE
  5
253
  8
0
 10
98.0
 20
10.0
 30
0.0
 11
124.0
 21
10.0
 31
0.0
  0
LINE
  5
254
  8
0
 10
81.0
 20
10.0
 30
0.0
 11
82.200000000000003
 21
10.0
 31
0.0
  0
LINE
  5
255
  8
0
 10
82.200000000000003
 20
10.0
 30
0.0
 11
85.0
 21
10.0
 31
0.0
  0
LINE
  5
256
  8
0
 10
85.0
 20
10.0
 30
0.0
 11
87.799999999999983
 21
10.0
 31
0.0
  0
LINE
  5
257
  8
0
 10
87.799999999999983
 20
10.0
 30
0.0
 11
89.0
 21
10.0
 31
0.0
  0
LINE
  5
258
  8
0
 10
108.0
 20
10.0
 30
0.0
 11
111.0
 21
10.0
 31
0.0
  0
LINE
  5
259
  8
0
 10
108.0
 20
10.0
 30
0.0
 11
111.0
 21
10.0
 31
0.0
  0
LINE
  5
25A
  8
0
 10
87.799999999999983
 20
10.0
 30
0.0
 11
89.0
 21
10.0
 31
0.0
  0
LINE
  5
25B
  8
0
 10
85.0
 20
10.0
 30
0.0
 11
87.799999999999983
 21
10.0
 31
0.0
  0
LINE
  5
25C
  8
0
 10
98.0
 20
10.0
 30
0.0
 11
124.0
 21
10.0
 31
0.0
  0
LINE
  5
25D
  8
0
 10
82.200000000000003
 20
10.0
 30
0.0
 11
85.0
 21
10.0
 31
0.0
  0
LINE
  5
25E
  8
0
 10
81.0
 20
10.0
 30
0.0
 11
82.200000000000003
 21
10.0
 31
0.0
  0
LINE
  5
25F
  8
0
 10
108.0
 20
10.0
 30
0.0
 11
111.0
 21
10.0
 31
0.0
  0
LINE
  5
260
  8
0
 10
87.799999999999983
 20
9.9999999999999911
 30
0.0
 11
89.0
 21
9.9999999999999911
 31
0.0
  0
LINE
  5
261
  8
0
 10
111.0
 20
9.9999999999999911
 30
0.0
 11
111.7199999999999
 21
9.9999999999999911
 31
0.0
  0
LINE
  5
262
  8
0
 10
125.8799999999999
 20
9.9999999999999911
 30
0.0
 11
131.0
 21
9.9999999999999911
 31
0.0
  0
LINE
  5
263
  8
0
 10
121.08
 20
9.9999999999999911
 30
0.0
 11
125.8799999999999
 21
9.9999999999999911
 31
0.0
  0
LINE
  5
264
  8
0
 10
116.84
 20
9.9999999999999911
 30
0.0
 11
121.08
 21
9.9999999999999911
 31
0.0
  0
LINE
  5
265
  8
0
 10
131.0
 20
9.9999999999999911
 30
0.0
 11
132.1999999999999
 21
9.9999999999999911
 31
0.0
  0
LINE
  5
266
  8
0
 10
113.64
 20
9.9999999999999911
 30
0.0
 11
116.84
 21
9.9999999999999911
 31
0.0
  0
LINE
  5
267
  8
0
 10
111.7199999999999
 20
9.9999999999999911
 30
0.0
 11
113.64
 21
9.9999999999999911
 31
0.0
  0
LINE
  5
268
  8
0
 10
131.0
 20
9.9999999999999911
 30
0.0
 11
163.0
 21
9.9999999999999911
 31
0.0
  0
LINE
  5
269
  8
0
 10
135.0
 20
9.9999999999999911
 30
0.0
 11
137.80000000000001
 21
9.9999999999999911
 31
0.0
  0
LINE
  5
26A
  8
0
 10
131.0
 20
9.9999999999999911
 30
0.0
 11
132.1999999999999
 21
9.9999999999999911
 31
0.0
  0
LINE
  5
26B
  8
0
 10
132.1999999999999
 20
9.9999999999999911
 30
0.0
 11
135.0
 21
9.9999999999999911
 31
0.0
  0
LINE
  5
26C
  8
0
 10
137.80000000000001
 20
9.9999999999999911
 30
0.0
 11
139.0
 21
9.9999999999999911
 31
0.0
  0
LINE
  5
26D
  8
0
 10
137.80000000000001
 20
9.9999999999999911
 30
0.0
 11
139.0
 21
9.9999999999999911
 31
0.0
  0
LINE
  5
26E
  8
0
 10
135.0
 20
9.9999999999999911
 30
0.0
 11
137.80000000000001
 21
9.9999999999999911
 31
0.0
  0
LINE
  5
26F
  8
0
 10
131.0
 20
10.0
 30
0.0
 11
132.1999999999999
 21
10.0
 31
0.0
  0
LINE
  5
270
  8
0
 10
132.1999999999999
 20
10.0
 30
0.0
 11
135.0
 21
10.0
 31
0.0
  0
LINE
  5
271
  8
0
 10
131.0
 20
10.0
 30
0.0
 11
132.1999999999999
 21
10.0
 31
0.0
  0
LINE
  5
272
  8
0
 10
137.80000000000001
 20
10.0
 30
0.0
 11
139.0
 21
10.0
 31
0.0
  0
LINE
  5
273
  8
0
 10
135.0
 20
10.0
 30
0.0
 11
137.80000000000001
 21
10.0
 31
0.0
  0
LINE
  5
274
  8
0
 10
137.80000000000001
 20
10.0
 30
0.0
 11
139.0
 21
10.0
 31
0.0
  0
LINE
  5
275
  8
0
 10
135.0
 20
10.0
 30
0.0
 11
137.80000000000001
 21
10.0
 31
0.0
  0
LINE
  5
276
  8
0
 10
132.1999999999999
 20
10.0
 30
0.0
 11
135.0
 21
10.0
 31
0.0
  0
LINE
  5
277
  8
0
 10
132.1999999999999
 20
9.9999999999999911
 30
0.0
 11
135.0
 21
9.9999999999999911
 31
0.0
  0
LINE
  5
278
  8
0
 10
111.0
 20
10.0
 30
0.0
 11
163.0
 21
10.0
 31
0.0
  0
LINE
  5
279
  8
0
 10
111.0
 20
10.0
 30
0.0
 11
163.0
 21
10.0
 31
0.0
  0
LINE
  5
27A
  8
0
 10
111.0
 20
10.0
 30
0.0
 11
163.0
 21
10.0
 31
0.0
  0
LINE
  5
27B
  8
0
 10
57.0
 20
10.0
 30
0.0
 11
108.0
 21
10.0
 31
0.0
  0
LINE
  5
27C
  8
0
 10
108.0
 20
10.0
 30
0.0
 11
111.0
 21
10.0
 31
0.0
  0
LINE
  5
27D
  8
0
 10
187.0
 20
9.9999999999999911
 30
0.0
 11
219.0
 21
9.9999999999999911
 31
0.0
  0
LINE
  5
27E
  8
0
 10
187.0
 20
10.0
 30
0.0
 11
239.0
 21
10.0
 31
0.0
  0
LINE
  5
27F
  8
0
 10
187.0
 20
10.0
 30
0.0
 11
239.0
 21
10.0
 31
0.0
  0
LINE
  5
280
  8
0
 10
163.0
 20
10.0
 30
0.0
 11
163.0
 21
-0.0000000000000067
 31
0.0
  0
LINE
  5
281
  8
0
 10
81.0
 20
10.0
 30
0.0
 11
82.200000000000003
 21
10.0
 31
0.0
  0
LINE
  5
282
  8
0
 10
82.200000000000003
 20
10.0
 30
0.0
 11
85.0
 21
10.0
 31
0.0
  0
LINE
  5
283
  8
0
 10
81.0
 20
10.0
 30
0.0
 11
82.200000000000003
 21
10.0
 31
0.0
  0
LINE
  5
284
  8
0
 10
108.0
 20
10.0
 30
0.0
 11
111.0
 21
10.0
 31
0.0
  0
LINE
  5
285
  8
0
 10
131.0
 20
10.0
 30
0.0
 11
132.1999999999999
 21
10.0
 31
0.0
  0
LINE
  5
286
  8
0
 10
137.80000000000001
 20
10.0
 30
0.0
 11
139.0
 21
10.0
 31
0.0
  0
LINE
  5
287
  8
0
 10
135.0
 20
10.0
 30
0.0
 11
137.80000000000001
 21
10.0
 31
0.0
  0
LINE
  5
288
  8
0
 10
132.1999999999999
 20
10.0
 30
0.0
 11
135.0
 21
10.0
 31
0.0
  0
LINE
  5
289
  8
0
 10
87.799999999999983
 20
10.0
 30
0.0
 11
89.0
 21
10.0
 31
0.0
  0
LINE
  5
28A
  8
0
 10
108.0
 20
10.0
 30
0.0
 11
111.0
 21
10.0
 31
0.0
  0
LINE
  5
28B
  8
0
 10
137.80000000000001
 20
10.0
 30
0.0
 11
139.0
 21
10.0
 31
0.0
  0
LINE
  5
28C
  8
0
 10
135.0
 20
10.0
 30
0.0
 11
137.80000000000001
 21
10.0
 31
0.0
  0
LINE
  5
28D
  8
0
 10
132.1999999999999
 20
10.0
 30
0.0
 11
135.0
 21
10.0
 31
0.0
  0
LINE
  5
28E
  8
0
 10
131.0
 20
10.0
 30
0.0
 11
132.1999999999999
 21
10.0
 31
0.0
  0
LINE
  5
28F
  8
0
 10
111.7199999999999
 20
10.0
 30
0.0
 11
113.64
 21
10.0
 31
0.0
  0
LINE
  5
292
  8
0
 10
111.0
 20
10.0
 30
0.0
 11
111.7199999999999
 21
10.0
 31
0.0
  0
LINE
  5
295
  8
0
 10
108.0
 20
10.0
 30
0.0
 11
111.0
 21
10.0
 31
0.0
  0
LINE
  5
296
  8
0
 10
107.2799999999999
 20
10.0
 30
0.0
 11
108.0
 21
10.0
 31
0.0
  0
LINE
  5
298
  8
0
 10
88.0
 20
10.0
 30
0.0
 11
93.120000000000005
 21
10.0
 31
0.0
  0
LINE
  5
29A
  8
0
 10
93.120000000000005
 20
10.0
 30
0.0
 11
97.920000000000016
 21
10.0
 31
0.0
  0
LINE
  5
29C
  8
0
 10
97.920000000000016
 20
10.0
 30
0.0
 11
102.16
 21
10.0
 31
0.0
  0
LINE
  5
29E
  8
0
 10
102.16
 20
10.0
 30
0.0
 11
105.36
 21
10.0
 31
0.0
  0
LINE
  5
2A1
  8
0
 10
131.0
 20
10.0
 30
0.0
 11
219.0
 21
10.0
 31
0.0
  0
LINE
  5
2A2
  8
0
 10
125.8799999999999
 20
10.0
 30
0.0
 11
131.0
 21
10.0
 31
0.0
  0
LINE
  5
2A4
  8
0
 10
121.08
 20
10.0
 30
0.0
 11
125.8799999999999
 21
10.0
 31
0.0
  0
LINE
  5
2A6
  8
0
 10
116.84
 20
10.0
 30
0.0
 11
121.08
 21
10.0
 31
0.0
  0
LINE
  5
2A8
  8
0
 10
113.64
 20
10.0
 30
0.0
 11
116.84
 21
10.0
 31
0.0
  0
LINE
  5
2AA
  8
0
 10
105.36
 20
10.0
 30
0.0
 11
107.2799999999999
 21
10.0
 31
0.0
  0
LINE
  5
2AC
  8
0
 10
87.799999999999983
 20
10.0
 30
0.0
 11
89.0
 21
10.0
 31
0.0
  0
LINE
  5
2AD
  8
0
 10
85.0
 20
10.0
 30
0.0
 11
87.799999999999983
 21
10.0
 31
0.0
  0
LINE
  5
2AE
  8
0
 10
85.0
 20
10.0
 30
0.0
 11
87.799999999999983
 21
10.0
 31
0.0
  0
LINE
  5
2AF
  8
0
 10
82.200000000000003
 20
10.0
 30
0.0
 11
85.0
 21
10.0
 31
0.0
  0
LINE
  5
2B0
  8
0
 10
163.0
 20
10.0
 30
0.0
 11
163.0
 21
0.0
 31
0.0
  0
LINE
  5
2B1
  8
0
 10
212.1999999999999
 20
9.9999999999999911
 30
0.0
 11
215.0
 21
9.9999999999999911
 31
0.0
  0
LINE
  5
2B2
  8
0
 10
211.0
 20
9.9999999999999911
 30
0.0
 11
212.1999999999999
 21
9.9999999999999911
 31
0.0
  0
LINE
  5
2B3
  8
0
 10
219.0
 20
9.9999999999999911
 30
0.0
 11
224.12
 21
9.9999999999999911
 31
0.0
  0
LINE
  5
2B4
  8
0
 10
224.12
 20
9.9999999999999911
 30
0.0
 11
228.91999999999999
 21
9.9999999999999911
 31
0.0
  0
LINE
  5
2B5
  8
0
 10
228.91999999999999
 20
9.9999999999999911
 30
0.0
 11
233.15999999999991
 21
9.9999999999999911
 31
0.0
  0
LINE
  5
2B6
  8
0
 10
233.15999999999991
 20
9.9999999999999911
 30
0.0
 11
236.36000000000001
 21
9.9999999999999911
 31
0.0
  0
LINE
  5
2B7
  8
0
 10
236.36000000000001
 20
9.9999999999999911
 30
0.0
 11
238.28
 21
9.9999999999999911
 31
0.0
  0
LINE
  5
2B8
  8
0
 10
238.28
 20
9.9999999999999911
 30
0.0
 11
239.0
 21
9.9999999999999911
 31
0.0
  0
LINE
  5
2B9
  8
0
 10
217.80000000000001
 20
9.9999999999999911
 30
0.0
 11
219.0
 21
9.9999999999999911
 31
0.0
  0
LINE
  5
2BA
  8
0
 10
239.0
 20
9.9999999999999911
 30
0.0
 11
242.0
 21
9.9999999999999911
 31
0.0
  0
LINE
  5
2BB
  8
0
 10
217.80000000000001
 20
9.9999999999999911
 30
0.0
 11
219.0
 21
9.9999999999999911
 31
0.0
  0
LINE
  5
2BC
  8
0
 10
215.0
 20
9.9999999999999911
 30
0.0
 11
217.80000000000001
 21
9.9999999999999911
 31
0.0
  0
LINE
  5
2BD
  8
0
 10
215.0
 20
9.9999999999999911
 30
0.0
 11
217.80000000000001
 21
9.9999999999999911
 31
0.0
  0
LINE
  5
2BE
  8
0
 10
212.1999999999999
 20
9.9999999999999911
 30
0.0
 11
215.0
 21
9.9999999999999911
 31
0.0
  0
LINE
  5
2BF
  8
0
 10
226.0
 20
10.0
 30
0.0
 11
252.0
 21
10.0
 31
0.0
  0
LINE
  5
2C0
  8
0
 10
211.0
 20
10.0
 30
0.0
 11
212.1999999999999
 21
10.0
 31
0.0
  0
LINE
  5
2C1
  8
0
 10
215.0
 20
10.0
 30
0.0
 11
217.80000000000001
 21
10.0
 31
0.0
  0
LINE
  5
2C2
  8
0
 10
212.1999999999999
 20
10.0
 30
0.0
 11
215.0
 21
10.0
 31
0.0
  0
LINE
  5
2C3
  8
0
 10
217.80000000000001
 20
10.0
 30
0.0
 11
219.0
 21
10.0
 31
0.0
  0
LINE
  5
2C4
  8
0
 10
239.0
 20
10.0
 30
0.0
 11
242.0
 21
10.0
 31
0.0
  0
LINE
  5
2C5
  8
0
 10
239.0
 20
10.0
 30
0.0
 11
242.0
 21
10.0
 31
0.0
  0
LINE
  5
2C6
  8
0
 10
217.80000000000001
 20
10.0
 30
0.0
 11
219.0
 21
10.0
 31
0.0
  0
LINE
  5
2C7
  8
0
 10
215.0
 20
10.0
 30
0.0
 11
217.80000000000001
 21
10.0
 31
0.0
  0
LINE
  5
2C8
  8
0
 10
226.0
 20
10.0
 30
0.0
 11
252.0
 21
10.0
 31
0.0
  0
LINE
  5
2C9
  8
0
 10
212.1999999999999
 20
10.0
 30
0.0
 11
215.0
 21
10.0
 31
0.0
  0
LINE
  5
2CA
  8
0
 10
211.0
 20
10.0
 30
0.0
 11
212.1999999999999
 21
10.0
 31
0.0
  0
LINE
  5
2CB
  8
0
 10
239.0
 20
10.0
 30
0.0
 11
242.0
 21
10.0
 31
0.0
  0
LINE
  5
2CC
  8
0
 10
211.0
 20
9.9999999999999911
 30
0.0
 11
212.1999999999999
 21
9.9999999999999911
 31
0.0
  0
LINE
  5
2CD
  8
0
 10
262.0
 20
9.9999999999999911
 30
0.0
 11
293.0
 21
9.9999999999999911
 31
0.0
  0
LINE
  5
2CE
  8
0
 10
256.87999999999988
 20
9.9999999999999911
 30
0.0
 11
262.0
 21
9.9999999999999911
 31
0.0
  0
LINE
  5
2CF
  8
0
 10
252.08000000000001
 20
9.9999999999999911
 30
0.0
 11
256.87999999999988
 21
9.9999999999999911
 31
0.0
  0
LINE
  5
2D0
  8
0
 10
247.84
 20
9.9999999999999911
 30
0.0
 11
252.08000000000001
 21
9.9999999999999911
 31
0.0
  0
LINE
  5
2D1
  8
0
 10
244.63999999999999
 20
9.9999999999999911
 30
0.0
 11
247.84
 21
9.9999999999999911
 31
0.0
  0
LINE
  5
2D2
  8
0
 10
242.72
 20
9.9999999999999911
 30
0.0
 11
244.63999999999999
 21
9.9999999999999911
 31
0.0
  0
LINE
  5
2D3
  8
0
 10
261.0
 20
9.9999999999999911
 30
0.0
 11
262.19999999999987
 21
9.9999999999999911
 31
0.0
  0
LINE
  5
2D4
  8
0
 10
262.19999999999987
 20
9.9999999999999911
 30
0.0
 11
265.0
 21
9.9999999999999911
 31
0.0
  0
LINE
  5
2D5
  8
0
 10
265.0
 20
9.9999999999999911
 30
0.0
 11
267.80000000000001
 21
9.9999999999999911
 31
0.0
  0
LINE
  5
2D6
  8
0
 10
267.80000000000001
 20
9.9999999999999911
 30
0.0
 11
269.0
 21
9.9999999999999911
 31
0.0
  0
LINE
  5
2D7
  8
0
 10
262.19999999999987
 20
9.9999999999999911
 30
0.0
 11
265.0
 21
9.9999999999999911
 31
0.0
  0
LINE
  5
2D8
  8
0
 10
265.0
 20
9.9999999999999911
 30
0.0
 11
267.80000000000001
 21
9.9999999999999911
 31
0.0
  0
LINE
  5
2D9
  8
0
 10
267.80000000000001
 20
9.9999999999999911
 30
0.0
 11
269.0
 21
9.9999999999999911
 31
0.0
  0
LINE
  5
2DA
  8
0
 10
261.0
 20
10.0
 30
0.0
 11
262.19999999999987
 21
10.0
 31
0.0
  0
LINE
  5
2DB
  8
0
 10
261.0
 20
10.0
 30
0.0
 11
262.19999999999987
 21
10.0
 31
0.0
  0
LINE
  5
2DC
  8
0
 10
262.19999999999987
 20
10.0
 30
0.0
 11
265.0
 21
10.0
 31
0.0
  0
LINE
  5
2DD
  8
0
 10
265.0
 20
10.0
 30
0.0
 11
267.80000000000001
 21
10.0
 31
0.0
  0
LINE
  5
2DE
  8
0
 10
262.19999999999987
 20
10.0
 30
0.0
 11
265.0
 21
10.0
 31
0.0
  0
LINE
  5
2DF
  8
0
 10
267.80000000000001
 20
10.0
 30
0.0
 11
269.0
 21
10.0
 31
0.0
  0
LINE
  5
2E0
  8
0
 10
267.80000000000001
 20
10.0
 30
0.0
 11
269.0
 21
10.0
 31
0.0
  0
LINE
  5
2E1
  8
0
 10
265.0
 20
10.0
 30
0.0
 11
267.80000000000001
 21
10.0
 31
0.0
  0
LINE
  5
2E2
  8
0
 10
261.0
 20
9.9999999999999911
 30
0.0
 11
262.19999999999987
 21
9.9999999999999911
 31
0.0
  0
LINE
  5
2E3
  8
0
 10
242.0
 20
10.0
 30
0.0
 11
293.0
 21
10.0
 31
0.0
  0
LINE
  5
2E4
  8
0
 10
242.0
 20
9.9999999999999911
 30
0.0
 11
242.72
 21
9.9999999999999911
 31
0.0
  0
LINE
  5
2E5
  8
0
 10
239.0
 20
10.0
 30
0.0
 11
242.0
 21
10.0
 31
0.0
  0
LINE
  5
2E6
  8
0
 10
242.0
 20
10.0
 30
0.0
 11
293.0
 21
10.0
 31
0.0
  0
LINE
  5
2E7
  8
0
 10
293.0
 20
10.0
 30
0.0
 11
293.0
 21
-0.0000000000000067
 31
0.0
  0
LINE
  5
2E8
  8
0
 10
211.0
 20
10.0
 30
0.0
 11
212.1999999999999
 21
10.0
 31
0.0
  0
LINE
  5
2E9
  8
0
 10
239.0
 20
10.0
 30
0.0
 11
242.0
 21
10.0
 31
0.0
  0
LINE
  5
2EA
  8
0
 10
217.80000000000001
 20
10.0
 30
0.0
 11
219.0
 21
10.0
 31
0.0
  0
LINE
  5
2EB
  8
0
 10
215.0
 20
10.0
 30
0.0
 11
217.80000000000001
 21
10.0
 31
0.0
  0
LINE
  5
2EC
  8
0
 10
239.0
 20
10.0
 30
0.0
 11
242.0
 21
10.0
 31
0.0
  0
LINE
  5
2EE
  8
0
 10
239.0
 20
10.0
 30
0.0
 11
242.0
 21
10.0
 31
0.0
  0
LINE
  5
2EF
  8
0
 10
238.28
 20
10.0
 30
0.0
 11
239.0
 21
10.0
 31
0.0
  0
LINE
  5
2F1
  8
0
 10
217.80000000000001
 20
10.0
 30
0.0
 11
219.0
 21
10.0
 31
0.0
  0
LINE
  5
2F2
  8
0
 10
215.0
 20
10.0
 30
0.0
 11
217.80000000000001
 21
10.0
 31
0.0
  0
LINE
  5
2F3
  8
0
 10
212.1999999999999
 20
10.0
 30
0.0
 11
215.0
 21
10.0
 31
0.0
  0
LINE
  5
2F4
  8
0
 10
212.1999999999999
 20
10.0
 30
0.0
 11
215.0
 21
10.0
 31
0.0
  0
LINE
  5
2F5
  8
0
 10
211.0
 20
10.0
 30
0.0
 11
212.1999999999999
 21
10.0
 31
0.0
  0
LINE
  5
2F6
  8
0
 10
224.12
 20
10.0
 30
0.0
 11
228.91999999999999
 21
10.0
 31
0.0
  0
LINE
  5
2F8
  8
0
 10
228.91999999999999
 20
10.0
 30
0.0
 11
233.15999999999991
 21
10.0
 31
0.0
  0
LINE
  5
2FA
  8
0
 10
233.15999999999991
 20
10.0
 30
0.0
 11
236.36000000000001
 21
10.0
 31
0.0
  0
LINE
  5
2FC
  8
0
 10
236.36000000000001
 20
10.0
 30
0.0
 11
238.28
 21
10.0
 31
0.0
  0
LINE
  5
2FF
  8
0
 10
219.0
 20
10.0
 30
0.0
 11
224.12
 21
10.0
 31
0.0
  0
LINE
  5
301
  8
0
 10
242.0
 20
10.0
 30
0.0
 11
242.72
 21
10.0
 31
0.0
  0
LINE
  5
303
  8
0
 10
261.0
 20
10.0
 30
0.0
 11
262.19999999999987
 21
10.0
 31
0.0
  0
LINE
  5
304
  8
0
 10
262.19999999999987
 20
10.0
 30
0.0
 11
265.0
 21
10.0
 31
0.0
  0
LINE
  5
305
  8
0
 10
265.0
 20
10.0
 30
0.0
 11
267.80000000000001
 21
10.0
 31
0.0
  0
LINE
  5
306
  8
0
 10
261.0
 20
10.0
 30
0.0
 11
262.19999999999987
 21
10.0
 31
0.0
  0
LINE
  5
307
  8
0
 10
242.72
 20
10.0
 30
0.0
 11
244.63999999999999
 21
10.0
 31
0.0
  0
LINE
  5
309
  8
0
 10
262.19999999999987
 20
10.0
 30
0.0
 11
265.0
 21
10.0
 31
0.0
  0
LINE
  5
30A
  8
0
 10
256.87999999999988
 20
10.0
 30
0.0
 11
262.0
 21
10.0
 31
0.0
  0
LINE
  5
30C
  8
0
 10
252.08000000000001
 20
10.0
 30
0.0
 11
256.87999999999988
 21
10.0
 31
0.0
  0
LINE
  5
30E
  8
0
 10
247.84
 20
10.0
 30
0.0
 11
252.08000000000001
 21
10.0
 31
0.0
  0
LINE
  5
310
  8
0
 10
244.63999999999999
 20
10.0
 30
0.0
 11
247.84
 21
10.0
 31
0.0
  0
LINE
  5
312
  8
0
 10
262.0
 20
10.0
 30
0.0
 11
330.0
 21
10.0
 31
0.0
  0
LINE
  5
314
  8
0
 10
265.0
 20
10.0
 30
0.0
 11
267.80000000000001
 21
10.0
 31
0.0
  0
LINE
  5
315
  8
0
 10
267.80000000000001
 20
10.0
 30
0.0
 11
269.0
 21
10.0
 31
0.0
  0
LINE
  5
316
  8
0
 10
267.80000000000001
 20
10.0
 30
0.0
 11
269.0
 21
10.0
 31
0.0
  0
LINE
  5
317
  8
0
 10
293.0
 20
10.0
 30
0.0
 11
293.0
 21
0.0
 31
0.0
  0
LINE
  5
318
  8
0
 10
187.0
 20
10.0
 30
0.0
 11
187.0
 21
0.0000000000000067
 31
0.0
  0
LINE
  5
319
  8
0
 10
163.0
 20
10.0
 30
0.0
 11
163.0
 21
0.0000000000000067
 31
0.0
  0
LINE
  5
31A
  8
0
 10
317.0
 20
10.0
 30
0.0
 11
330.0
 21
10.0
 31
0.0
  0
LINE
  5
31B
  8
0
 10
317.0
 20
9.9999999999999911
 30
0.0
 11
330.0
 21
9.9999999999999911
 31
0.0
  0
LINE
  5
31C
  8
0
 10
317.0
 20
10.0
 30
0.0
 11
330.0
 21
10.0
 31
0.0
  0
LINE
  5
31D
  8
0
 10
293.0
 20
10.0
 30
0.0
 11
293.0
 21
0.0000000000000067
 31
0.0
  0
LINE
  5
320
  8
0
 10
60.0
 20
14.0
 30
0.0
 11
60.0
 21
12.0
 31
0.0
  0
LINE
  5
321
  8
0
 10
60.0
 20
12.0
 30
0.0
 11
60.0
 21
14.0
 31
0.0
  0
LINE
  5
322
  8
0
 10
58.020000000000003
 20
14.0
 30
0.0
 11
59.460000000000001
 21
14.0
 31
0.0
  0
LINE
  5
324
  8
0
 10
59.460000000000001
 20
14.0
 30
0.0
 11
60.0
 21
14.0
 31
0.0
  0
LINE
  5
326
  8
0
 10
93.120000000000005
 20
12.0
 30
0.0
 11
97.920000000000016
 21
12.0
 31
0.0
  0
LINE
  5
328
  8
0
 10
97.920000000000016
 20
12.0
 30
0.0
 11
102.16
 21
12.0
 31
0.0
  0
LINE
  5
32A
  8
0
 10
108.0
 20
12.0
 30
0.0
 11
111.0
 21
12.0
 31
0.0
  0
LINE
  5
32B
  8
0
 10
102.16
 20
12.0
 30
0.0
 11
105.36
 21
12.0
 31
0.0
  0
LINE
  5
32D
  8
0
 10
105.36
 20
12.0
 30
0.0
 11
107.2799999999999
 21
12.0
 31
0.0
  0
LINE
  5
330
  8
0
 10
160.0
 20
12.0
 30
0.0
 11
160.0
 21
14.0
 31
0.0
  0
LINE
  5
331
  8
0
 10
160.0
 20
12.0
 30
0.0
 11
160.0
 21
14.0
 31
0.0
  0
LINE
  5
332
  8
0
 10
160.0
 20
12.0
 30
0.0
 11
160.0
 21
14.0
 31
0.0
  0
LINE
  5
333
  8
0
 10
176.0
 20
12.0
 30
0.0
 11
176.0
 21
14.0
 31
0.0
  0
LINE
  5
337
  8
0
 10
174.0
 20
12.0
 30
0.0
 11
174.0
 21
14.0
 31
0.0
  0
LINE
  5
33D
  8
0
 10
131.0
 20
12.0
 30
0.0
 11
219.0
 21
12.0
 31
0.0
  0
LINE
  5
33F
  8
0
 10
125.8799999999999
 20
12.0
 30
0.0
 11
131.0
 21
12.0
 31
0.0
  0
LINE
  5
341
  8
0
 10
121.08
 20
12.0
 30
0.0
 11
125.8799999999999
 21
12.0
 31
0.0
  0
LINE
  5
343
  8
0
 10
116.84
 20
12.0
 30
0.0
 11
121.08
 21
12.0
 31
0.0
  0
LINE
  5
344
  8
0
 10
113.64
 20
12.0
 30
0.0
 11
116.84
 21
12.0
 31
0.0
  0
LINE
  5
346
  8
0
 10
111.7199999999999
 20
12.0
 30
0.0
 11
113.64
 21
12.0
 31
0.0
  0
LINE
  5
348
  8
0
 10
111.0
 20
12.0
 30
0.0
 11
111.7199999999999
 21
12.0
 31
0.0
  0
LINE
  5
34B
  8
0
 10
160.0
 20
14.0
 30
0.0
 11
160.0
 21
12.0
 31
0.0
  0
LINE
  5
34C
  8
0
 10
160.0
 20
14.0
 30
0.0
 11
160.0
 21
12.0
 31
0.0
  0
LINE
  5
34D
  8
0
 10
167.56
 20
14.0
 30
0.0
 11
169.9429999999999
 21
14.0
 31
0.0
  0
LINE
  5
34F
  8
0
 10
167.56
 20
14.0
 30
0.0
 11
169.94399999999999
 21
14.0
 31
0.0
  0
LINE
  5
350
  8
0
 10
182.43999999999991
 20
14.0
 30
0.0
 11
185.62
 21
14.0
 31
0.0
  0
LINE
  5
352
  8
0
 10
185.62
 20
14.0
 30
0.0
 11
188.02000000000001
 21
14.0
 31
0.0
  0
LINE
  5
354
  8
0
 10
176.0
 20
14.0
 30
0.0
 11
176.0
 21
12.0
 31
0.0
  0
LINE
  5
355
  8
0
 10
176.0
 20
14.0
 30
0.0
 11
180.05699999999999
 21
14.0
 31
0.0
  0
LINE
  5
356
  8
0
 10
180.05699999999999
 20
14.0
 30
0.0
 11
182.43999999999991
 21
14.0
 31
0.0
  0
LINE
  5
358
  8
0
 10
169.94399999999999
 20
14.0
 30
0.0
 11
174.0
 21
14.0
 31
0.0
  0
LINE
  5
359
  8
0
 10
174.0
 20
14.0
 30
0.0
 11
174.0
 21
12.0
 31
0.0
  0
LINE
  5
35B
  8
0
 10
169.9429999999999
 20
14.0
 30
0.0
 11
174.0
 21
14.0
 31
0.0
  0
LINE
  5
35D
  8
0
 10
164.37999999999991
 20
14.0
 30
0.0
 11
167.56
 21
14.0
 31
0.0
  0
LINE
  5
35E
  8
0
 10
161.9799999999999
 20
14.0
 30
0.0
 11
164.37999999999991
 21
14.0
 31
0.0
  0
LINE
  5
360
  8
0
 10
160.53999999999991
 20
14.0
 30
0.0
 11
161.9799999999999
 21
14.0
 31
0.0
  0
LINE
  5
362
  8
0
 10
160.0
 20
14.0
 30
0.0
 11
160.53999999999991
 21
14.0
 31
0.0
  0
LINE
  5
363
  8
0
 10
160.0
 20
14.0
 30
0.0
 11
160.0
 21
12.0
 31
0.0
  0
LINE
  5
364
  8
0
 10
107.2799999999999
 20
12.0
 30
0.0
 11
108.0
 21
12.0
 31
0.0
  0
LINE
  5
367
  8
0
 10
88.0
 20
12.0
 30
0.0
 11
93.120000000000005
 21
12.0
 31
0.0
  0
LINE
  5
368
  8
0
 10
163.0
 20
14.0
 30
0.0
 11
163.0
 21
30.0
 31
0.0
  0
LINE
  5
369
  8
0
 10
163.0
 20
14.0
 30
0.0
 11
163.0
 21
30.0
 31
0.0
  0
LINE
  5
36A
  8
0
 10
163.0
 20
14.0
 30
0.0
 11
163.0
 21
30.0
 31
0.0
  0
LINE
  5
36D
  8
0
 10
190.0
 20
12.0
 30
0.0
 11
190.0
 21
14.0
 31
0.0
  0
LINE
  5
36E
  8
0
 10
219.0
 20
12.0
 30
0.0
 11
224.12
 21
12.0
 31
0.0
  0
LINE
  5
36F
  8
0
 10
224.12
 20
12.0
 30
0.0
 11
228.91999999999999
 21
12.0
 31
0.0
  0
LINE
  5
371
  8
0
 10
228.91999999999999
 20
12.0
 30
0.0
 11
233.15999999999991
 21
12.0
 31
0.0
  0
LINE
  5
373
  8
0
 10
239.0
 20
12.0
 30
0.0
 11
242.0
 21
12.0
 31
0.0
  0
LINE
  5
374
  8
0
 10
233.15999999999991
 20
12.0
 30
0.0
 11
236.36000000000001
 21
12.0
 31
0.0
  0
LINE
  5
376
  8
0
 10
236.36000000000001
 20
12.0
 30
0.0
 11
238.28
 21
12.0
 31
0.0
  0
LINE
  5
37A
  8
0
 10
238.28
 20
12.0
 30
0.0
 11
239.0
 21
12.0
 31
0.0
  0
LINE
  5
37D
  8
0
 10
256.87999999999988
 20
12.0
 30
0.0
 11
262.0
 21
12.0
 31
0.0
  0
LINE
  5
37F
  8
0
 10
252.08000000000001
 20
12.0
 30
0.0
 11
256.87999999999988
 21
12.0
 31
0.0
  0
LINE
  5
381
  8
0
 10
247.84
 20
12.0
 30
0.0
 11
252.08000000000001
 21
12.0
 31
0.0
  0
LINE
  5
382
  8
0
 10
244.63999999999999
 20
12.0
 30
0.0
 11
247.84
 21
12.0
 31
0.0
  0
LINE
  5
384
  8
0
 10
242.72
 20
12.0
 30
0.0
 11
244.63999999999999
 21
12.0
 31
0.0
  0
LINE
  5
386
  8
0
 10
188.02000000000001
 20
14.0
 30
0.0
 11
189.46000000000001
 21
14.0
 31
0.0
  0
LINE
  5
388
  8
0
 10
190.0
 20
14.0
 30
0.0
 11
190.0
 21
12.0
 31
0.0
  0
LINE
  5
389
  8
0
 10
189.46000000000001
 20
14.0
 30
0.0
 11
190.0
 21
14.0
 31
0.0
  0
LINE
  5
38B
  8
0
 10
242.0
 20
12.0
 30
0.0
 11
242.72
 21
12.0
 31
0.0
  0
LINE
  5
390
  8
0
 10
290.0
 20
12.0
 30
0.0
 11
290.0
 21
14.0
 31
0.0
  0
LINE
  5
391
  8
0
 10
290.0
 20
12.0
 30
0.0
 11
290.0
 21
14.0
 31
0.0
  0
LINE
  5
392
  8
0
 10
290.0
 20
12.0
 30
0.0
 11
290.0
 21
14.0
 31
0.0
  0
LINE
  5
393
  8
0
 10
304.0
 20
12.0
 30
0.0
 11
304.0
 21
14.0
 31
0.0
  0
LINE
  5
395
  8
0
 10
290.0
 20
14.0
 30
0.0
 11
290.0
 21
12.0
 31
0.0
  0
LINE
  5
396
  8
0
 10
290.0
 20
14.0
 30
0.0
 11
290.0
 21
12.0
 31
0.0
  0
LINE
  5
397
  8
0
 10
294.37999999999988
 20
14.0
 30
0.0
 11
297.56
 21
14.0
 31
0.0
  0
LINE
  5
399
  8
0
 10
291.98000000000002
 20
14.0
 30
0.0
 11
294.37999999999988
 21
14.0
 31
0.0
  0
LINE
  5
39B
  8
0
 10
290.54000000000002
 20
14.0
 30
0.0
 11
291.98000000000002
 21
14.0
 31
0.0
  0
LINE
  5
39D
  8
0
 10
290.0
 20
14.0
 30
0.0
 11
290.54000000000002
 21
14.0
 31
0.0
  0
LINE
  5
39E
  8
0
 10
290.0
 20
14.0
 30
0.0
 11
290.0
 21
12.0
 31
0.0
  0
LINE
  5
39F
  8
0
 10
304.0
 20
14.0
 30
0.0
 11
304.0
 21
12.0
 31
0.0
  0
LINE
  5
3A1
  8
0
 10
299.94400000000002
 20
14.0
 30
0.0
 11
304.0
 21
14.0
 31
0.0
  0
LINE
  5
3A2
  8
0
 10
297.56
 20
14.0
 30
0.0
 11
299.94400000000002
 21
14.0
 31
0.0
  0
LINE
  5
3A6
  8
0
 10
262.0
 20
12.0
 30
0.0
 11
330.0
 21
12.0
 31
0.0
  0
LINE
  5
3A7
  8
0
 10
187.0
 20
14.0
 30
0.0
 11
187.0
 21
30.0
 31
0.0
  0
LINE
  5
3A8
  8
0
 10
163.0
 20
30.0
 30
0.0
 11
163.0
 21
14.0
 31
0.0
  0
LINE
  5
3A9
  8
0
 10
163.0
 20
30.0
 30
0.0
 11
163.0
 21
14.0
 31
0.0
  0
LINE
  5
3AA
  8
0
 10
175.0
 20
30.0
 30
0.0
 11
178.072
 21
30.0
 31
0.0
  0
LINE
  5
3AB
  8
0
 10
178.072
 20
30.0
 30
0.0
 11
180.952
 21
30.0
 31
0.0
  0
LINE
  5
3AC
  8
0
 10
180.952
 20
30.0
 30
0.0
 11
183.4959999999999
 21
30.0
 31
0.0
  0
LINE
  5
3AD
  8
0
 10
183.4959999999999
 20
30.0
 30
0.0
 11
185.416
 21
30.0
 31
0.0
  0
LINE
  5
3AE
  8
0
 10
293.0
 20
30.0
 30
0.0
 11
293.0
 21
14.0
 31
0.0
  0
LINE
  5
3AF
  8
0
 10
293.0
 20
30.0
 30
0.0
 11
293.0
 21
14.0
 31
0.0
  0
LINE
  5
3B0
  8
0
 10
187.0
 20
30.0
 30
0.0
 11
187.0
 21
14.0
 31
0.0
  0
LINE
  5
3B1
  8
0
 10
185.416
 20
30.0
 30
0.0
 11
186.5679999999999
 21
30.0
 31
0.0
  0
LINE
  5
3B2
  8
0
 10
186.5679999999999
 20
30.0
 30
0.0
 11
187.0
 21
30.0
 31
0.0
  0
LINE
  5
3B3
  8
0
 10
171.92799999999991
 20
30.0
 30
0.0
 11
175.0
 21
30.0
 31
0.0
  0
LINE
  5
3B4
  8
0
 10
169.04799999999989
 20
30.0
 30
0.0
 11
171.92799999999991
 21
30.0
 31
0.0
  0
LINE
  5
3B5
  8
0
 10
166.50399999999999
 20
30.0
 30
0.0
 11
169.04799999999989
 21
30.0
 31
0.0
  0
LINE
  5
3B6
  8
0
 10
164.58399999999989
 20
30.0
 30
0.0
 11
166.50399999999999
 21
30.0
 31
0.0
  0
LINE
  5
3B7
  8
0
 10
163.43199999999999
 20
30.0
 30
0.0
 11
164.58399999999989
 21
30.0
 31
0.0
  0
LINE
  5
3B8
  8
0
 10
163.0
 20
30.0
 30
0.0
 11
163.43199999999999
 21
30.0
 31
0.0
  0
LINE
  5
3B9
  8
0
 10
163.0
 20
30.0
 30
0.0
 11
163.0
 21
14.0
 31
0.0
  0
LINE
  5
3BA
  8
0
 10
301.928
 20
30.0
 30
0.0
 11
305.0
 21
30.0
 31
0.0
  0
LINE
  5
3BB
  8
0
 10
299.048
 20
30.0
 30
0.0
 11
301.928
 21
30.0
 31
0.0
  0
LINE
  5
3BC
  8
0
 10
296.50400000000002
 20
30.0
 30
0.0
 11
299.048
 21
30.0
 31
0.0
  0
LINE
  5
3BD
  8
0
 10
294.584
 20
30.0
 30
0.0
 11
296.50400000000002
 21
30.0
 31
0.0
  0
LINE
  5
3BE
  8
0
 10
293.4319999999999
 20
30.0
 30
0.0
 11
294.584
 21
30.0
 31
0.0
  0
LINE
  5
3BF
  8
0
 10
293.0
 20
30.0
 30
0.0
 11
293.4319999999999
 21
30.0
 31
0.0
  0
LINE
  5
3C0
  8
0
 10
293.0
 20
30.0
 30
0.0
 11
293.0
 21
14.0
 31
0.0
  0
LINE
  5
3C1
  8
0
 10
293.0
 20
14.0
 30
0.0
 11
293.0
 21
30.0
 31
0.0
  0
LINE
  5
3C2
  8
0
 10
293.0
 20
14.0
 30
0.0
 11
293.0
 21
30.0
 31
0.0
  0
LINE
  5
3C3
  8
0
 10
293.0
 20
14.0
 30
0.0
 11
293.0
 21
30.0
 31
0.0
  0
LINE
  5
3C4
  8
0
 10
306.0
 20
12.0
 30
0.0
 11
306.0
 21
14.0
 31
0.0
  0
LINE
  5
3C5
  8
0
 10
310.05599999999993
 20
14.0
 30
0.0
 11
312.44
 21
14.0
 31
0.0
  0
LINE
  5
3C8
  8
0
 10
306.0
 20
14.0
 30
0.0
 11
306.0
 21
12.0
 31
0.0
  0
LINE
  5
3C9
  8
0
 10
306.0
 20
14.0
 30
0.0
 11
310.05599999999993
 21
14.0
 31
0.0
  0
LINE
  5
3CA
  8
0
 10
305.0
 20
30.0
 30
0.0
 11
308.07199999999989
 21
30.0
 31
0.0
  0
LINE
  5
3CB
  8
0
 10
308.07199999999989
 20
30.0
 30
0.0
 11
310.95199999999988
 21
30.0
 31
0.0
  0
LINE
  5
3CD
  8
0
 10
312.44
 20
14.0
 30
0.0
 11
315.62
 21
14.0
 31
0.0
  0
LINE
  5
3CF
  8
0
 10
310.95199999999988
 20
30.0
 30
0.0
 11
313.49599999999992
 21
30.0
 31
0.0
  0
LINE
  5
3D0
  8
0
 10
313.49599999999992
 20
30.0
 30
0.0
 11
315.416
 21
30.0
 31
0.0
  0
LINE
  5
3D1
  8
0
 10
315.62
 20
14.0
 30
0.0
 11
318.01999999999992
 21
14.0
 31
0.0
  0
LINE
  5
3D4
  8
0
 10
317.0
 20
14.0
 30
0.0
 11
317.0
 21
30.0
 31
0.0
  0
LINE
  5
3D5
  8
0
 10
315.416
 20
30.0
 30
0.0
 11
316.56799999999998
 21
30.0
 31
0.0
  0
LINE
  5
3D6
  8
0
 10
317.0
 20
10.0
 30
0.0
 11
317.0
 21
0.0000000000000067
 31
0.0
  0
LINE
  5
3D7
  8
0
 10
326.0
 20
9.9999999999999911
 30
0.0
 11
327.19999999999987
 21
9.9999999999999911
 31
0.0
  0
LINE
  5
3D8
  8
0
 10
327.19999999999987
 20
9.9999999999999911
 30
0.0
 11
330.0
 21
9.9999999999999911
 31
0.0
  0
LINE
  5
3D9
  8
0
 10
326.0
 20
9.9999999999999911
 30
0.0
 11
327.19999999999987
 21
9.9999999999999911
 31
0.0
  0
LINE
  5
3DA
  8
0
 10
330.0
 20
9.9999999999999911
 30
0.0
 11
335.11999999999989
 21
9.9999999999999911
 31
0.0
  0
LINE
  5
3DB
  8
0
 10
330.0
 20
9.9999999999999911
 30
0.0
 11
332.80000000000001
 21
9.9999999999999911
 31
0.0
  0
LINE
  5
3DC
  8
0
 10
335.11999999999989
 20
9.9999999999999911
 30
0.0
 11
339.92000000000002
 21
9.9999999999999911
 31
0.0
  0
LINE
  5
3DD
  8
0
 10
332.80000000000001
 20
9.9999999999999911
 30
0.0
 11
334.0
 21
9.9999999999999911
 31
0.0
  0
LINE
  5
3DE
  8
0
 10
332.80000000000001
 20
9.9999999999999911
 30
0.0
 11
334.0
 21
9.9999999999999911
 31
0.0
  0
LINE
  5
3DF
  8
0
 10
327.19999999999987
 20
9.9999999999999911
 30
0.0
 11
330.0
 21
9.9999999999999911
 31
0.0
  0
LINE
  5
3E0
  8
0
 10
326.0
 20
10.0
 30
0.0
 11
327.19999999999987
 21
10.0
 31
0.0
  0
LINE
  5
3E1
  8
0
 10
326.0
 20
10.0
 30
0.0
 11
327.19999999999987
 21
10.0
 31
0.0
  0
LINE
  5
3E2
  8
0
 10
330.0
 20
10.0
 30
0.0
 11
335.11999999999989
 21
10.0
 31
0.0
  0
LINE
  5
3E3
  8
0
 10
327.19999999999987
 20
10.0
 30
0.0
 11
330.0
 21
10.0
 31
0.0
  0
LINE
  5
3E4
  8
0
 10
332.80000000000001
 20
10.0
 30
0.0
 11
334.0
 21
10.0
 31
0.0
  0
LINE
  5
3E5
  8
0
 10
330.0
 20
10.0
 30
0.0
 11
332.80000000000001
 21
10.0
 31
0.0
  0
LINE
  5
3E6
  8
0
 10
332.80000000000001
 20
10.0
 30
0.0
 11
334.0
 21
10.0
 31
0.0
  0
LINE
  5
3E7
  8
0
 10
330.0
 20
10.0
 30
0.0
 11
332.80000000000001
 21
10.0
 31
0.0
  0
LINE
  5
3E8
  8
0
 10
327.19999999999987
 20
10.0
 30
0.0
 11
330.0
 21
10.0
 31
0.0
  0
LINE
  5
3E9
  8
0
 10
335.11999999999989
 20
10.0
 30
0.0
 11
339.92000000000002
 21
10.0
 31
0.0
  0
LINE
  5
3EA
  8
0
 10
330.0
 20
9.9999999999999911
 30
0.0
 11
332.80000000000001
 21
9.9999999999999911
 31
0.0
  0
LINE
  5
3EB
  8
0
 10
339.92000000000002
 20
9.9999999999999911
 30
0.0
 11
344.16000000000003
 21
9.9999999999999911
 31
0.0
  0
LINE
  5
3EC
  8
0
 10
344.16000000000003
 20
10.0
 30
0.0
 11
347.36000000000001
 21
10.0
 31
0.0
  0
LINE
  5
3ED
  8
0
 10
344.16000000000003
 20
10.0
 30
0.0
 11
347.36000000000001
 21
10.0
 31
0.0
  0
LINE
  5
3EE
  8
0
 10
339.92000000000002
 20
10.0
 30
0.0
 11
344.16000000000003
 21
10.0
 31
0.0
  0
LINE
  5
3EF
  8
0
 10
344.16000000000003
 20
9.9999999999999911
 30
0.0
 11
347.36000000000001
 21
9.9999999999999911
 31
0.0
  0
LINE
  5
3F0
  8
0
 10
347.36000000000001
 20
9.9999999999999911
 30
0.0
 11
349.27999999999992
 21
9.9999999999999911
 31
0.0
  0
LINE
  5
3F1
  8
0
 10
349.27999999999992
 20
9.9999999999999911
 30
0.0
 11
350.0
 21
9.9999999999999911
 31
0.0
  0
LINE
  5
3F2
  8
0
 10
347.36000000000001
 20
10.0
 30
0.0
 11
349.27999999999992
 21
10.0
 31
0.0
  0
LINE
  5
3F3
  8
0
 10
349.27999999999992
 20
10.0
 30
0.0
 11
350.0
 21
10.0
 31
0.0
  0
LINE
  5
3F4
  8
0
 10
347.36000000000001
 20
10.0
 30
0.0
 11
349.27999999999992
 21
10.0
 31
0.0
  0
LINE
  5
3F5
  8
0
 10
349.27999999999992
 20
10.0
 30
0.0
 11
350.0
 21
10.0
 31
0.0
  0
LINE
  5
3F6
  8
0
 10
349.27999999999992
 20
10.0
 30
0.0
 11
350.0
 21
9.9999999999999911
 31
0.0
  0
LINE
  5
3F7
  8
0
 10
347.36000000000001
 20
10.0
 30
0.0
 11
349.27999999999992
 21
10.0
 31
0.0
  0
LINE
  5
3F8
  8
0
 10
347.36000000000001
 20
10.0
 30
0.0
 11
349.27999999999992
 21
10.0
 31
0.0
  0
LINE
  5
3F9
  8
0
 10
344.16000000000003
 20
10.0
 30
0.0
 11
347.36000000000001
 21
10.0
 31
0.0
  0
LINE
  5
3FA
  8
0
 10
339.92000000000002
 20
10.0
 30
0.0
 11
344.16000000000003
 21
10.0
 31
0.0
  0
LINE
  5
3FB
  8
0
 10
335.11999999999989
 20
10.0
 30
0.0
 11
339.92000000000002
 21
10.0
 31
0.0
  0
LINE
  5
3FC
  8
0
 10
326.0
 20
10.0
 30
0.0
 11
327.19999999999987
 21
10.0
 31
0.0
  0
LINE
  5
3FD
  8
0
 10
326.0
 20
10.0
 30
0.0
 11
327.19999999999987
 21
10.0
 31
0.0
  0
LINE
  5
3FE
  8
0
 10
320.0
 20
12.0
 30
0.0
 11
320.0
 21
14.0
 31
0.0
  0
LINE
  5
401
  8
0
 10
318.01999999999992
 20
14.0
 30
0.0
 11
319.45999999999992
 21
14.0
 31
0.0
  0
LINE
  5
403
  8
0
 10
320.0
 20
14.0
 30
0.0
 11
320.0
 21
12.0
 31
0.0
  0
LINE
  5
404
  8
0
 10
319.45999999999992
 20
14.0
 30
0.0
 11
320.0
 21
14.0
 31
0.0
  0
LINE
  5
407
  8
0
 10
330.0
 20
12.0
 30
0.0
 11
335.11999999999989
 21
12.0
 31
0.0
  0
LINE
  5
409
  8
0
 10
330.0
 20
10.0
 30
0.0
 11
335.11999999999989
 21
10.0
 31
0.0
  0
LINE
  5
40A
  8
0
 10
327.19999999999987
 20
10.0
 30
0.0
 11
330.0
 21
10.0
 31
0.0
  0
LINE
  5
40B
  8
0
 10
330.0
 20
10.0
 30
0.0
 11
332.80000000000001
 21
10.0
 31
0.0
  0
LINE
  5
40C
  8
0
 10
327.19999999999987
 20
10.0
 30
0.0
 11
330.0
 21
10.0
 31
0.0
  0
LINE
  5
40D
  8
0
 10
332.80000000000001
 20
10.0
 30
0.0
 11
334.0
 21
10.0
 31
0.0
  0
LINE
  5
40E
  8
0
 10
349.27999999999992
 20
10.0
 30
0.0
 11
350.0
 21
10.0
 31
0.0
  0
LINE
  5
40F
  8
0
 10
332.80000000000001
 20
10.0
 30
0.0
 11
334.0
 21
10.0
 31
0.0
  0
LINE
  5
410
  8
0
 10
349.27999999999992
 20
10.0
 30
0.0
 11
350.0
 21
10.0
 31
0.0
  0
LINE
  5
412
  8
0
 10
335.11999999999989
 20
10.0
 30
0.0
 11
339.92000000000002
 21
10.0
 31
0.0
  0
LINE
  5
414
  8
0
 10
339.92000000000002
 20
10.0
 30
0.0
 11
344.16000000000003
 21
10.0
 31
0.0
  0
LINE
  5
417
  8
0
 10
335.11999999999989
 20
12.0
 30
0.0
 11
339.92000000000002
 21
12.0
 31
0.0
  0
LINE
  5
419
  8
0
 10
339.92000000000002
 20
12.0
 30
0.0
 11
344.16000000000003
 21
12.0
 31
0.0
  0
LINE
  5
41A
  8
0
 10
344.16000000000003
 20
12.0
 30
0.0
 11
347.36000000000001
 21
12.0
 31
0.0
  0
LINE
  5
41B
  8
0
 10
347.36000000000001
 20
12.0
 30
0.0
 11
349.27999999999992
 21
12.0
 31
0.0
  0
LINE
  5
41D
  8
0
 10
344.16000000000003
 20
10.0
 30
0.0
 11
347.36000000000001
 21
10.0
 31
0.0
  0
LINE
  5
41F
  8
0
 10
350.0
 20
12.0
 30
0.0
 11
350.0
 21
10.0
 31
0.0
  0
LINE
  5
420
  8
0
 10
349.27999999999992
 20
12.0
 30
0.0
 11
350.0
 21
12.0
 31
0.0
  0
LINE
  5
422
  8
0
 10
347.36000000000001
 20
10.0
 30
0.0
 11
349.27999999999992
 21
10.0
 31
0.0
  0
LINE
  5
424
  8
0
 10
350.0
 20
10.0
 30
0.0
 11
350.0
 21
12.0
 31
0.0
  0
LINE
  5
425
  8
0
 10
330.0
 20
10.0
 30
0.0
 11
332.80000000000001
 21
10.0
 31
0.0
  0
LINE
  5
426
  8
0
 10
330.0
 20
10.0
 30
0.0
 11
335.11999999999989
 21
10.0
 31
0.0
  0
LINE
  5
427
  8
0
 10
317.0
 20
30.0
 30
0.0
 11
317.0
 21
14.0
 31
0.0
  0
LINE
  5
428
  8
0
 10
316.56799999999998
 20
30.0
 30
0.0
 11
317.0
 21
30.0
 31
0.0
  0
LINE
  5
429
  8
0
 10
57.0
 20
14.0
 30
0.0
 11
57.0
 21
30.0
 31
0.0
  0
LINE
  5
42A
  8
0
 10
41.927999999999997
 20
30.0
 30
0.0
 11
45.0
 21
30.0
 31
0.0
  0
LINE
  5
42B
  8
0
 10
39.048000000000002
 20
30.0
 30
0.0
 11
41.927999999999997
 21
30.0
 31
0.0
  0
LINE
  5
42C
  8
0
 10
36.503999999999991
 20
30.0
 30
0.0
 11
39.048000000000002
 21
30.0
 31
0.0
  0
LINE
  5
42D
  8
0
 10
34.584000000000003
 20
30.0
 30
0.0
 11
36.503999999999991
 21
30.0
 31
0.0
  0
LINE
  5
42E
  8
0
 10
34.584000000000003
 20
0.0000000000000083
 30
0.0
 11
36.503999999999991
 21
0.0000000000000083
 31
0.0
  0
LINE
  5
42F
  8
0
 10
33.431999999999988
 20
30.0
 30
0.0
 11
34.584000000000003
 21
30.0
 31
0.0
  0
LINE
  5
430
  8
0
 10
33.431999999999988
 20
0.0000000000000067
 30
0.0
 11
34.584000000000003
 21
0.0000000000000083
 31
0.0
  0
LINE
  5
431
  8
0
 10
33.431999999999988
 20
0.0000000000000067
 30
0.0
 11
34.584000000000003
 21
0.0000000000000067
 31
0.0
  0
LINE
  5
432
  8
0
 10
33.0
 20
0.0000000000000067
 30
0.0
 11
33.431999999999988
 21
0.0000000000000067
 31
0.0
  0
LINE
  5
433
  8
0
 10
33.0
 20
0.0000000000000067
 30
0.0
 11
33.0
 21
10.0
 31
0.0
  0
ENDSEC
  0
EOF
