  0
SECTION
  2
HEADER
  9
$ACADVER
  1
AC1009
  9
$INSBASE
 10
0.0
 20
0.0
 30
0.0
  9
$EXTMIN
 10
-0.0000000000000109
 20
-0.0000000000000017
 30
0.0
  9
$EXTMAX
 10
28.0
 20
120.0
 30
0.0
  9
$LIMMIN
 10
0.0
 20
0.0
  9
$LIMMAX
 10
12.0
 20
9.0
  9
$ORTHOMODE
 70
     0
  9
$REGENMODE
 70
     1
  9
$FILLMODE
 70
     1
  9
$QTEXTMODE
 70
     0
  9
$MIRRTEXT
 70
     1
  9
$DRAGMODE
 70
     2
  9
$LTSCALE
 40
1.0
  9
$OSMODE
 70
    37
  9
$ATTMODE
 70
     1
  9
$TEXTSIZE
 40
0.2
  9
$TRACEWID
 40
0.05
  9
$TEXTSTYLE
  7
STANDARD
  9
$CLAYER
  8
0
  9
$CELTYPE
  6
CONTINUOUS
  9
$CECOLOR
 62
   256
  9
$DIMSCALE
 40
1.0
  9
$DIMASZ
 40
0.18
  9
$DIMEXO
 40
0.0625
  9
$DIMDLI
 40
0.38
  9
$DIMRND
 40
0.0
  9
$DIMDLE
 40
0.0
  9
$DIMEXE
 40
0.18
  9
$DIMTP
 40
0.0
  9
$DIMTM
 40
0.0
  9
$DIMTXT
 40
0.18
  9
$DIMCEN
 40
0.09
  9
$DIMTSZ
 40
0.0
  9
$DIMTOL
 70
     0
  9
$DIMLIM
 70
     0
  9
$DIMTIH
 70
     1
  9
$DIMTOH
 70
     1
  9
$DIMSE1
 70
     0
  9
$DIMSE2
 70
     0
  9
$DIMTAD
 70
     0
  9
$DIMZIN
 70
     0
  9
$DIMBLK
  1

  9
$DIMASO
 70
     1
  9
$DIMSHO
 70
     1
  9
$DIMPOST
  1

  9
$DIMAPOST
  1

  9
$DIMALT
 70
     0
  9
$DIMALTD
 70
     2
  9
$DIMALTF
 40
25.399999999999999
  9
$DIMLFAC
 40
1.0
  9
$DIMTOFL
 70
     0
  9
$DIMTVP
 40
0.0
  9
$DIMTIX
 70
     0
  9
$DIMSOXD
 70
     0
  9
$DIMSAH
 70
     0
  9
$DIMBLK1
  1

  9
$DIMBLK2
  1

  9
$DIMSTYLE
  2
STANDARD
  9
$DIMCLRD
 70
     0
  9
$DIMCLRE
 70
     0
  9
$DIMCLRT
 70
     0
  9
$DIMTFAC
 40
1.0
  9
$DIMGAP
 40
0.09
  9
$LUNITS
 70
     2
  9
$LUPREC
 70
     4
  9
$SKETCHINC
 40
0.1
  9
$FILLETRAD
 40
0.0
  9
$AUNITS
 70
     0
  9
$AUPREC
 70
     0
  9
$MENU
  1
.
  9
$ELEVATION
 40
0.0
  9
$PELEVATION
 40
0.0
  9
$THICKNESS
 40
0.0
  9
$LIMCHECK
 70
     0
  9
$BLIPMODE
 70
     0
  9
$CHAMFERA
 40
0.0
  9
$CHAMFERB
 40
0.0
  9
$SKPOLY
 70
     0
  9
$TDCREATE
 40
2454674.6031512148
  9
$TDUPDATE
 40
2454674.604459988
  9
$TDINDWG
 40
0.0013087731
  9
$TDUSRTIMER
 40
0.0013087731
  9
$USRTIMER
 70
     1
  9
$ANGBASE
 50
0.0
  9
$ANGDIR
 70
     0
  9
$PDMODE
 70
     0
  9
$PDSIZE
 40
0.0
  9
$PLINEWID
 40
0.0
  9
$COORDS
 70
     1
  9
$SPLFRAME
 70
     0
  9
$SPLINETYPE
 70
     6
  9
$SPLINESEGS
 70
     8
  9
$ATTDIA
 70
     0
  9
$ATTREQ
 70
     1
  9
$HANDLING
 70
 22529
  9
$HANDSEED
  5
42A
  9
$SURFTAB1
 70
     6
  9
$SURFTAB2
 70
     6
  9
$SURFTYPE
 70
     6
  9
$SURFU
 70
     6
  9
$SURFV
 70
     6
  9
$UCSNAME
  2

  9
$UCSORG
 10
0.0
 20
0.0
 30
0.0
  9
$UCSXDIR
 10
1.0
 20
0.0
 30
0.0
  9
$UCSYDIR
 10
0.0
 20
1.0
 30
0.0
  9
$PUCSNAME
  2

  9
$PUCSORG
 10
0.0
 20
0.0
 30
0.0
  9
$PUCSXDIR
 10
1.0
 20
0.0
 30
0.0
  9
$PUCSYDIR
 10
0.0
 20
1.0
 30
0.0
  9
$USERI1
 70
     0
  9
$USERI2
 70
     0
  9
$USERI3
 70
     0
  9
$USERI4
 70
     0
  9
$USERI5
 70
     0
  9
$USERR1
 40
0.0
  9
$USERR2
 40
0.0
  9
$USERR3
 40
0.0
  9
$USERR4
 40
0.0
  9
$USERR5
 40
0.0
  9
$WORLDVIEW
 70
     1
  9
$SHADEDGE
 70
     3
  9
$SHADEDIF
 70
    70
  9
$TILEMODE
 70
     1
  9
$MAXACTVP
 70
    64
  9
$PLIMCHECK
 70
     0
  9
$PEXTMIN
 10
1.0000000000000000E+020
 20
1.0000000000000000E+020
 30
1.0000000000000000E+020
  9
$PEXTMAX
 10
-1.0000000000000000E+020
 20
-1.0000000000000000E+020
 30
-1.0000000000000000E+020
  9
$PLIMMIN
 10
0.0
 20
0.0
  9
$PLIMMAX
 10
12.0
 20
9.0
  9
$UNITMODE
 70
     0
  9
$VISRETAIN
 70
     1
  9
$PLINEGEN
 70
     0
  9
$PSLTSCALE
 70
     1
  0
ENDSEC
  0
SECTION
  2
TABLES
  0
TABLE
  2
VPORT
 70
     4
  0
VPORT
  2
*ACTIVE
 70
     0
 10
0.0
 20
0.0
 11
1.0
 21
1.0
 12
13.999999999999989
 22
60.0
 13
0.0
 23
0.0
 14
1.0
 24
1.0
 15
0.0
 25
0.0
 16
0.0
 26
0.0
 36
1.0
 17
0.0
 27
0.0
 37
0.0
 40
120.92071611253191
 41
2.0435339308578739
 42
50.0
 43
0.0
 44
0.0
 50
0.0
 51
0.0
 71
     0
 72
   100
 73
     1
 74
     3
 75
     0
 76
     0
 77
     0
 78
     0
  0
ENDTAB
  0
TABLE
  2
LTYPE
 70
     1
  0
LTYPE
  2
CONTINUOUS
 70
     0
  3
Solid line
 72
    65
 73
     0
 40
0.0
  0
ENDTAB
  0
TABLE
  2
LAYER
 70
     1
  0
LAYER
  2
0
 70
     0
 62
     7
  6
CONTINUOUS
  0
ENDTAB
  0
TABLE
  2
STYLE
 70
     1
  0
STYLE
  2
STANDARD
 70
     0
 40
0.0
 41
1.0
 50
0.0
 71
     0
 42
0.2
  3
txt
  4

  0
ENDTAB
  0
TABLE
  2
VIEW
 70
     0
  0
ENDTAB
  0
TABLE
  2
UCS
 70
     0
  0
ENDTAB
  0
TABLE
  2
APPID
 70
     1
  0
APPID
  2
ACAD
 70
     0
  0
ENDTAB
  0
TABLE
  2
DIMSTYLE
 70
     1
  0
DIMSTYLE
  2
STANDARD
 70
     0
  3

  4

  5

  6

  7

 40
1.0
 41
0.18
 42
0.0625
 43
0.38
 44
0.18
 45
0.0
 46
0.0
 47
0.0
 48
0.0
140
0.18
141
0.09
142
0.0
143
25.399999999999999
144
1.0
145
0.0
146
1.0
147
0.09
 71
     0
 72
     0
 73
     1
 74
     1
 75
     0
 76
     0
 77
     0
 78
     0
170
     0
171
     2
172
     0
173
     0
174
     0
175
     0
176
     0
177
     0
178
     0
  0
ENDTAB
  0
ENDSEC
  0
SECTION
  2
BLOCKS
  0
BLOCK
  8
0
  2
$MODEL_SPACE
 70
     0
 10
0.0
 20
0.0
 30
0.0
  3
$MODEL_SPACE
  1

  0
ENDBLK
  5
20
  8
0
  0
BLOCK
 67
     1
  8
0
  2
$PAPER_SPACE
 70
     0
 10
0.0
 20
0.0
 30
0.0
  3
$PAPER_SPACE
  1

  0
ENDBLK
  5
1C
 67
     1
  8
0
  0
ENDSEC
  0
SECTION
  2
ENTITIES
  0
LINE
  5
22
  8
0
 10
2.2999999999999901
 20
0.3
 30
0.0
 11
2.4999999999999898
 21
0.3
 31
0.0
  0
LINE
  5
23
  8
0
 10
2.2999999999999901
 20
0.3
 30
0.0
 11
2.9999999999999898
 21
-0.0000000000000002
 31
0.0
  0
LINE
  5
24
  8
0
 10
2.2999999999999901
 20
0.3
 30
0.0
 11
2.9999999999999898
 21
-0.0000000000000002
 31
0.0
  0
LINE
  5
25
  8
0
 10
2.2999999999999901
 20
1.0
 30
0.0
 11
2.2999999999999989
 21
119.0
 31
0.0
  0
LINE
  5
26
  8
0
 10
2.2999999999999901
 20
1.0
 30
0.0
 11
2.4999999999999898
 21
0.3
 31
0.0
  0
LINE
  5
27
  8
0
 10
2.2999999999999901
 20
1.0
 30
0.0
 11
2.4999999999999898
 21
0.3
 31
0.0
  0
LINE
  5
28
  8
0
 10
-0.0000000000000109
 20
13.311999999999999
 30
0.0
 11
-0.0000000000000107
 21
13.624000000000001
 31
0.0
  0
LINE
  5
29
  8
0
 10
-0.0000000000000109
 20
13.311999999999999
 30
0.0
 11
-0.0000000000000109
 21
13.119999999999999
 31
0.0
  0
LINE
  5
2A
  8
0
 10
-0.0000000000000109
 20
13.119999999999999
 30
0.0
 11
-0.0000000000000109
 21
13.311999999999999
 31
0.0
  0
LINE
  5
2B
  8
0
 10
-0.0000000000000109
 20
13.119999999999999
 30
0.0
 11
-0.0000000000000109
 21
13.048
 31
0.0
  0
LINE
  5
2C
  8
0
 10
0.0415399999999891
 20
13.263999999999999
 30
0.0
 11
0.0415399999999891
 21
13.071999999999999
 31
0.0
  0
LINE
  5
2D
  8
0
 10
0.0415399999999891
 20
13.263999999999999
 30
0.0
 11
0.0415399999999892
 21
13.584
 31
0.0
  0
LINE
  5
2E
  8
0
 10
0.0415399999999892
 20
13.584
 30
0.0
 11
0.0415399999999892
 21
14.007999999999999
 31
0.0
  0
LINE
  5
2F
  8
0
 10
0.0415399999999891
 20
13.071999999999999
 30
0.0
 11
0.0415399999999891
 21
13.0
 31
0.0
  0
LINE
  5
30
  8
0
 10
0.0415399999999891
 20
13.071999999999999
 30
0.0
 11
0.0415399999999891
 21
13.263999999999999
 31
0.0
  0
LINE
  5
31
  8
0
 10
-0.0000000000000107
 20
15.504
 30
0.0
 11
-0.0000000000000107
 21
15.967999999999989
 31
0.0
  0
LINE
  5
32
  8
0
 10
-0.0000000000000107
 20
15.504
 30
0.0
 11
-0.0000000000000107
 21
15.0
 31
0.0
  0
LINE
  5
33
  8
0
 10
-0.0000000000000107
 20
15.967999999999989
 30
0.0
 11
-0.0000000000000106
 21
16.375999999999991
 31
0.0
  0
LINE
  5
34
  8
0
 10
-0.0000000000000107
 20
15.967999999999989
 30
0.0
 11
-0.0000000000000107
 21
15.504
 31
0.0
  0
LINE
  5
35
  8
0
 10
-0.0000000000000107
 20
15.0
 30
0.0
 11
-0.0000000000000107
 21
14.496
 31
0.0
  0
LINE
  5
36
  8
0
 10
-0.0000000000000107
 20
15.0
 30
0.0
 11
-0.0000000000000107
 21
15.504
 31
0.0
  0
LINE
  5
37
  8
0
 10
-0.0000000000000107
 20
14.496
 30
0.0
 11
-0.0000000000000107
 21
15.0
 31
0.0
  0
LINE
  5
38
  8
0
 10
-0.0000000000000107
 20
14.496
 30
0.0
 11
-0.0000000000000107
 21
14.032
 31
0.0
  0
LINE
  5
39
  8
0
 10
-0.0000000000000106
 20
16.375999999999991
 30
0.0
 11
-0.0000000000000106
 21
16.687999999999999
 31
0.0
  0
LINE
  5
3A
  8
0
 10
0.0415399999999892
 20
14.488
 30
0.0
 11
0.0415399999999892
 21
14.007999999999999
 31
0.0
  0
LINE
  5
3B
  8
0
 10
0.0415399999999892
 20
14.488
 30
0.0
 11
0.0415399999999892
 21
15.0
 31
0.0
  0
LINE
  5
3C
  8
0
 10
0.0415399999999892
 20
14.007999999999999
 30
0.0
 11
0.0415399999999892
 21
13.584
 31
0.0
  0
LINE
  5
3D
  8
0
 10
0.0415399999999892
 20
14.007999999999999
 30
0.0
 11
0.0415399999999892
 21
14.488
 31
0.0
  0
LINE
  5
3E
  8
0
 10
0.0415399999999892
 20
15.0
 30
0.0
 11
0.0415399999999892
 21
15.512
 31
0.0
  0
LINE
  5
3F
  8
0
 10
0.0415399999999892
 20
15.0
 30
0.0
 11
0.0415399999999892
 21
14.488
 31
0.0
  0
LINE
  5
40
  8
0
 10
0.0415399999999892
 20
15.512
 30
0.0
 11
0.0415399999999892
 21
15.0
 31
0.0
  0
LINE
  5
41
  8
0
 10
0.0415399999999892
 20
15.512
 30
0.0
 11
0.0415399999999892
 21
15.992000000000001
 31
0.0
  0
LINE
  5
42
  8
0
 10
0.0415399999999894
 20
16.416
 30
0.0
 11
0.0415399999999894
 21
16.736000000000001
 31
0.0
  0
LINE
  5
43
  8
0
 10
0.0415399999999892
 20
15.992000000000001
 30
0.0
 11
0.0415399999999894
 21
16.416
 31
0.0
  0
LINE
  5
44
  8
0
 10
0.0415399999999892
 20
15.992000000000001
 30
0.0
 11
0.0415399999999892
 21
15.512
 31
0.0
  0
LINE
  5
45
  8
0
 10
0.0415399999999894
 20
16.736000000000001
 30
0.0
 11
0.0415399999999894
 21
16.416
 31
0.0
  0
LINE
  5
46
  8
0
 10
0.0415399999999894
 20
16.736000000000001
 30
0.0
 11
0.0415399999999894
 21
16.928000000000001
 31
0.0
  0
LINE
  5
47
  8
0
 10
-0.0000000000000106
 20
16.687999999999999
 30
0.0
 11
-0.0000000000000106
 21
16.879999999999988
 31
0.0
  0
LINE
  5
48
  8
0
 10
-0.0000000000000106
 20
16.687999999999999
 30
0.0
 11
-0.0000000000000106
 21
16.375999999999991
 31
0.0
  0
LINE
  5
49
  8
0
 10
0.0415399999999894
 20
16.928000000000001
 30
0.0
 11
0.0415399999999894
 21
16.736000000000001
 31
0.0
  0
LINE
  5
4A
  8
0
 10
0.0415399999999894
 20
16.928000000000001
 30
0.0
 11
0.0415399999999894
 21
17.0
 31
0.0
  0
LINE
  5
4B
  8
0
 10
0.0415399999999901
 20
31.071999999999999
 30
0.0
 11
0.0415399999999901
 21
31.0
 31
0.0
  0
LINE
  5
4C
  8
0
 10
0.0415399999999901
 20
31.071999999999999
 30
0.0
 11
0.0415399999999903
 21
31.263999999999999
 31
0.0
  0
LINE
  5
4D
  8
0
 10
-0.0000000000000097
 20
33.503999999999998
 30
0.0
 11
-0.0000000000000097
 21
33.968000000000004
 31
0.0
  0
LINE
  5
4E
  8
0
 10
-0.0000000000000097
 20
33.503999999999998
 30
0.0
 11
-0.0000000000000097
 21
33.0
 31
0.0
  0
LINE
  5
4F
  8
0
 10
-0.0000000000000097
 20
33.968000000000004
 30
0.0
 11
-0.0000000000000095
 21
34.375999999999991
 31
0.0
  0
LINE
  5
50
  8
0
 10
-0.0000000000000097
 20
33.968000000000004
 30
0.0
 11
-0.0000000000000097
 21
33.503999999999998
 31
0.0
  0
LINE
  5
51
  8
0
 10
-0.0000000000000097
 20
33.0
 30
0.0
 11
-0.0000000000000097
 21
32.496000000000002
 31
0.0
  0
LINE
  5
52
  8
0
 10
-0.0000000000000097
 20
33.0
 30
0.0
 11
-0.0000000000000097
 21
33.503999999999998
 31
0.0
  0
LINE
  5
53
  8
0
 10
-0.0000000000000097
 20
32.496000000000002
 30
0.0
 11
-0.0000000000000097
 21
33.0
 31
0.0
  0
LINE
  5
54
  8
0
 10
-0.0000000000000097
 20
32.496000000000002
 30
0.0
 11
-0.0000000000000097
 21
32.031999999999989
 31
0.0
  0
LINE
  5
55
  8
0
 10
-0.0000000000000097
 20
32.031999999999989
 30
0.0
 11
-0.0000000000000097
 21
32.496000000000002
 31
0.0
  0
LINE
  5
56
  8
0
 10
-0.0000000000000097
 20
32.031999999999989
 30
0.0
 11
-0.0000000000000097
 21
31.623999999999999
 31
0.0
  0
LINE
  5
57
  8
0
 10
-0.0000000000000095
 20
34.375999999999991
 30
0.0
 11
-0.0000000000000095
 21
34.688000000000002
 31
0.0
  0
LINE
  5
58
  8
0
 10
-0.0000000000000095
 20
34.688000000000002
 30
0.0
 11
-0.0000000000000095
 21
34.880000000000003
 31
0.0
  0
LINE
  5
59
  8
0
 10
-0.0000000000000095
 20
34.688000000000002
 30
0.0
 11
-0.0000000000000095
 21
34.375999999999991
 31
0.0
  0
LINE
  5
5A
  8
0
 10
-0.0000000000000086
 20
51.503999999999998
 30
0.0
 11
-0.0000000000000086
 21
51.968000000000004
 31
0.0
  0
LINE
  5
5B
  8
0
 10
-0.0000000000000086
 20
51.503999999999998
 30
0.0
 11
-0.0000000000000086
 21
51.0
 31
0.0
  0
LINE
  5
5C
  8
0
 10
-0.0000000000000086
 20
51.968000000000004
 30
0.0
 11
-0.0000000000000084
 21
52.375999999999998
 31
0.0
  0
LINE
  5
5D
  8
0
 10
-0.0000000000000086
 20
51.968000000000004
 30
0.0
 11
-0.0000000000000086
 21
51.503999999999998
 31
0.0
  0
LINE
  5
5E
  8
0
 10
-0.0000000000000086
 20
51.0
 30
0.0
 11
-0.0000000000000086
 21
50.496000000000002
 31
0.0
  0
LINE
  5
5F
  8
0
 10
-0.0000000000000086
 20
51.0
 30
0.0
 11
-0.0000000000000086
 21
51.503999999999998
 31
0.0
  0
LINE
  5
60
  8
0
 10
-0.0000000000000086
 20
50.496000000000002
 30
0.0
 11
-0.0000000000000086
 21
51.0
 31
0.0
  0
LINE
  5
61
  8
0
 10
-0.0000000000000086
 20
50.496000000000002
 30
0.0
 11
-0.0000000000000086
 21
50.031999999999989
 31
0.0
  0
LINE
  5
62
  8
0
 10
-0.0000000000000086
 20
50.031999999999989
 30
0.0
 11
-0.0000000000000086
 21
50.496000000000002
 31
0.0
  0
LINE
  5
63
  8
0
 10
-0.0000000000000086
 20
50.031999999999989
 30
0.0
 11
-0.0000000000000086
 21
49.623999999999988
 31
0.0
  0
LINE
  5
64
  8
0
 10
-0.0000000000000086
 20
49.623999999999988
 30
0.0
 11
-0.0000000000000086
 21
50.031999999999989
 31
0.0
  0
LINE
  5
65
  8
0
 10
-0.0000000000000086
 20
49.623999999999988
 30
0.0
 11
-0.0000000000000086
 21
49.311999999999998
 31
0.0
  0
LINE
  5
66
  8
0
 10
-0.0000000000000086
 20
49.311999999999998
 30
0.0
 11
-0.0000000000000086
 21
49.623999999999988
 31
0.0
  0
LINE
  5
67
  8
0
 10
-0.0000000000000086
 20
49.311999999999998
 30
0.0
 11
-0.0000000000000086
 21
49.11999999999999
 31
0.0
  0
LINE
  5
68
  8
0
 10
-0.0000000000000084
 20
52.375999999999998
 30
0.0
 11
-0.0000000000000084
 21
52.688000000000002
 31
0.0
  0
LINE
  5
69
  8
0
 10
-0.0000000000000084
 20
52.688000000000002
 30
0.0
 11
-0.0000000000000084
 21
52.880000000000003
 31
0.0
  0
LINE
  5
6A
  8
0
 10
-0.0000000000000084
 20
52.688000000000002
 30
0.0
 11
-0.0000000000000084
 21
52.375999999999998
 31
0.0
  0
LINE
  5
6B
  8
0
 10
-0.0000000000000075
 20
69.503999999999991
 30
0.0
 11
-0.0000000000000073
 21
69.968000000000004
 31
0.0
  0
LINE
  5
6C
  8
0
 10
-0.0000000000000075
 20
69.503999999999991
 30
0.0
 11
-0.0000000000000075
 21
69.0
 31
0.0
  0
LINE
  5
6D
  8
0
 10
-0.0000000000000075
 20
69.0
 30
0.0
 11
-0.0000000000000075
 21
68.496000000000009
 31
0.0
  0
LINE
  5
6E
  8
0
 10
-0.0000000000000075
 20
69.0
 30
0.0
 11
-0.0000000000000075
 21
69.503999999999991
 31
0.0
  0
LINE
  5
6F
  8
0
 10
-0.0000000000000075
 20
68.496000000000009
 30
0.0
 11
-0.0000000000000075
 21
69.0
 31
0.0
  0
LINE
  5
70
  8
0
 10
-0.0000000000000075
 20
68.496000000000009
 30
0.0
 11
-0.0000000000000075
 21
68.031999999999996
 31
0.0
  0
LINE
  5
71
  8
0
 10
-0.0000000000000075
 20
68.031999999999996
 30
0.0
 11
-0.0000000000000075
 21
68.496000000000009
 31
0.0
  0
LINE
  5
72
  8
0
 10
-0.0000000000000075
 20
68.031999999999996
 30
0.0
 11
-0.0000000000000075
 21
67.623999999999995
 31
0.0
  0
LINE
  5
73
  8
0
 10
-0.0000000000000075
 20
67.623999999999995
 30
0.0
 11
-0.0000000000000075
 21
68.031999999999996
 31
0.0
  0
LINE
  5
74
  8
0
 10
-0.0000000000000075
 20
67.623999999999995
 30
0.0
 11
-0.0000000000000075
 21
67.311999999999998
 31
0.0
  0
LINE
  5
75
  8
0
 10
-0.0000000000000075
 20
67.311999999999998
 30
0.0
 11
-0.0000000000000075
 21
67.623999999999995
 31
0.0
  0
LINE
  5
76
  8
0
 10
-0.0000000000000075
 20
67.311999999999998
 30
0.0
 11
-0.0000000000000075
 21
67.120000000000005
 31
0.0
  0
LINE
  5
77
  8
0
 10
-0.0000000000000073
 20
69.968000000000004
 30
0.0
 11
-0.0000000000000073
 21
70.376000000000005
 31
0.0
  0
LINE
  5
78
  8
0
 10
-0.0000000000000073
 20
70.376000000000005
 30
0.0
 11
-0.0000000000000073
 21
70.688000000000002
 31
0.0
  0
LINE
  5
79
  8
0
 10
-0.0000000000000073
 20
70.376000000000005
 30
0.0
 11
-0.0000000000000073
 21
69.968000000000004
 31
0.0
  0
LINE
  5
7A
  8
0
 10
-0.0000000000000073
 20
70.688000000000002
 30
0.0
 11
-0.0000000000000073
 21
70.879999999999995
 31
0.0
  0
LINE
  5
7B
  8
0
 10
-0.0000000000000073
 20
70.688000000000002
 30
0.0
 11
-0.0000000000000073
 21
70.376000000000005
 31
0.0
  0
LINE
  5
7C
  8
0
 10
-0.0000000000000064
 20
87.503999999999991
 30
0.0
 11
-0.0000000000000062
 21
87.967999999999989
 31
0.0
  0
LINE
  5
7D
  8
0
 10
-0.0000000000000064
 20
87.503999999999991
 30
0.0
 11
-0.0000000000000064
 21
87.0
 31
0.0
  0
LINE
  5
7E
  8
0
 10
-0.0000000000000064
 20
87.0
 30
0.0
 11
-0.0000000000000064
 21
86.496000000000009
 31
0.0
  0
LINE
  5
7F
  8
0
 10
-0.0000000000000064
 20
87.0
 30
0.0
 11
-0.0000000000000064
 21
87.503999999999991
 31
0.0
  0
LINE
  5
80
  8
0
 10
-0.0000000000000064
 20
86.496000000000009
 30
0.0
 11
-0.0000000000000064
 21
87.0
 31
0.0
  0
LINE
  5
81
  8
0
 10
-0.0000000000000064
 20
86.496000000000009
 30
0.0
 11
-0.0000000000000064
 21
86.032000000000011
 31
0.0
  0
LINE
  5
82
  8
0
 10
-0.0000000000000064
 20
86.032000000000011
 30
0.0
 11
-0.0000000000000064
 21
86.496000000000009
 31
0.0
  0
LINE
  5
83
  8
0
 10
-0.0000000000000064
 20
86.032000000000011
 30
0.0
 11
-0.0000000000000064
 21
85.623999999999995
 31
0.0
  0
LINE
  5
84
  8
0
 10
-0.0000000000000064
 20
85.623999999999995
 30
0.0
 11
-0.0000000000000064
 21
86.032000000000011
 31
0.0
  0
LINE
  5
85
  8
0
 10
-0.0000000000000064
 20
85.623999999999995
 30
0.0
 11
-0.0000000000000064
 21
85.312000000000012
 31
0.0
  0
LINE
  5
86
  8
0
 10
-0.0000000000000064
 20
85.312000000000012
 30
0.0
 11
-0.0000000000000064
 21
85.623999999999995
 31
0.0
  0
LINE
  5
87
  8
0
 10
-0.0000000000000064
 20
85.312000000000012
 30
0.0
 11
-0.0000000000000064
 21
85.120000000000005
 31
0.0
  0
LINE
  5
88
  8
0
 10
-0.0000000000000062
 20
87.967999999999989
 30
0.0
 11
-0.0000000000000062
 21
88.376000000000005
 31
0.0
  0
LINE
  5
89
  8
0
 10
-0.0000000000000062
 20
88.376000000000005
 30
0.0
 11
-0.0000000000000062
 21
88.687999999999974
 31
0.0
  0
LINE
  5
8A
  8
0
 10
-0.0000000000000062
 20
88.376000000000005
 30
0.0
 11
-0.0000000000000062
 21
87.967999999999989
 31
0.0
  0
LINE
  5
8B
  8
0
 10
-0.0000000000000062
 20
88.687999999999974
 30
0.0
 11
-0.0000000000000062
 21
88.879999999999995
 31
0.0
  0
LINE
  5
8C
  8
0
 10
-0.0000000000000062
 20
88.687999999999974
 30
0.0
 11
-0.0000000000000062
 21
88.376000000000005
 31
0.0
  0
LINE
  5
8D
  8
0
 10
-0.0000000000000053
 20
105.50399999999991
 30
0.0
 11
-0.0000000000000051
 21
105.9679999999999
 31
0.0
  0
LINE
  5
8E
  8
0
 10
-0.0000000000000053
 20
105.50399999999991
 30
0.0
 11
-0.0000000000000053
 21
105.0
 31
0.0
  0
LINE
  5
8F
  8
0
 10
-0.0000000000000053
 20
105.0
 30
0.0
 11
-0.0000000000000053
 21
104.496
 31
0.0
  0
LINE
  5
90
  8
0
 10
-0.0000000000000053
 20
105.0
 30
0.0
 11
-0.0000000000000053
 21
105.50399999999991
 31
0.0
  0
LINE
  5
91
  8
0
 10
-0.0000000000000053
 20
104.496
 30
0.0
 11
-0.0000000000000053
 21
105.0
 31
0.0
  0
LINE
  5
92
  8
0
 10
-0.0000000000000053
 20
104.496
 30
0.0
 11
-0.0000000000000053
 21
104.032
 31
0.0
  0
LINE
  5
93
  8
0
 10
-0.0000000000000053
 20
104.032
 30
0.0
 11
-0.0000000000000053
 21
104.496
 31
0.0
  0
LINE
  5
94
  8
0
 10
-0.0000000000000053
 20
104.032
 30
0.0
 11
-0.0000000000000053
 21
103.624
 31
0.0
  0
LINE
  5
95
  8
0
 10
-0.0000000000000053
 20
103.624
 30
0.0
 11
-0.0000000000000053
 21
104.032
 31
0.0
  0
LINE
  5
96
  8
0
 10
-0.0000000000000053
 20
103.624
 30
0.0
 11
-0.0000000000000053
 21
103.312
 31
0.0
  0
LINE
  5
97
  8
0
 10
-0.0000000000000053
 20
103.312
 30
0.0
 11
-0.0000000000000053
 21
103.624
 31
0.0
  0
LINE
  5
98
  8
0
 10
-0.0000000000000053
 20
103.312
 30
0.0
 11
-0.0000000000000053
 21
103.12
 31
0.0
  0
LINE
  5
99
  8
0
 10
-0.0000000000000051
 20
105.9679999999999
 30
0.0
 11
-0.0000000000000051
 21
106.376
 31
0.0
  0
LINE
  5
9A
  8
0
 10
-0.0000000000000051
 20
106.376
 30
0.0
 11
-0.0000000000000051
 21
106.6879999999999
 31
0.0
  0
LINE
  5
9B
  8
0
 10
-0.0000000000000051
 20
106.376
 30
0.0
 11
-0.0000000000000051
 21
105.9679999999999
 31
0.0
  0
LINE
  5
9C
  8
0
 10
-0.0000000000000051
 20
106.6879999999999
 30
0.0
 11
-0.0000000000000051
 21
106.8799999999999
 31
0.0
  0
LINE
  5
9D
  8
0
 10
-0.0000000000000051
 20
106.6879999999999
 30
0.0
 11
-0.0000000000000051
 21
106.376
 31
0.0
  0
LINE
  5
9E
  8
0
 10
-0.0000000000000051
 20
106.952
 30
0.0
 11
0.0415399999999949
 21
107.0
 31
0.0
  0
LINE
  5
9F
  8
0
 10
-0.0000000000000051
 20
106.952
 30
0.0
 11
-0.0000000000000051
 21
106.8799999999999
 31
0.0
  0
LINE
  5
A0
  8
0
 10
-0.0000000000000051
 20
106.8799999999999
 30
0.0
 11
-0.0000000000000051
 21
106.952
 31
0.0
  0
LINE
  5
A1
  8
0
 10
-0.0000000000000051
 20
106.8799999999999
 30
0.0
 11
-0.0000000000000051
 21
106.6879999999999
 31
0.0
  0
LINE
  5
A2
  8
0
 10
-0.0000000000000053
 20
103.12
 30
0.0
 11
-0.0000000000000053
 21
103.312
 31
0.0
  0
LINE
  5
A3
  8
0
 10
-0.0000000000000053
 20
103.12
 30
0.0
 11
-0.0000000000000053
 21
103.0479999999999
 31
0.0
  0
LINE
  5
A4
  8
0
 10
-0.0000000000000053
 20
103.0479999999999
 30
0.0
 11
-0.0000000000000053
 21
103.12
 31
0.0
  0
LINE
  5
A5
  8
0
 10
-0.0000000000000053
 20
103.0479999999999
 30
0.0
 11
0.0415399999999947
 21
103.0
 31
0.0
  0
LINE
  5
A6
  8
0
 10
-0.0000000000000062
 20
88.951999999999998
 30
0.0
 11
0.0415399999999938
 21
89.0
 31
0.0
  0
LINE
  5
A7
  8
0
 10
-0.0000000000000062
 20
88.951999999999998
 30
0.0
 11
-0.0000000000000062
 21
88.879999999999995
 31
0.0
  0
LINE
  5
A8
  8
0
 10
-0.0000000000000062
 20
88.879999999999995
 30
0.0
 11
-0.0000000000000062
 21
88.951999999999998
 31
0.0
  0
LINE
  5
A9
  8
0
 10
-0.0000000000000062
 20
88.879999999999995
 30
0.0
 11
-0.0000000000000062
 21
88.687999999999974
 31
0.0
  0
LINE
  5
AA
  8
0
 10
-0.0000000000000064
 20
85.120000000000005
 30
0.0
 11
-0.0000000000000064
 21
85.312000000000012
 31
0.0
  0
LINE
  5
AB
  8
0
 10
-0.0000000000000064
 20
85.120000000000005
 30
0.0
 11
-0.0000000000000064
 21
85.047999999999988
 31
0.0
  0
LINE
  5
AC
  8
0
 10
-0.0000000000000064
 20
85.047999999999988
 30
0.0
 11
-0.0000000000000064
 21
85.120000000000005
 31
0.0
  0
LINE
  5
AD
  8
0
 10
-0.0000000000000064
 20
85.047999999999988
 30
0.0
 11
0.0415399999999936
 21
85.0
 31
0.0
  0
LINE
  5
AE
  8
0
 10
-0.0000000000000073
 20
70.951999999999998
 30
0.0
 11
0.0415399999999927
 21
71.0
 31
0.0
  0
LINE
  5
AF
  8
0
 10
-0.0000000000000073
 20
70.951999999999998
 30
0.0
 11
-0.0000000000000073
 21
70.879999999999995
 31
0.0
  0
LINE
  5
B0
  8
0
 10
-0.0000000000000073
 20
70.879999999999995
 30
0.0
 11
-0.0000000000000073
 21
70.951999999999998
 31
0.0
  0
LINE
  5
B1
  8
0
 10
-0.0000000000000073
 20
70.879999999999995
 30
0.0
 11
-0.0000000000000073
 21
70.688000000000002
 31
0.0
  0
LINE
  5
B2
  8
0
 10
-0.0000000000000075
 20
67.120000000000005
 30
0.0
 11
-0.0000000000000075
 21
67.311999999999998
 31
0.0
  0
LINE
  5
B3
  8
0
 10
-0.0000000000000075
 20
67.120000000000005
 30
0.0
 11
-0.0000000000000075
 21
67.048000000000002
 31
0.0
  0
LINE
  5
B4
  8
0
 10
-0.0000000000000075
 20
67.048000000000002
 30
0.0
 11
-0.0000000000000075
 21
67.120000000000005
 31
0.0
  0
LINE
  5
B5
  8
0
 10
-0.0000000000000075
 20
67.048000000000002
 30
0.0
 11
0.0415399999999925
 21
67.0
 31
0.0
  0
LINE
  5
B6
  8
0
 10
-0.0000000000000084
 20
52.951999999999998
 30
0.0
 11
0.0415399999999916
 21
53.0
 31
0.0
  0
LINE
  5
B7
  8
0
 10
-0.0000000000000084
 20
52.951999999999998
 30
0.0
 11
-0.0000000000000084
 21
52.880000000000003
 31
0.0
  0
LINE
  5
B8
  8
0
 10
-0.0000000000000084
 20
52.880000000000003
 30
0.0
 11
-0.0000000000000084
 21
52.951999999999998
 31
0.0
  0
LINE
  5
B9
  8
0
 10
-0.0000000000000084
 20
52.880000000000003
 30
0.0
 11
-0.0000000000000084
 21
52.688000000000002
 31
0.0
  0
LINE
  5
BA
  8
0
 10
-0.0000000000000086
 20
49.11999999999999
 30
0.0
 11
-0.0000000000000086
 21
49.311999999999998
 31
0.0
  0
LINE
  5
BB
  8
0
 10
-0.0000000000000087
 20
49.048000000000002
 30
0.0
 11
-0.0000000000000086
 21
49.11999999999999
 31
0.0
  0
LINE
  5
BC
  8
0
 10
-0.0000000000000087
 20
49.048000000000002
 30
0.0
 11
0.0415399999999912
 21
49.0
 31
0.0
  0
LINE
  5
BD
  8
0
 10
-0.0000000000000095
 20
34.951999999999998
 30
0.0
 11
0.0415399999999905
 21
35.0
 31
0.0
  0
LINE
  5
BE
  8
0
 10
-0.0000000000000095
 20
34.951999999999998
 30
0.0
 11
-0.0000000000000095
 21
34.880000000000003
 31
0.0
  0
LINE
  5
BF
  8
0
 10
-0.0000000000000095
 20
34.880000000000003
 30
0.0
 11
-0.0000000000000095
 21
34.951999999999998
 31
0.0
  0
LINE
  5
C0
  8
0
 10
-0.0000000000000095
 20
34.880000000000003
 30
0.0
 11
-0.0000000000000095
 21
34.688000000000002
 31
0.0
  0
LINE
  5
C1
  8
0
 10
-0.0000000000000097
 20
31.623999999999999
 30
0.0
 11
-0.0000000000000097
 21
32.031999999999989
 31
0.0
  0
LINE
  5
C2
  8
0
 10
-0.0000000000000097
 20
31.623999999999999
 30
0.0
 11
-0.0000000000000097
 21
31.311999999999991
 31
0.0
  0
LINE
  5
C3
  8
0
 10
-0.0000000000000097
 20
31.311999999999991
 30
0.0
 11
-0.0000000000000097
 21
31.623999999999999
 31
0.0
  0
LINE
  5
C4
  8
0
 10
-0.0000000000000098
 20
31.120000000000001
 30
0.0
 11
-0.0000000000000097
 21
31.311999999999991
 31
0.0
  0
LINE
  5
C5
  8
0
 10
-0.0000000000000098
 20
31.120000000000001
 30
0.0
 11
-0.0000000000000098
 21
31.047999999999998
 31
0.0
  0
LINE
  5
C6
  8
0
 10
-0.0000000000000098
 20
31.047999999999998
 30
0.0
 11
-0.0000000000000098
 21
31.120000000000001
 31
0.0
  0
LINE
  5
C7
  8
0
 10
-0.0000000000000098
 20
31.047999999999998
 30
0.0
 11
0.0415399999999901
 21
31.0
 31
0.0
  0
LINE
  5
C8
  8
0
 10
0.0415399999999903
 20
31.263999999999999
 30
0.0
 11
0.0415399999999903
 21
31.584
 31
0.0
  0
LINE
  5
C9
  8
0
 10
0.0415399999999903
 20
32.488
 30
0.0
 11
0.0415399999999903
 21
32.008000000000003
 31
0.0
  0
LINE
  5
CA
  8
0
 10
0.0415399999999903
 20
32.488
 30
0.0
 11
0.0415399999999903
 21
33.0
 31
0.0
  0
LINE
  5
CB
  8
0
 10
0.0415399999999903
 20
32.008000000000003
 30
0.0
 11
0.0415399999999903
 21
31.584
 31
0.0
  0
LINE
  5
CC
  8
0
 10
0.0415399999999903
 20
32.008000000000003
 30
0.0
 11
0.0415399999999903
 21
32.488
 31
0.0
  0
LINE
  5
CD
  8
0
 10
0.0415399999999903
 20
31.584
 30
0.0
 11
0.0415399999999903
 21
31.263999999999999
 31
0.0
  0
LINE
  5
CE
  8
0
 10
0.0415399999999903
 20
31.584
 30
0.0
 11
0.0415399999999903
 21
32.008000000000003
 31
0.0
  0
LINE
  5
CF
  8
0
 10
0.0415399999999903
 20
33.0
 30
0.0
 11
0.0415399999999903
 21
33.512
 31
0.0
  0
LINE
  5
D0
  8
0
 10
0.0415399999999903
 20
33.0
 30
0.0
 11
0.0415399999999903
 21
32.488
 31
0.0
  0
LINE
  5
D1
  8
0
 10
0.0415399999999903
 20
33.512
 30
0.0
 11
0.0415399999999903
 21
33.0
 31
0.0
  0
LINE
  5
D2
  8
0
 10
0.0415399999999903
 20
33.512
 30
0.0
 11
0.0415399999999903
 21
33.99199999999999
 31
0.0
  0
LINE
  5
D3
  8
0
 10
0.0415399999999905
 20
34.41599999999999
 30
0.0
 11
0.0415399999999905
 21
34.73599999999999
 31
0.0
  0
LINE
  5
D4
  8
0
 10
0.0415399999999903
 20
33.99199999999999
 30
0.0
 11
0.0415399999999905
 21
34.41599999999999
 31
0.0
  0
LINE
  5
D5
  8
0
 10
0.0415399999999903
 20
33.99199999999999
 30
0.0
 11
0.0415399999999903
 21
33.512
 31
0.0
  0
LINE
  5
D6
  8
0
 10
0.0415399999999905
 20
34.73599999999999
 30
0.0
 11
0.0415399999999905
 21
34.41599999999999
 31
0.0
  0
LINE
  5
D7
  8
0
 10
0.0415399999999905
 20
34.73599999999999
 30
0.0
 11
0.0415399999999905
 21
34.927999999999997
 31
0.0
  0
LINE
  5
D8
  8
0
 10
0.0415399999999905
 20
34.927999999999997
 30
0.0
 11
0.0415399999999905
 21
34.73599999999999
 31
0.0
  0
LINE
  5
D9
  8
0
 10
0.0415399999999905
 20
34.927999999999997
 30
0.0
 11
0.0415399999999905
 21
35.0
 31
0.0
  0
LINE
  5
DA
  8
0
 10
0.0415399999999912
 20
49.071999999999989
 30
0.0
 11
0.0415399999999912
 21
49.0
 31
0.0
  0
LINE
  5
DB
  8
0
 10
0.0415399999999912
 20
49.071999999999989
 30
0.0
 11
0.0415399999999914
 21
49.264000000000003
 31
0.0
  0
LINE
  5
DC
  8
0
 10
0.0415399999999914
 20
49.264000000000003
 30
0.0
 11
0.0415399999999914
 21
49.584000000000003
 31
0.0
  0
LINE
  5
DD
  8
0
 10
0.0415399999999914
 20
50.487999999999992
 30
0.0
 11
0.0415399999999914
 21
50.008000000000003
 31
0.0
  0
LINE
  5
DE
  8
0
 10
0.0415399999999914
 20
50.487999999999992
 30
0.0
 11
0.0415399999999914
 21
51.0
 31
0.0
  0
LINE
  5
DF
  8
0
 10
0.0415399999999914
 20
50.008000000000003
 30
0.0
 11
0.0415399999999914
 21
49.584000000000003
 31
0.0
  0
LINE
  5
E0
  8
0
 10
0.0415399999999914
 20
50.008000000000003
 30
0.0
 11
0.0415399999999914
 21
50.487999999999992
 31
0.0
  0
LINE
  5
E1
  8
0
 10
0.0415399999999914
 20
49.584000000000003
 30
0.0
 11
0.0415399999999914
 21
49.264000000000003
 31
0.0
  0
LINE
  5
E2
  8
0
 10
0.0415399999999914
 20
49.584000000000003
 30
0.0
 11
0.0415399999999914
 21
50.008000000000003
 31
0.0
  0
LINE
  5
E3
  8
0
 10
0.0415399999999914
 20
51.0
 30
0.0
 11
0.0415399999999914
 21
51.512
 31
0.0
  0
LINE
  5
E4
  8
0
 10
0.0415399999999914
 20
51.0
 30
0.0
 11
0.0415399999999914
 21
50.487999999999992
 31
0.0
  0
LINE
  5
E5
  8
0
 10
0.0415399999999914
 20
51.512
 30
0.0
 11
0.0415399999999914
 21
51.0
 31
0.0
  0
LINE
  5
E6
  8
0
 10
0.0415399999999914
 20
51.512
 30
0.0
 11
0.0415399999999914
 21
51.991999999999997
 31
0.0
  0
LINE
  5
E7
  8
0
 10
0.0415399999999916
 20
52.415999999999997
 30
0.0
 11
0.0415399999999916
 21
52.735999999999997
 31
0.0
  0
LINE
  5
E8
  8
0
 10
0.0415399999999914
 20
51.991999999999997
 30
0.0
 11
0.0415399999999916
 21
52.415999999999997
 31
0.0
  0
LINE
  5
E9
  8
0
 10
0.0415399999999914
 20
51.991999999999997
 30
0.0
 11
0.0415399999999914
 21
51.512
 31
0.0
  0
LINE
  5
EA
  8
0
 10
0.0415399999999916
 20
52.735999999999997
 30
0.0
 11
0.0415399999999916
 21
52.415999999999997
 31
0.0
  0
LINE
  5
EB
  8
0
 10
0.0415399999999916
 20
52.735999999999997
 30
0.0
 11
0.0415399999999916
 21
52.927999999999997
 31
0.0
  0
LINE
  5
EC
  8
0
 10
0.0415399999999916
 20
52.927999999999997
 30
0.0
 11
0.0415399999999916
 21
52.735999999999997
 31
0.0
  0
LINE
  5
ED
  8
0
 10
0.0415399999999916
 20
52.927999999999997
 30
0.0
 11
0.0415399999999916
 21
53.0
 31
0.0
  0
LINE
  5
EE
  8
0
 10
0.0415399999999916
 20
53.0
 30
0.0
 11
1.9999999999999889
 21
53.0
 31
0.0
  0
LINE
  5
EF
  8
0
 10
0.0415399999999916
 20
53.0
 30
0.0
 11
0.0415399999999916
 21
52.927999999999997
 31
0.0
  0
LINE
  5
F0
  8
0
 10
0.0415399999999925
 20
67.0
 30
0.0
 11
1.9999999999999889
 21
67.0
 31
0.0
  0
LINE
  5
F1
  8
0
 10
0.0415399999999925
 20
67.0
 30
0.0
 11
0.0415399999999925
 21
67.072000000000003
 31
0.0
  0
LINE
  5
F2
  8
0
 10
0.0415399999999925
 20
68.488
 30
0.0
 11
0.0415399999999925
 21
68.007999999999996
 31
0.0
  0
LINE
  5
F3
  8
0
 10
0.0415399999999925
 20
68.488
 30
0.0
 11
0.0415399999999925
 21
69.0
 31
0.0
  0
LINE
  5
F4
  8
0
 10
0.0415399999999925
 20
68.007999999999996
 30
0.0
 11
0.0415399999999925
 21
67.584000000000003
 31
0.0
  0
LINE
  5
F5
  8
0
 10
0.0415399999999925
 20
68.007999999999996
 30
0.0
 11
0.0415399999999925
 21
68.488
 31
0.0
  0
LINE
  5
F6
  8
0
 10
0.0415399999999925
 20
67.584000000000003
 30
0.0
 11
0.0415399999999925
 21
67.263999999999996
 31
0.0
  0
LINE
  5
F7
  8
0
 10
0.0415399999999925
 20
67.584000000000003
 30
0.0
 11
0.0415399999999925
 21
68.007999999999996
 31
0.0
  0
LINE
  5
F8
  8
0
 10
0.0415399999999925
 20
67.263999999999996
 30
0.0
 11
0.0415399999999925
 21
67.072000000000003
 31
0.0
  0
LINE
  5
F9
  8
0
 10
0.0415399999999925
 20
67.263999999999996
 30
0.0
 11
0.0415399999999925
 21
67.584000000000003
 31
0.0
  0
LINE
  5
FA
  8
0
 10
0.0415399999999925
 20
67.072000000000003
 30
0.0
 11
0.0415399999999925
 21
67.0
 31
0.0
  0
LINE
  5
FB
  8
0
 10
0.0415399999999925
 20
67.072000000000003
 30
0.0
 11
0.0415399999999925
 21
67.263999999999996
 31
0.0
  0
LINE
  5
FC
  8
0
 10
0.0415399999999925
 20
69.0
 30
0.0
 11
0.0415399999999925
 21
69.512
 31
0.0
  0
LINE
  5
FD
  8
0
 10
0.0415399999999925
 20
69.0
 30
0.0
 11
0.0415399999999925
 21
68.488
 31
0.0
  0
LINE
  5
FE
  8
0
 10
0.0415399999999927
 20
69.992000000000004
 30
0.0
 11
0.0415399999999927
 21
70.415999999999997
 31
0.0
  0
LINE
  5
FF
  8
0
 10
0.0415399999999925
 20
69.512
 30
0.0
 11
0.0415399999999927
 21
69.992000000000004
 31
0.0
  0
LINE
  5
100
  8
0
 10
0.0415399999999925
 20
69.512
 30
0.0
 11
0.0415399999999925
 21
69.0
 31
0.0
  0
LINE
  5
101
  8
0
 10
0.0415399999999927
 20
70.415999999999997
 30
0.0
 11
0.0415399999999927
 21
69.992000000000004
 31
0.0
  0
LINE
  5
102
  8
0
 10
0.0415399999999927
 20
70.415999999999997
 30
0.0
 11
0.0415399999999927
 21
70.736000000000004
 31
0.0
  0
LINE
  5
103
  8
0
 10
0.0415399999999927
 20
70.736000000000004
 30
0.0
 11
0.0415399999999927
 21
70.415999999999997
 31
0.0
  0
LINE
  5
104
  8
0
 10
0.0415399999999927
 20
70.736000000000004
 30
0.0
 11
0.0415399999999927
 21
70.927999999999997
 31
0.0
  0
LINE
  5
105
  8
0
 10
0.0415399999999927
 20
70.927999999999997
 30
0.0
 11
0.0415399999999927
 21
70.736000000000004
 31
0.0
  0
LINE
  5
106
  8
0
 10
0.0415399999999927
 20
70.927999999999997
 30
0.0
 11
0.0415399999999927
 21
71.0
 31
0.0
  0
LINE
  5
107
  8
0
 10
0.0415399999999936
 20
85.0
 30
0.0
 11
1.9999999999999889
 21
85.0
 31
0.0
  0
LINE
  5
108
  8
0
 10
0.0415399999999936
 20
85.0
 30
0.0
 11
0.0415399999999936
 21
85.072000000000003
 31
0.0
  0
LINE
  5
109
  8
0
 10
0.0415399999999936
 20
86.487999999999985
 30
0.0
 11
0.0415399999999936
 21
86.007999999999996
 31
0.0
  0
LINE
  5
10A
  8
0
 10
0.0415399999999936
 20
86.487999999999985
 30
0.0
 11
0.0415399999999936
 21
87.0
 31
0.0
  0
LINE
  5
10B
  8
0
 10
0.0415399999999936
 20
86.007999999999996
 30
0.0
 11
0.0415399999999936
 21
85.584000000000003
 31
0.0
  0
LINE
  5
10C
  8
0
 10
0.0415399999999936
 20
86.007999999999996
 30
0.0
 11
0.0415399999999936
 21
86.487999999999985
 31
0.0
  0
LINE
  5
10D
  8
0
 10
0.0415399999999936
 20
85.584000000000003
 30
0.0
 11
0.0415399999999936
 21
85.263999999999996
 31
0.0
  0
LINE
  5
10E
  8
0
 10
0.0415399999999936
 20
85.584000000000003
 30
0.0
 11
0.0415399999999936
 21
86.007999999999996
 31
0.0
  0
LINE
  5
10F
  8
0
 10
0.0415399999999936
 20
85.263999999999996
 30
0.0
 11
0.0415399999999936
 21
85.072000000000003
 31
0.0
  0
LINE
  5
110
  8
0
 10
0.0415399999999936
 20
85.263999999999996
 30
0.0
 11
0.0415399999999936
 21
85.584000000000003
 31
0.0
  0
LINE
  5
111
  8
0
 10
0.0415399999999936
 20
85.072000000000003
 30
0.0
 11
0.0415399999999936
 21
85.0
 31
0.0
  0
LINE
  5
112
  8
0
 10
0.0415399999999936
 20
85.072000000000003
 30
0.0
 11
0.0415399999999936
 21
85.263999999999996
 31
0.0
  0
LINE
  5
113
  8
0
 10
0.0415399999999936
 20
87.0
 30
0.0
 11
0.0415399999999936
 21
87.512
 31
0.0
  0
LINE
  5
114
  8
0
 10
0.0415399999999936
 20
87.0
 30
0.0
 11
0.0415399999999936
 21
86.487999999999985
 31
0.0
  0
LINE
  5
115
  8
0
 10
0.0415399999999938
 20
87.992000000000004
 30
0.0
 11
0.0415399999999938
 21
88.415999999999997
 31
0.0
  0
LINE
  5
116
  8
0
 10
0.0415399999999936
 20
87.512
 30
0.0
 11
0.0415399999999938
 21
87.992000000000004
 31
0.0
  0
LINE
  5
117
  8
0
 10
0.0415399999999936
 20
87.512
 30
0.0
 11
0.0415399999999936
 21
87.0
 31
0.0
  0
LINE
  5
118
  8
0
 10
0.0415399999999938
 20
88.415999999999997
 30
0.0
 11
0.0415399999999938
 21
87.992000000000004
 31
0.0
  0
LINE
  5
119
  8
0
 10
0.0415399999999938
 20
88.415999999999997
 30
0.0
 11
0.0415399999999938
 21
88.736000000000004
 31
0.0
  0
LINE
  5
11A
  8
0
 10
0.0415399999999938
 20
88.736000000000004
 30
0.0
 11
0.0415399999999938
 21
88.415999999999997
 31
0.0
  0
LINE
  5
11B
  8
0
 10
0.0415399999999938
 20
88.736000000000004
 30
0.0
 11
0.0415399999999938
 21
88.927999999999983
 31
0.0
  0
LINE
  5
11C
  8
0
 10
0.0415399999999938
 20
88.927999999999983
 30
0.0
 11
0.0415399999999938
 21
88.736000000000004
 31
0.0
  0
LINE
  5
11D
  8
0
 10
0.0415399999999938
 20
88.927999999999983
 30
0.0
 11
0.0415399999999938
 21
89.0
 31
0.0
  0
LINE
  5
11E
  8
0
 10
0.0415399999999938
 20
89.0
 30
0.0
 11
1.9999999999999889
 21
89.0
 31
0.0
  0
LINE
  5
11F
  8
0
 10
0.0415399999999938
 20
89.0
 30
0.0
 11
0.0415399999999938
 21
88.927999999999983
 31
0.0
  0
LINE
  5
120
  8
0
 10
0.0415399999999947
 20
104.488
 30
0.0
 11
0.0415399999999947
 21
104.0079999999999
 31
0.0
  0
LINE
  5
121
  8
0
 10
0.0415399999999947
 20
104.488
 30
0.0
 11
0.0415399999999947
 21
105.0
 31
0.0
  0
LINE
  5
122
  8
0
 10
0.0415399999999947
 20
104.0079999999999
 30
0.0
 11
0.0415399999999947
 21
103.584
 31
0.0
  0
LINE
  5
123
  8
0
 10
0.0415399999999947
 20
104.0079999999999
 30
0.0
 11
0.0415399999999947
 21
104.488
 31
0.0
  0
LINE
  5
124
  8
0
 10
0.0415399999999947
 20
103.584
 30
0.0
 11
0.0415399999999947
 21
103.264
 31
0.0
  0
LINE
  5
125
  8
0
 10
0.0415399999999947
 20
103.584
 30
0.0
 11
0.0415399999999947
 21
104.0079999999999
 31
0.0
  0
LINE
  5
126
  8
0
 10
0.0415399999999947
 20
103.264
 30
0.0
 11
0.0415399999999947
 21
103.072
 31
0.0
  0
LINE
  5
127
  8
0
 10
0.0415399999999947
 20
103.264
 30
0.0
 11
0.0415399999999947
 21
103.584
 31
0.0
  0
LINE
  5
128
  8
0
 10
0.0415399999999947
 20
103.072
 30
0.0
 11
0.0415399999999947
 21
103.0
 31
0.0
  0
LINE
  5
129
  8
0
 10
0.0415399999999947
 20
103.072
 30
0.0
 11
0.0415399999999947
 21
103.264
 31
0.0
  0
LINE
  5
12A
  8
0
 10
0.0415399999999947
 20
105.0
 30
0.0
 11
0.0415399999999947
 21
105.512
 31
0.0
  0
LINE
  5
12B
  8
0
 10
0.0415399999999947
 20
105.0
 30
0.0
 11
0.0415399999999947
 21
104.488
 31
0.0
  0
LINE
  5
12C
  8
0
 10
0.0415399999999949
 20
105.9919999999999
 30
0.0
 11
0.0415399999999949
 21
106.4159999999999
 31
0.0
  0
LINE
  5
12D
  8
0
 10
0.0415399999999947
 20
105.512
 30
0.0
 11
0.0415399999999949
 21
105.9919999999999
 31
0.0
  0
LINE
  5
12E
  8
0
 10
0.0415399999999947
 20
105.512
 30
0.0
 11
0.0415399999999947
 21
105.0
 31
0.0
  0
LINE
  5
12F
  8
0
 10
0.0415399999999949
 20
106.4159999999999
 30
0.0
 11
0.0415399999999949
 21
105.9919999999999
 31
0.0
  0
LINE
  5
130
  8
0
 10
0.0415399999999949
 20
106.4159999999999
 30
0.0
 11
0.0415399999999949
 21
106.736
 31
0.0
  0
LINE
  5
131
  8
0
 10
0.0415399999999949
 20
106.736
 30
0.0
 11
0.0415399999999949
 21
106.4159999999999
 31
0.0
  0
LINE
  5
132
  8
0
 10
0.0415399999999949
 20
106.736
 30
0.0
 11
0.0415399999999949
 21
106.928
 31
0.0
  0
LINE
  5
133
  8
0
 10
0.0415399999999949
 20
106.928
 30
0.0
 11
0.0415399999999949
 21
106.736
 31
0.0
  0
LINE
  5
134
  8
0
 10
0.0415399999999949
 20
106.928
 30
0.0
 11
0.0415399999999949
 21
107.0
 31
0.0
  0
LINE
  5
135
  8
0
 10
0.0415399999999949
 20
107.0
 30
0.0
 11
2.0
 21
107.0
 31
0.0
  0
LINE
  5
136
  8
0
 10
0.0415399999999949
 20
107.0
 30
0.0
 11
0.0415399999999949
 21
106.928
 31
0.0
  0
LINE
  5
137
  8
0
 10
0.0415399999999947
 20
103.0
 30
0.0
 11
2.0
 21
103.0
 31
0.0
  0
LINE
  5
138
  8
0
 10
0.0415399999999947
 20
103.0
 30
0.0
 11
0.0415399999999947
 21
103.072
 31
0.0
  0
LINE
  5
139
  8
0
 10
0.0415399999999949
 20
103.0
 30
0.0
 11
2.0
 21
103.0
 31
0.0
  0
LINE
  5
13A
  8
0
 10
0.0415399999999934
 20
85.0
 30
0.0
 11
1.9999999999999889
 21
85.0
 31
0.0
  0
LINE
  5
13B
  8
0
 10
0.0415399999999927
 20
71.0
 30
0.0
 11
1.9999999999999889
 21
71.0
 31
0.0
  0
LINE
  5
13C
  8
0
 10
0.0415399999999927
 20
71.0
 30
0.0
 11
0.0415399999999927
 21
70.927999999999997
 31
0.0
  0
LINE
  5
13D
  8
0
 10
0.0415399999999927
 20
67.0
 30
0.0
 11
1.9999999999999889
 21
67.0
 31
0.0
  0
LINE
  5
13E
  8
0
 10
0.0415399999999912
 20
49.0
 30
0.0
 11
1.9999999999999889
 21
49.0
 31
0.0
  0
LINE
  5
13F
  8
0
 10
0.0415399999999912
 20
49.0
 30
0.0
 11
0.0415399999999912
 21
49.071999999999989
 31
0.0
  0
LINE
  5
140
  8
0
 10
0.0415399999999905
 20
35.0
 30
0.0
 11
1.9999999999999889
 21
35.0
 31
0.0
  0
LINE
  5
141
  8
0
 10
0.0415399999999905
 20
35.0
 30
0.0
 11
1.9999999999999889
 21
35.0
 31
0.0
  0
LINE
  5
142
  8
0
 10
0.0415399999999905
 20
35.0
 30
0.0
 11
0.0415399999999905
 21
34.927999999999997
 31
0.0
  0
LINE
  5
143
  8
0
 10
0.0415399999999901
 20
31.0
 30
0.0
 11
1.9999999999999889
 21
31.0
 31
0.0
  0
LINE
  5
144
  8
0
 10
0.0415399999999901
 20
31.0
 30
0.0
 11
0.0415399999999901
 21
31.071999999999999
 31
0.0
  0
LINE
  5
145
  8
0
 10
0.0415399999999894
 20
17.0
 30
0.0
 11
1.9999999999999889
 21
17.0
 31
0.0
  0
LINE
  5
146
  8
0
 10
0.0415399999999894
 20
17.0
 30
0.0
 11
1.9999999999999889
 21
17.0
 31
0.0
  0
LINE
  5
147
  8
0
 10
0.0415399999999894
 20
17.0
 30
0.0
 11
0.0415399999999894
 21
16.928000000000001
 31
0.0
  0
LINE
  5
148
  8
0
 10
-0.0000000000000106
 20
16.952000000000002
 30
0.0
 11
-0.0000000000000106
 21
16.879999999999988
 31
0.0
  0
LINE
  5
149
  8
0
 10
-0.0000000000000106
 20
16.952000000000002
 30
0.0
 11
0.0415399999999894
 21
17.0
 31
0.0
  0
LINE
  5
14A
  8
0
 10
-0.0000000000000106
 20
16.879999999999988
 30
0.0
 11
-0.0000000000000106
 21
16.952000000000002
 31
0.0
  0
LINE
  5
14B
  8
0
 10
-0.0000000000000106
 20
16.879999999999988
 30
0.0
 11
-0.0000000000000106
 21
16.687999999999999
 31
0.0
  0
LINE
  5
14C
  8
0
 10
-0.0000000000000107
 20
14.032
 30
0.0
 11
-0.0000000000000107
 21
14.496
 31
0.0
  0
LINE
  5
14D
  8
0
 10
-0.0000000000000107
 20
14.032
 30
0.0
 11
-0.0000000000000107
 21
13.624000000000001
 31
0.0
  0
LINE
  5
14E
  8
0
 10
-0.0000000000000107
 20
13.624000000000001
 30
0.0
 11
-0.0000000000000107
 21
14.032
 31
0.0
  0
LINE
  5
14F
  8
0
 10
-0.0000000000000109
 20
13.048
 30
0.0
 11
-0.0000000000000109
 21
13.119999999999999
 31
0.0
  0
LINE
  5
150
  8
0
 10
-0.0000000000000109
 20
13.048
 30
0.0
 11
0.0415399999999891
 21
13.0
 31
0.0
  0
LINE
  5
151
  8
0
 10
0.0415399999999891
 20
13.0
 30
0.0
 11
1.9999999999999889
 21
13.0
 31
0.0
  0
LINE
  5
152
  8
0
 10
0.0415399999999891
 20
13.0
 30
0.0
 11
0.0415399999999891
 21
13.071999999999999
 31
0.0
  0
LINE
  5
153
  8
0
 10
2.2999999999999901
 20
1.0
 30
0.0
 11
2.2999999999999989
 21
119.0
 31
0.0
  0
LINE
  5
154
  8
0
 10
1.9999999999999889
 20
1.0
 30
0.0
 11
2.0
 21
119.0
 31
0.0
  0
LINE
  5
155
  8
0
 10
1.9999999999999889
 20
1.0
 30
0.0
 11
2.0
 21
119.0
 31
0.0
  0
LINE
  5
156
  8
0
 10
1.9999999999999889
 20
1.0
 30
0.0
 11
2.2999999999999901
 21
0.3
 31
0.0
  0
LINE
  5
157
  8
0
 10
1.9999999999999889
 20
1.0
 30
0.0
 11
2.2999999999999901
 21
0.3
 31
0.0
  0
LINE
  5
158
  8
0
 10
2.2999999999999989
 20
119.0
 30
0.0
 11
2.5
 21
119.7
 31
0.0
  0
LINE
  5
159
  8
0
 10
2.0
 20
119.0
 30
0.0
 11
2.2999999999999989
 21
119.7
 31
0.0
  0
LINE
  5
15A
  8
0
 10
2.9999999999999898
 20
-0.0000000000000002
 30
0.0
 11
27.0
 21
-0.0000000000000017
 31
0.0
  0
LINE
  5
15B
  8
0
 10
2.9999999999999898
 20
-0.0000000000000002
 30
0.0
 11
27.0
 21
-0.0000000000000017
 31
0.0
  0
LINE
  5
15C
  8
0
 10
2.9999999999999898
 20
0.3
 30
0.0
 11
27.0
 21
0.299999999999998
 31
0.0
  0
LINE
  5
15D
  8
0
 10
2.4999999999999898
 20
0.3
 30
0.0
 11
2.9999999999999898
 21
0.3
 31
0.0
  0
LINE
  5
15E
  8
0
 10
3.0
 20
119.7
 30
0.0
 11
27.0
 21
119.7
 31
0.0
  0
LINE
  5
15F
  8
0
 10
27.0
 20
-0.0000000000000017
 30
0.0
 11
27.699999999999999
 21
0.299999999999998
 31
0.0
  0
LINE
  5
160
  8
0
 10
27.0
 20
-0.0000000000000017
 30
0.0
 11
27.699999999999999
 21
0.299999999999998
 31
0.0
  0
LINE
  5
161
  8
0
 10
27.5
 20
0.299999999999998
 30
0.0
 11
27.699999999999999
 21
0.9999999999999978
 31
0.0
  0
LINE
  5
162
  8
0
 10
27.0
 20
0.299999999999998
 30
0.0
 11
27.5
 21
0.299999999999998
 31
0.0
  0
LINE
  5
163
  8
0
 10
27.5
 20
0.299999999999998
 30
0.0
 11
27.699999999999999
 21
0.9999999999999978
 31
0.0
  0
LINE
  5
164
  8
0
 10
27.5
 20
0.299999999999998
 30
0.0
 11
27.699999999999999
 21
0.299999999999998
 31
0.0
  0
LINE
  5
165
  8
0
 10
27.699999999999999
 20
0.299999999999998
 30
0.0
 11
28.0
 21
0.9999999999999978
 31
0.0
  0
LINE
  5
166
  8
0
 10
27.699999999999999
 20
0.299999999999998
 30
0.0
 11
28.0
 21
0.9999999999999978
 31
0.0
  0
LINE
  5
167
  8
0
 10
27.699999999999999
 20
1.0
 30
0.0
 11
27.699999999999999
 21
119.0
 31
0.0
  0
LINE
  5
248
  8
0
 10
28.0
 20
60.0
 30
0.0
 11
28.0
 21
56.415999999999997
 31
0.0
  0
LINE
  5
249
  8
0
 10
28.0
 20
60.0
 30
0.0
 11
28.0
 21
57.138399999999997
 31
0.0
  0
LINE
  5
24A
  8
0
 10
28.0
 20
56.415999999999997
 30
0.0
 11
28.0
 21
60.0
 31
0.0
  0
LINE
  5
315
  8
0
 10
28.0
 20
1.0
 30
0.0
 11
28.0
 21
119.0
 31
0.0
  0
LINE
  5
316
  8
0
 10
28.0
 20
0.9999999999999978
 30
0.0
 11
28.0
 21
119.0
 31
0.0
  0
LINE
  5
317
  8
0
 10
27.699999999999999
 20
0.9999999999999978
 30
0.0
 11
27.699999999999999
 21
119.0
 31
0.0
  0
LINE
  5
318
  8
0
 10
27.699999999999999
 20
119.7
 30
0.0
 11
28.0
 21
119.0
 31
0.0
  0
LINE
  5
319
  8
0
 10
27.5
 20
119.7
 30
0.0
 11
27.699999999999999
 21
119.7
 31
0.0
  0
LINE
  5
31A
  8
0
 10
27.5
 20
119.7
 30
0.0
 11
27.699999999999999
 21
119.0
 31
0.0
  0
LINE
  5
31B
  8
0
 10
27.0
 20
119.7
 30
0.0
 11
27.5
 21
119.7
 31
0.0
  0
LINE
  5
31C
  8
0
 10
3.0
 20
119.7
 30
0.0
 11
27.0
 21
119.7
 31
0.0
  0
LINE
  5
31D
  8
0
 10
3.0
 20
120.0
 30
0.0
 11
27.0
 21
120.0
 31
0.0
  0
LINE
  5
413
  8
0
 10
27.0
 20
120.0
 30
0.0
 11
27.699999999999999
 21
119.7
 31
0.0
  0
LINE
  5
414
  8
0
 10
3.0
 20
120.0
 30
0.0
 11
27.0
 21
120.0
 31
0.0
  0
LINE
  5
415
  8
0
 10
2.5
 20
119.7
 30
0.0
 11
3.0
 21
119.7
 31
0.0
  0
LINE
  5
416
  8
0
 10
2.2999999999999989
 20
119.7
 30
0.0
 11
3.0
 21
120.0
 31
0.0
  0
LINE
  5
417
  8
0
 10
2.2999999999999989
 20
119.7
 30
0.0
 11
2.5
 21
119.7
 31
0.0
  0
ENDSEC
  0
EOF
