  0
SECTION
  2
HEADER
  9
$ACADVER
  1
AC1009
  9
$INSBASE
 10
0.0
 20
0.0
 30
0.0
  9
$EXTMIN
 10
0.0
 20
0.0
 30
0.0
  9
$EXTMAX
 10
80.0
 20
128.0
 30
350.0
  9
$LIMMIN
 10
0.0
 20
0.0
  9
$LIMMAX
 10
12.0
 20
9.0
  9
$ORTHOMODE
 70
     0
  9
$REGENMODE
 70
     1
  9
$FILLMODE
 70
     1
  9
$QTEXTMODE
 70
     0
  9
$MIRRTEXT
 70
     1
  9
$DRAGMODE
 70
     2
  9
$LTSCALE
 40
1.0
  9
$OSMODE
 70
     0
  9
$ATTMODE
 70
     1
  9
$TEXTSIZE
 40
0.2
  9
$TRACEWID
 40
0.05
  9
$TEXTSTYLE
  7
STANDARD
  9
$CLAYER
  8
0
  9
$CELTYPE
  6
BYLAYER
  9
$CECOLOR
 62
   256
  9
$DIMSCALE
 40
1.0
  9
$DIMASZ
 40
0.18
  9
$DIMEXO
 40
0.0625
  9
$DIMDLI
 40
0.38
  9
$DIMRND
 40
0.0
  9
$DIMDLE
 40
0.0
  9
$DIMEXE
 40
0.18
  9
$DIMTP
 40
0.0
  9
$DIMTM
 40
0.0
  9
$DIMTXT
 40
0.18
  9
$DIMCEN
 40
0.09
  9
$DIMTSZ
 40
0.0
  9
$DIMTOL
 70
     0
  9
$DIMLIM
 70
     0
  9
$DIMTIH
 70
     1
  9
$DIMTOH
 70
     1
  9
$DIMSE1
 70
     0
  9
$DIMSE2
 70
     0
  9
$DIMTAD
 70
     0
  9
$DIMZIN
 70
     0
  9
$DIMBLK
  1

  9
$DIMASO
 70
     1
  9
$DIMSHO
 70
     1
  9
$DIMPOST
  1

  9
$DIMAPOST
  1

  9
$DIMALT
 70
     0
  9
$DIMALTD
 70
     2
  9
$DIMALTF
 40
25.4
  9
$DIMLFAC
 40
1.0
  9
$DIMTOFL
 70
     0
  9
$DIMTVP
 40
0.0
  9
$DIMTIX
 70
     0
  9
$DIMSOXD
 70
     0
  9
$DIMSAH
 70
     0
  9
$DIMBLK1
  1

  9
$DIMBLK2
  1

  9
$DIMSTYLE
  2
STANDARD
  9
$DIMCLRD
 70
     0
  9
$DIMCLRE
 70
     0
  9
$DIMCLRT
 70
     0
  9
$DIMTFAC
 40
1.0
  9
$DIMGAP
 40
0.09
  9
$LUNITS
 70
     2
  9
$LUPREC
 70
     4
  9
$SKETCHINC
 40
0.1
  9
$FILLETRAD
 40
0.5
  9
$AUNITS
 70
     0
  9
$AUPREC
 70
     0
  9
$MENU
  1
.
  9
$ELEVATION
 40
0.0
  9
$PELEVATION
 40
0.0
  9
$THICKNESS
 40
0.0
  9
$LIMCHECK
 70
     0
  9
$BLIPMODE
 70
     0
  9
$CHAMFERA
 40
0.5
  9
$CHAMFERB
 40
0.5
  9
$SKPOLY
 70
     1
  9
$TDCREATE
 40
2451533.827461
  9
$TDUPDATE
 40
2451710.808229
  9
$TDINDWG
 40
0.179455
  9
$TDUSRTIMER
 40
0.179455
  9
$USRTIMER
 70
     1
  9
$ANGBASE
 50
0.0
  9
$ANGDIR
 70
     0
  9
$PDMODE
 70
     0
  9
$PDSIZE
 40
0.0
  9
$PLINEWID
 40
0.0
  9
$COORDS
 70
     1
  9
$SPLFRAME
 70
     0
  9
$SPLINETYPE
 70
     6
  9
$SPLINESEGS
 70
     8
  9
$ATTDIA
 70
     0
  9
$ATTREQ
 70
     1
  9
$HANDLING
 70
     1
  9
$HANDSEED
  5
255B
  9
$SURFTAB1
 70
     6
  9
$SURFTAB2
 70
     6
  9
$SURFTYPE
 70
     6
  9
$SURFU
 70
     6
  9
$SURFV
 70
     6
  9
$UCSNAME
  2

  9
$UCSORG
 10
0.0
 20
0.0
 30
0.0
  9
$UCSXDIR
 10
1.0
 20
0.0
 30
0.0
  9
$UCSYDIR
 10
0.0
 20
1.0
 30
0.0
  9
$PUCSNAME
  2

  9
$PUCSORG
 10
0.0
 20
0.0
 30
0.0
  9
$PUCSXDIR
 10
1.0
 20
0.0
 30
0.0
  9
$PUCSYDIR
 10
0.0
 20
1.0
 30
0.0
  9
$USERI1
 70
     0
  9
$USERI2
 70
     0
  9
$USERI3
 70
     0
  9
$USERI4
 70
     0
  9
$USERI5
 70
     0
  9
$USERR1
 40
0.0
  9
$USERR2
 40
0.0
  9
$USERR3
 40
0.0
  9
$USERR4
 40
0.0
  9
$USERR5
 40
0.0
  9
$WORLDVIEW
 70
     1
  9
$SHADEDGE
 70
     3
  9
$SHADEDIF
 70
    70
  9
$TILEMODE
 70
     1
  9
$MAXACTVP
 70
    48
  9
$PLIMCHECK
 70
     0
  9
$PEXTMIN
 10
1.000000E+020
 20
1.000000E+020
 30
1.000000E+020
  9
$PEXTMAX
 10
-1.000000E+020
 20
-1.000000E+020
 30
-1.000000E+020
  9
$PLIMMIN
 10
0.0
 20
0.0
  9
$PLIMMAX
 10
12.0
 20
9.0
  9
$UNITMODE
 70
     0
  9
$VISRETAIN
 70
     1
  9
$PLINEGEN
 70
     0
  9
$PSLTSCALE
 70
     1
  0
ENDSEC
  0
SECTION
  2
TABLES
  0
TABLE
  2
VPORT
 70
     4
  0
VPORT
  2
*ACTIVE
 70
     0
 10
0.0
 20
0.0
 11
1.0
 21
1.0
 12
-16.970563
 22
185.344724
 13
0.0
 23
0.0
 14
0.5
 24
0.5
 15
0.5
 25
0.5
 16
-1.0
 26
-1.0
 36
1.0
 17
0.0
 27
0.0
 37
0.0
 40
375.294286
 41
1.991701
 42
50.0
 43
0.0
 44
0.0
 50
0.0
 51
0.0
 71
     0
 72
   100
 73
     1
 74
     1
 75
     0
 76
     0
 77
     0
 78
     0
  0
ENDTAB
  0
TABLE
  2
LTYPE
 70
     1
  0
LTYPE
  2
CONTINUOUS
 70
     0
  3
Solid line
 72
    65
 73
     0
 40
0.0
  0
ENDTAB
  0
TABLE
  2
LAYER
 70
     3
  0
LAYER
  2
0
 70
     0
 62
     7
  6
CONTINUOUS
  0
LAYER
  2
ASHADE
 70
     4
 62
     7
  6
CONTINUOUS
  0
LAYER
  2
OBJEKTINTWEISS
 70
     0
 62
     7
  6
CONTINUOUS
  0
ENDTAB
  0
TABLE
  2
STYLE
 70
     2
  0
STYLE
  2
STANDARD
 70
     0
 40
0.0
 41
1.0
 50
0.0
 71
     0
 42
0.2
  3
txt
  4

  0
STYLE
  2
ASHADE
 70
     0
 40
0.2
 41
1.0
 50
0.0
 71
     0
 42
0.2
  3
simplex.shx
  4

  0
ENDTAB
  0
TABLE
  2
VIEW
 70
     0
  0
ENDTAB
  0
TABLE
  2
UCS
 70
     0
  0
ENDTAB
  0
TABLE
  2
APPID
 70
     6
  0
APPID
  2
ACAD
 70
     0
  0
APPID
  2
AVE_RENDER
 70
     0
  0
APPID
  2
AVE_ENTITY_MATERIAL
 70
     0
  0
APPID
  2
AVE_FINISH
 70
     0
  0
APPID
  2
AVE_MATERIAL
 70
     0
  0
APPID
  2
AVE_GLOBAL
 70
     0
  0
ENDTAB
  0
TABLE
  2
DIMSTYLE
 70
     1
  0
DIMSTYLE
  2
STANDARD
 70
     0
  3

  4

  5

  6

  7

 40
1.0
 41
0.18
 42
0.0625
 43
0.38
 44
0.18
 45
0.0
 46
0.0
 47
0.0
 48
0.0
140
0.18
141
0.09
142
0.0
143
25.4
144
1.0
145
0.0
146
1.0
147
0.09
 71
     0
 72
     0
 73
     1
 74
     1
 75
     0
 76
     0
 77
     0
 78
     0
170
     0
171
     2
172
     0
173
     0
174
     0
175
     0
176
     0
177
     0
178
     0
  0
ENDTAB
  0
ENDSEC
  0
SECTION
  2
BLOCKS
  0
BLOCK
  8
0
  2
$MODEL_SPACE
 70
     0
 10
0.0
 20
0.0
 30
0.0
  3
$MODEL_SPACE
  1

  0
ENDBLK
  5
1B
  8
0
  0
BLOCK
 67
     1
  8
0
  2
$PAPER_SPACE
 70
     0
 10
0.0
 20
0.0
 30
0.0
  3
$PAPER_SPACE
  1

  0
ENDBLK
  5
18
 67
     1
  8
0
  0
BLOCK
  8
ASHADE
  2
AVE_RENDER
 70
     0
 10
0.0
 20
0.0
 30
0.0
  3
AVE_RENDER
  1
AVE_RENDER
  0
ENDBLK
  5
24F
  8
0
  0
BLOCK
  8
ASHADE
  2
AVE_GLOBAL
 70
     0
 10
0.0
 20
0.0
 30
0.0
  3
AVE_GLOBAL
  1
AVE_GLOBAL
  0
ENDBLK
  5
25D
  8
0
  0
ENDSEC
  0
SECTION
  2
ENTITIES
  0
INSERT
  5
250
  8
ASHADE
 62
     1
  2
AVE_RENDER
 10
0.0
 20
0.0
 30
0.0
1001
AVE_RENDER
1002
{
1070
     7
1000
Pref
1070
    30
1070
    20
1070
     1
1070
     0
1000

1070
    10
1070
     1
1070
    10
1040
1.0
1070
     1
1040
0.3
1040
0.7
1040
0.0
1040
10.0
1010
-1.0
1020
-1.0
1030
-1.0
1040
0.3
1070
    49
1070
     0
1070
     0
1010
1.0
1020
1.0
1030
1.0
1040
45.0
1070
     1
1070
     0
1000
WCS
1040
0.0
1070
     0
1040
10.0
1002
}
  0
INSERT
  5
251
  8
ASHADE
 62
     3
  2
AVE_RENDER
 10
0.0
 20
0.0
 30
0.0
1001
AVE_RENDER
1002
{
1070
     0
1000
Full Opt
1070
     0
1070
     1
1070
     1
1070
     1
1070
     0
1070
     0
1070
     0
1070
     1
1070
     1
1040
0.0001
1040
0.0001
1002
}
  0
INSERT
  5
252
  8
ASHADE
 62
     4
  2
AVE_RENDER
 10
0.0
 20
0.0
 30
0.0
1001
AVE_RENDER
1002
{
1070
     0
1000
Quick Opt
1070
     0
1070
     1
1070
     1
1070
     1
1070
     0
1070
     0
1070
     1
1002
}
  0
INSERT
  5
253
  8
ASHADE
 62
     5
  2
AVE_RENDER
 10
0.0
 20
0.0
 30
0.0
1001
AVE_RENDER
1002
{
1070
     1
1000
Scanl Opt
1070
     2
1070
     0
1070
     2
1040
2.0
1040
4.0
1070
     0
1070
     1
1070
     0
1040
0.03
1002
}
  0
INSERT
  5
254
  8
ASHADE
 62
     6
  2
AVE_RENDER
 10
0.0
 20
0.0
 30
0.0
1001
AVE_RENDER
1002
{
1070
     2
1000
Raytr Opt
1070
     2
1070
     0
1070
     2
1040
2.0
1040
4.0
1070
     0
1070
     1
1070
     1
1040
0.03
1070
     3
1040
0.03
1002
}
  0
INSERT
  5
255
  8
ASHADE
 62
     7
  2
AVE_RENDER
 10
0.0
 20
0.0
 30
0.0
1001
AVE_RENDER
1002
{
1070
     0
1000
RFile Opt
1070
     1
1070
   640
1070
   480
1070
 10000
1070
     1
1070
     8
1070
     8
1070
     0
1070
     0
1070
     0
1070
     0
1070
     0
1070
     0
1070
     0
1002
}
  0
INSERT
  5
256
  8
ASHADE
 62
     8
  2
AVE_RENDER
 10
0.0
 20
0.0
 30
0.0
1001
AVE_RENDER
1002
{
1070
     0
1000
Fog Opt
1070
     0
1070
     0
1040
0.0
1040
1.0
1040
0.0
1040
1.0
1010
0.5
1020
0.5
1030
0.5
1002
}
  0
INSERT
  5
257
  8
ASHADE
 62
     9
  2
AVE_RENDER
 10
0.0
 20
0.0
 30
0.0
1001
AVE_RENDER
1002
{
1070
     0
1000
BG Opt
1070
     0
1070
     1
1010
0.0
1020
0.0
1030
0.0
1010
1.0
1020
0.0
1030
0.0
1010
0.0
1020
1.0
1030
0.0
1010
0.0
1020
0.0
1030
1.0
1040
0.5
1040
0.33
1040
0.0
1000

1070
     1
1000

1070
     1
1070
     1
1040
1.0
1040
1.0
1040
0.0
1040
0.0
1070
     0
1002
}
  0
INSERT
  5
25E
  8
ASHADE
 62
     1
  2
AVE_GLOBAL
 10
0.0
 20
0.0
 30
0.0
1001
AVE_MATERIAL
1002
{
1000
*GLOBAL*
1000
1
1000
Global finish.
1002
{
1002
}
1002
{
1070
    63
1002
{
1002
{
1010
-1.0
1020
-1.0
1030
-1.0
1002
}
1040
0.1
1000

1040
0.0
1002
{
1002
}
1040
0.0
1002
{
1002
}
1040
0.0
1002
}
1002
{
1002
{
1010
-1.0
1020
-1.0
1030
-1.0
1002
}
1040
0.7
1000

1040
0.0
1002
{
1002
}
1040
0.0
1002
{
1002
}
1040
0.0
1002
}
1002
{
1002
{
1010
-1.0
1020
-1.0
1030
-1.0
1002
}
1040
0.2
1000

1040
0.0
1002
{
1002
}
1040
0.0
1002
{
1002
}
1040
0.0
1002
}
1002
{
1070
     0
1002
{
1070
     1
1002
{
1040
1.0
1040
1.0
1000

1040
0.0
1002
{
1002
}
1040
0.0
1002
{
1002
}
1040
0.0
1002
}
1002
}
1040
1.0
1040
0.0
1040
0.0
1002
}
1002
{
1040
1.0
1040
1.0
1000

1040
0.0
1002
{
1002
}
1040
0.0
1002
{
1002
}
1040
0.0
1002
}
1002
{
1040
0.5
1040
1.0
1000

1040
0.0
1002
{
1002
}
1040
0.0
1002
{
1002
}
1040
0.0
1002
}
1002
{
1070
     0
1040
0.0
1002
{
1002
}
1040
1.0
1002
{
1002
}
1040
0.0
1002
}
1002
{
1040
0.0
1002
{
1002
{
1010
0.0
1020
0.0
1030
0.0
1002
}
1040
1.0
1000

1040
0.0
1002
{
1002
}
1040
0.0
1002
{
1002
}
1040
0.0
1002
}
1002
}
1002
{
1002
{
1070
     1
1002
{
1040
0.0
1040
1.0
1000

1040
0.0
1002
{
1002
}
1040
0.0
1002
{
1002
}
1040
0.0
1002
}
1002
}
1040
0.0
1002
{
1002
}
1010
1.0
1020
0.0
1030
0.0
1010
0.0
1020
1.0
1030
0.0
1010
0.0
1020
0.0
1030
1.0
1070
     0
1002
}
1002
{
1002
{
1040
1.0
1040
1.0
1002
{
1070
     1
1002
{
1040
1.0
1040
1.0
1000

1040
0.0
1002
{
1002
}
1040
0.0
1002
{
1002
}
1040
0.0
1002
}
1002
}
1002
}
1070
     0
1040
0.0
1002
{
1002
}
1002
}
1002
{
1002
}
1002
}
1002
{
1071
        3
1070
     3
1070
     0
1002
{
1070
     2
1070
     0
1070
     0
1040
0.0
1002
}
1070
     0
1070
     2
1002
{
1002
}
1002
}
1002
{
1040
8030.0
1040
190.300003
1040
0.305
1040
228.0
1040
545.0
1040
14.0
1040
17.4
1040
0.456
1002
}
1002
}
  0
INSERT
  5
5C8
  8
ASHADE
 62
     1
  2
AVE_GLOBAL
 10
0.0
 20
0.0
 30
0.0
1001
AVE_MATERIAL
1002
{
1000
*GLOBAL*
1000
1
1000
Global finish.
1002
{
1002
}
1002
{
1070
    63
1002
{
1002
{
1010
-1.0
1020
-1.0
1030
-1.0
1002
}
1040
0.1
1000

1040
0.0
1002
{
1002
}
1040
0.0
1002
{
1002
}
1040
0.0
1002
}
1002
{
1002
{
1010
-1.0
1020
-1.0
1030
-1.0
1002
}
1040
0.7
1000

1040
0.0
1002
{
1002
}
1040
0.0
1002
{
1002
}
1040
0.0
1002
}
1002
{
1002
{
1010
-1.0
1020
-1.0
1030
-1.0
1002
}
1040
0.2
1000

1040
0.0
1002
{
1002
}
1040
0.0
1002
{
1002
}
1040
0.0
1002
}
1002
{
1070
     0
1002
{
1070
     1
1002
{
1040
1.0
1040
1.0
1000

1040
0.0
1002
{
1002
}
1040
0.0
1002
{
1002
}
1040
0.0
1002
}
1002
}
1040
1.0
1040
0.0
1040
0.0
1002
}
1002
{
1040
1.0
1040
1.0
1000

1040
0.0
1002
{
1002
}
1040
0.0
1002
{
1002
}
1040
0.0
1002
}
1002
{
1040
0.5
1040
1.0
1000

1040
0.0
1002
{
1002
}
1040
0.0
1002
{
1002
}
1040
0.0
1002
}
1002
{
1070
     0
1040
0.0
1002
{
1002
}
1040
1.0
1002
{
1002
}
1040
0.0
1002
}
1002
{
1040
0.0
1002
{
1002
{
1010
0.0
1020
0.0
1030
0.0
1002
}
1040
1.0
1000

1040
0.0
1002
{
1002
}
1040
0.0
1002
{
1002
}
1040
0.0
1002
}
1002
}
1002
{
1002
{
1070
     1
1002
{
1040
0.0
1040
1.0
1000

1040
0.0
1002
{
1002
}
1040
0.0
1002
{
1002
}
1040
0.0
1002
}
1002
}
1040
0.0
1002
{
1002
}
1010
1.0
1020
0.0
1030
0.0
1010
0.0
1020
1.0
1030
0.0
1010
0.0
1020
0.0
1030
1.0
1070
     0
1002
}
1002
{
1002
{
1040
1.0
1040
1.0
1002
{
1070
     1
1002
{
1040
1.0
1040
1.0
1000

1040
0.0
1002
{
1002
}
1040
0.0
1002
{
1002
}
1040
0.0
1002
}
1002
}
1002
}
1070
     0
1040
0.0
1002
{
1002
}
1002
}
1002
{
1002
}
1002
}
1002
{
1071
        3
1070
     3
1070
     0
1002
{
1070
     2
1070
     0
1070
     0
1040
0.0
1002
}
1070
     0
1070
     2
1002
{
1002
}
1002
}
1002
{
1040
8030.0
1040
190.300003
1040
0.305
1040
228.0
1040
545.0
1040
14.0
1040
17.4
1040
0.456
1002
}
1002
}
  0
INSERT
  5
956
  8
ASHADE
 62
     1
  2
AVE_GLOBAL
 10
0.0
 20
0.0
 30
0.0
1001
AVE_MATERIAL
1002
{
1000
*GLOBAL*
1000
1
1000
Global finish.
1002
{
1002
}
1002
{
1070
    63
1002
{
1002
{
1010
-1.0
1020
-1.0
1030
-1.0
1002
}
1040
0.1
1000

1040
0.0
1002
{
1002
}
1040
0.0
1002
{
1002
}
1040
0.0
1002
}
1002
{
1002
{
1010
-1.0
1020
-1.0
1030
-1.0
1002
}
1040
0.7
1000

1040
0.0
1002
{
1002
}
1040
0.0
1002
{
1002
}
1040
0.0
1002
}
1002
{
1002
{
1010
-1.0
1020
-1.0
1030
-1.0
1002
}
1040
0.2
1000

1040
0.0
1002
{
1002
}
1040
0.0
1002
{
1002
}
1040
0.0
1002
}
1002
{
1070
     0
1002
{
1070
     1
1002
{
1040
1.0
1040
1.0
1000

1040
0.0
1002
{
1002
}
1040
0.0
1002
{
1002
}
1040
0.0
1002
}
1002
}
1040
1.0
1040
0.0
1040
0.0
1002
}
1002
{
1040
1.0
1040
1.0
1000

1040
0.0
1002
{
1002
}
1040
0.0
1002
{
1002
}
1040
0.0
1002
}
1002
{
1040
0.5
1040
1.0
1000

1040
0.0
1002
{
1002
}
1040
0.0
1002
{
1002
}
1040
0.0
1002
}
1002
{
1070
     0
1040
0.0
1002
{
1002
}
1040
1.0
1002
{
1002
}
1040
0.0
1002
}
1002
{
1040
0.0
1002
{
1002
{
1010
0.0
1020
0.0
1030
0.0
1002
}
1040
1.0
1000

1040
0.0
1002
{
1002
}
1040
0.0
1002
{
1002
}
1040
0.0
1002
}
1002
}
1002
{
1002
{
1070
     1
1002
{
1040
0.0
1040
1.0
1000

1040
0.0
1002
{
1002
}
1040
0.0
1002
{
1002
}
1040
0.0
1002
}
1002
}
1040
0.0
1002
{
1002
}
1010
1.0
1020
0.0
1030
0.0
1010
0.0
1020
1.0
1030
0.0
1010
0.0
1020
0.0
1030
1.0
1070
     0
1002
}
1002
{
1002
{
1040
1.0
1040
1.0
1002
{
1070
     1
1002
{
1040
1.0
1040
1.0
1000

1040
0.0
1002
{
1002
}
1040
0.0
1002
{
1002
}
1040
0.0
1002
}
1002
}
1002
}
1070
     0
1040
0.0
1002
{
1002
}
1002
}
1002
{
1002
}
1002
}
1002
{
1071
        3
1070
     3
1070
     0
1002
{
1070
     2
1070
     0
1070
     0
1040
0.0
1002
}
1070
     0
1070
     2
1002
{
1002
}
1002
}
1002
{
1040
8030.0
1040
190.300003
1040
0.305
1040
228.0
1040
545.0
1040
14.0
1040
17.4
1040
0.456
1002
}
1002
}
  0
INSERT
  5
D40
  8
ASHADE
 62
     1
  2
AVE_GLOBAL
 10
0.0
 20
0.0
 30
0.0
1001
AVE_MATERIAL
1002
{
1000
*GLOBAL*
1000
1
1000
Global finish.
1002
{
1002
}
1002
{
1070
    63
1002
{
1002
{
1010
-1.0
1020
-1.0
1030
-1.0
1002
}
1040
0.1
1000

1040
0.0
1002
{
1002
}
1040
0.0
1002
{
1002
}
1040
0.0
1002
}
1002
{
1002
{
1010
-1.0
1020
-1.0
1030
-1.0
1002
}
1040
0.7
1000

1040
0.0
1002
{
1002
}
1040
0.0
1002
{
1002
}
1040
0.0
1002
}
1002
{
1002
{
1010
-1.0
1020
-1.0
1030
-1.0
1002
}
1040
0.2
1000

1040
0.0
1002
{
1002
}
1040
0.0
1002
{
1002
}
1040
0.0
1002
}
1002
{
1070
     0
1002
{
1070
     1
1002
{
1040
1.0
1040
1.0
1000

1040
0.0
1002
{
1002
}
1040
0.0
1002
{
1002
}
1040
0.0
1002
}
1002
}
1040
1.0
1040
0.0
1040
0.0
1002
}
1002
{
1040
1.0
1040
1.0
1000

1040
0.0
1002
{
1002
}
1040
0.0
1002
{
1002
}
1040
0.0
1002
}
1002
{
1040
0.5
1040
1.0
1000

1040
0.0
1002
{
1002
}
1040
0.0
1002
{
1002
}
1040
0.0
1002
}
1002
{
1070
     0
1040
0.0
1002
{
1002
}
1040
1.0
1002
{
1002
}
1040
0.0
1002
}
1002
{
1040
0.0
1002
{
1002
{
1010
0.0
1020
0.0
1030
0.0
1002
}
1040
1.0
1000

1040
0.0
1002
{
1002
}
1040
0.0
1002
{
1002
}
1040
0.0
1002
}
1002
}
1002
{
1002
{
1070
     1
1002
{
1040
0.0
1040
1.0
1000

1040
0.0
1002
{
1002
}
1040
0.0
1002
{
1002
}
1040
0.0
1002
}
1002
}
1040
0.0
1002
{
1002
}
1010
1.0
1020
0.0
1030
0.0
1010
0.0
1020
1.0
1030
0.0
1010
0.0
1020
0.0
1030
1.0
1070
     0
1002
}
1002
{
1002
{
1040
1.0
1040
1.0
1002
{
1070
     1
1002
{
1040
1.0
1040
1.0
1000

1040
0.0
1002
{
1002
}
1040
0.0
1002
{
1002
}
1040
0.0
1002
}
1002
}
1002
}
1070
     0
1040
0.0
1002
{
1002
}
1002
}
1002
{
1002
}
1002
}
1002
{
1071
        3
1070
     3
1070
     0
1002
{
1070
     2
1070
     0
1070
     0
1040
0.0
1002
}
1070
     0
1070
     2
1002
{
1002
}
1002
}
1002
{
1040
8030.0
1040
190.300003
1040
0.305
1040
228.0
1040
545.0
1040
14.0
1040
17.4
1040
0.456
1002
}
1002
}
  0
INSERT
  5
D41
  8
ASHADE
 62
     1
  2
AVE_GLOBAL
 10
0.0
 20
0.0
 30
0.0
1001
AVE_MATERIAL
1002
{
1000
*GLOBAL*
1000
1
1000
Global finish.
1002
{
1002
}
1002
{
1070
    63
1002
{
1002
{
1010
-1.0
1020
-1.0
1030
-1.0
1002
}
1040
0.1
1000

1040
0.0
1002
{
1002
}
1040
0.0
1002
{
1002
}
1040
0.0
1002
}
1002
{
1002
{
1010
-1.0
1020
-1.0
1030
-1.0
1002
}
1040
0.7
1000

1040
0.0
1002
{
1002
}
1040
0.0
1002
{
1002
}
1040
0.0
1002
}
1002
{
1002
{
1010
-1.0
1020
-1.0
1030
-1.0
1002
}
1040
0.2
1000

1040
0.0
1002
{
1002
}
1040
0.0
1002
{
1002
}
1040
0.0
1002
}
1002
{
1070
     0
1002
{
1070
     1
1002
{
1040
1.0
1040
1.0
1000

1040
0.0
1002
{
1002
}
1040
0.0
1002
{
1002
}
1040
0.0
1002
}
1002
}
1040
1.0
1040
0.0
1040
0.0
1002
}
1002
{
1040
1.0
1040
1.0
1000

1040
0.0
1002
{
1002
}
1040
0.0
1002
{
1002
}
1040
0.0
1002
}
1002
{
1040
0.5
1040
1.0
1000

1040
0.0
1002
{
1002
}
1040
0.0
1002
{
1002
}
1040
0.0
1002
}
1002
{
1070
     0
1040
0.0
1002
{
1002
}
1040
1.0
1002
{
1002
}
1040
0.0
1002
}
1002
{
1040
0.0
1002
{
1002
{
1010
0.0
1020
0.0
1030
0.0
1002
}
1040
1.0
1000

1040
0.0
1002
{
1002
}
1040
0.0
1002
{
1002
}
1040
0.0
1002
}
1002
}
1002
{
1002
{
1070
     1
1002
{
1040
0.0
1040
1.0
1000

1040
0.0
1002
{
1002
}
1040
0.0
1002
{
1002
}
1040
0.0
1002
}
1002
}
1040
0.0
1002
{
1002
}
1010
1.0
1020
0.0
1030
0.0
1010
0.0
1020
1.0
1030
0.0
1010
0.0
1020
0.0
1030
1.0
1070
     0
1002
}
1002
{
1002
{
1040
1.0
1040
1.0
1002
{
1070
     1
1002
{
1040
1.0
1040
1.0
1000

1040
0.0
1002
{
1002
}
1040
0.0
1002
{
1002
}
1040
0.0
1002
}
1002
}
1002
}
1070
     0
1040
0.0
1002
{
1002
}
1002
}
1002
{
1002
}
1002
}
1002
{
1071
        3
1070
     3
1070
     0
1002
{
1070
     2
1070
     0
1070
     0
1040
0.0
1002
}
1070
     0
1070
     2
1002
{
1002
}
1002
}
1002
{
1040
8030.0
1040
190.300003
1040
0.305
1040
228.0
1040
545.0
1040
14.0
1040
17.4
1040
0.456
1002
}
1002
}
  0
INSERT
  5
1472
  8
ASHADE
 62
     1
  2
AVE_GLOBAL
 10
0.0
 20
0.0
 30
0.0
1001
AVE_MATERIAL
1002
{
1000
*GLOBAL*
1000
1
1000
Global finish.
1002
{
1002
}
1002
{
1070
    63
1002
{
1002
{
1010
-1.0
1020
-1.0
1030
-1.0
1002
}
1040
0.1
1000

1040
0.0
1002
{
1002
}
1040
0.0
1002
{
1002
}
1040
0.0
1002
}
1002
{
1002
{
1010
-1.0
1020
-1.0
1030
-1.0
1002
}
1040
0.7
1000

1040
0.0
1002
{
1002
}
1040
0.0
1002
{
1002
}
1040
0.0
1002
}
1002
{
1002
{
1010
-1.0
1020
-1.0
1030
-1.0
1002
}
1040
0.2
1000

1040
0.0
1002
{
1002
}
1040
0.0
1002
{
1002
}
1040
0.0
1002
}
1002
{
1070
     0
1002
{
1070
     1
1002
{
1040
1.0
1040
1.0
1000

1040
0.0
1002
{
1002
}
1040
0.0
1002
{
1002
}
1040
0.0
1002
}
1002
}
1040
1.0
1040
0.0
1040
0.0
1002
}
1002
{
1040
1.0
1040
1.0
1000

1040
0.0
1002
{
1002
}
1040
0.0
1002
{
1002
}
1040
0.0
1002
}
1002
{
1040
0.5
1040
1.0
1000

1040
0.0
1002
{
1002
}
1040
0.0
1002
{
1002
}
1040
0.0
1002
}
1002
{
1070
     0
1040
0.0
1002
{
1002
}
1040
1.0
1002
{
1002
}
1040
0.0
1002
}
1002
{
1040
0.0
1002
{
1002
{
1010
0.0
1020
0.0
1030
0.0
1002
}
1040
1.0
1000

1040
0.0
1002
{
1002
}
1040
0.0
1002
{
1002
}
1040
0.0
1002
}
1002
}
1002
{
1002
{
1070
     1
1002
{
1040
0.0
1040
1.0
1000

1040
0.0
1002
{
1002
}
1040
0.0
1002
{
1002
}
1040
0.0
1002
}
1002
}
1040
0.0
1002
{
1002
}
1010
1.0
1020
0.0
1030
0.0
1010
0.0
1020
1.0
1030
0.0
1010
0.0
1020
0.0
1030
1.0
1070
     0
1002
}
1002
{
1002
{
1040
1.0
1040
1.0
1002
{
1070
     1
1002
{
1040
1.0
1040
1.0
1000

1040
0.0
1002
{
1002
}
1040
0.0
1002
{
1002
}
1040
0.0
1002
}
1002
}
1002
}
1070
     0
1040
0.0
1002
{
1002
}
1002
}
1002
{
1002
}
1002
}
1002
{
1071
        3
1070
     3
1070
     0
1002
{
1070
     2
1070
     0
1070
     0
1040
0.0
1002
}
1070
     0
1070
     2
1002
{
1002
}
1002
}
1002
{
1040
8030.0
1040
190.300003
1040
0.305
1040
228.0
1040
545.0
1040
14.0
1040
17.4
1040
0.456
1002
}
1002
}
  0
INSERT
  5
1473
  8
ASHADE
 62
     1
  2
AVE_GLOBAL
 10
0.0
 20
0.0
 30
0.0
1001
AVE_MATERIAL
1002
{
1000
*GLOBAL*
1000
1
1000
Global finish.
1002
{
1002
}
1002
{
1070
    63
1002
{
1002
{
1010
-1.0
1020
-1.0
1030
-1.0
1002
}
1040
0.1
1000

1040
0.0
1002
{
1002
}
1040
0.0
1002
{
1002
}
1040
0.0
1002
}
1002
{
1002
{
1010
-1.0
1020
-1.0
1030
-1.0
1002
}
1040
0.7
1000

1040
0.0
1002
{
1002
}
1040
0.0
1002
{
1002
}
1040
0.0
1002
}
1002
{
1002
{
1010
-1.0
1020
-1.0
1030
-1.0
1002
}
1040
0.2
1000

1040
0.0
1002
{
1002
}
1040
0.0
1002
{
1002
}
1040
0.0
1002
}
1002
{
1070
     0
1002
{
1070
     1
1002
{
1040
1.0
1040
1.0
1000

1040
0.0
1002
{
1002
}
1040
0.0
1002
{
1002
}
1040
0.0
1002
}
1002
}
1040
1.0
1040
0.0
1040
0.0
1002
}
1002
{
1040
1.0
1040
1.0
1000

1040
0.0
1002
{
1002
}
1040
0.0
1002
{
1002
}
1040
0.0
1002
}
1002
{
1040
0.5
1040
1.0
1000

1040
0.0
1002
{
1002
}
1040
0.0
1002
{
1002
}
1040
0.0
1002
}
1002
{
1070
     0
1040
0.0
1002
{
1002
}
1040
1.0
1002
{
1002
}
1040
0.0
1002
}
1002
{
1040
0.0
1002
{
1002
{
1010
0.0
1020
0.0
1030
0.0
1002
}
1040
1.0
1000

1040
0.0
1002
{
1002
}
1040
0.0
1002
{
1002
}
1040
0.0
1002
}
1002
}
1002
{
1002
{
1070
     1
1002
{
1040
0.0
1040
1.0
1000

1040
0.0
1002
{
1002
}
1040
0.0
1002
{
1002
}
1040
0.0
1002
}
1002
}
1040
0.0
1002
{
1002
}
1010
1.0
1020
0.0
1030
0.0
1010
0.0
1020
1.0
1030
0.0
1010
0.0
1020
0.0
1030
1.0
1070
     0
1002
}
1002
{
1002
{
1040
1.0
1040
1.0
1002
{
1070
     1
1002
{
1040
1.0
1040
1.0
1000

1040
0.0
1002
{
1002
}
1040
0.0
1002
{
1002
}
1040
0.0
1002
}
1002
}
1002
}
1070
     0
1040
0.0
1002
{
1002
}
1002
}
1002
{
1002
}
1002
}
1002
{
1071
        3
1070
     3
1070
     0
1002
{
1070
     2
1070
     0
1070
     0
1040
0.0
1002
}
1070
     0
1070
     2
1002
{
1002
}
1002
}
1002
{
1040
8030.0
1040
190.300003
1040
0.305
1040
228.0
1040
545.0
1040
14.0
1040
17.4
1040
0.456
1002
}
1002
}
  0
INSERT
  5
1474
  8
ASHADE
 62
     1
  2
AVE_GLOBAL
 10
0.0
 20
0.0
 30
0.0
1001
AVE_MATERIAL
1002
{
1000
*GLOBAL*
1000
1
1000
Global finish.
1002
{
1002
}
1002
{
1070
    63
1002
{
1002
{
1010
-1.0
1020
-1.0
1030
-1.0
1002
}
1040
0.1
1000

1040
0.0
1002
{
1002
}
1040
0.0
1002
{
1002
}
1040
0.0
1002
}
1002
{
1002
{
1010
-1.0
1020
-1.0
1030
-1.0
1002
}
1040
0.7
1000

1040
0.0
1002
{
1002
}
1040
0.0
1002
{
1002
}
1040
0.0
1002
}
1002
{
1002
{
1010
-1.0
1020
-1.0
1030
-1.0
1002
}
1040
0.2
1000

1040
0.0
1002
{
1002
}
1040
0.0
1002
{
1002
}
1040
0.0
1002
}
1002
{
1070
     0
1002
{
1070
     1
1002
{
1040
1.0
1040
1.0
1000

1040
0.0
1002
{
1002
}
1040
0.0
1002
{
1002
}
1040
0.0
1002
}
1002
}
1040
1.0
1040
0.0
1040
0.0
1002
}
1002
{
1040
1.0
1040
1.0
1000

1040
0.0
1002
{
1002
}
1040
0.0
1002
{
1002
}
1040
0.0
1002
}
1002
{
1040
0.5
1040
1.0
1000

1040
0.0
1002
{
1002
}
1040
0.0
1002
{
1002
}
1040
0.0
1002
}
1002
{
1070
     0
1040
0.0
1002
{
1002
}
1040
1.0
1002
{
1002
}
1040
0.0
1002
}
1002
{
1040
0.0
1002
{
1002
{
1010
0.0
1020
0.0
1030
0.0
1002
}
1040
1.0
1000

1040
0.0
1002
{
1002
}
1040
0.0
1002
{
1002
}
1040
0.0
1002
}
1002
}
1002
{
1002
{
1070
     1
1002
{
1040
0.0
1040
1.0
1000

1040
0.0
1002
{
1002
}
1040
0.0
1002
{
1002
}
1040
0.0
1002
}
1002
}
1040
0.0
1002
{
1002
}
1010
1.0
1020
0.0
1030
0.0
1010
0.0
1020
1.0
1030
0.0
1010
0.0
1020
0.0
1030
1.0
1070
     0
1002
}
1002
{
1002
{
1040
1.0
1040
1.0
1002
{
1070
     1
1002
{
1040
1.0
1040
1.0
1000

1040
0.0
1002
{
1002
}
1040
0.0
1002
{
1002
}
1040
0.0
1002
}
1002
}
1002
}
1070
     0
1040
0.0
1002
{
1002
}
1002
}
1002
{
1002
}
1002
}
1002
{
1071
        3
1070
     3
1070
     0
1002
{
1070
     2
1070
     0
1070
     0
1040
0.0
1002
}
1070
     0
1070
     2
1002
{
1002
}
1002
}
1002
{
1040
8030.0
1040
190.300003
1040
0.305
1040
228.0
1040
545.0
1040
14.0
1040
17.4
1040
0.456
1002
}
1002
}
  0
INSERT
  5
1475
  8
ASHADE
 62
     1
  2
AVE_GLOBAL
 10
0.0
 20
0.0
 30
0.0
1001
AVE_MATERIAL
1002
{
1000
*GLOBAL*
1000
1
1000
Global finish.
1002
{
1002
}
1002
{
1070
    63
1002
{
1002
{
1010
-1.0
1020
-1.0
1030
-1.0
1002
}
1040
0.1
1000

1040
0.0
1002
{
1002
}
1040
0.0
1002
{
1002
}
1040
0.0
1002
}
1002
{
1002
{
1010
-1.0
1020
-1.0
1030
-1.0
1002
}
1040
0.7
1000

1040
0.0
1002
{
1002
}
1040
0.0
1002
{
1002
}
1040
0.0
1002
}
1002
{
1002
{
1010
-1.0
1020
-1.0
1030
-1.0
1002
}
1040
0.2
1000

1040
0.0
1002
{
1002
}
1040
0.0
1002
{
1002
}
1040
0.0
1002
}
1002
{
1070
     0
1002
{
1070
     1
1002
{
1040
1.0
1040
1.0
1000

1040
0.0
1002
{
1002
}
1040
0.0
1002
{
1002
}
1040
0.0
1002
}
1002
}
1040
1.0
1040
0.0
1040
0.0
1002
}
1002
{
1040
1.0
1040
1.0
1000

1040
0.0
1002
{
1002
}
1040
0.0
1002
{
1002
}
1040
0.0
1002
}
1002
{
1040
0.5
1040
1.0
1000

1040
0.0
1002
{
1002
}
1040
0.0
1002
{
1002
}
1040
0.0
1002
}
1002
{
1070
     0
1040
0.0
1002
{
1002
}
1040
1.0
1002
{
1002
}
1040
0.0
1002
}
1002
{
1040
0.0
1002
{
1002
{
1010
0.0
1020
0.0
1030
0.0
1002
}
1040
1.0
1000

1040
0.0
1002
{
1002
}
1040
0.0
1002
{
1002
}
1040
0.0
1002
}
1002
}
1002
{
1002
{
1070
     1
1002
{
1040
0.0
1040
1.0
1000

1040
0.0
1002
{
1002
}
1040
0.0
1002
{
1002
}
1040
0.0
1002
}
1002
}
1040
0.0
1002
{
1002
}
1010
1.0
1020
0.0
1030
0.0
1010
0.0
1020
1.0
1030
0.0
1010
0.0
1020
0.0
1030
1.0
1070
     0
1002
}
1002
{
1002
{
1040
1.0
1040
1.0
1002
{
1070
     1
1002
{
1040
1.0
1040
1.0
1000

1040
0.0
1002
{
1002
}
1040
0.0
1002
{
1002
}
1040
0.0
1002
}
1002
}
1002
}
1070
     0
1040
0.0
1002
{
1002
}
1002
}
1002
{
1002
}
1002
}
1002
{
1071
        3
1070
     3
1070
     0
1002
{
1070
     2
1070
     0
1070
     0
1040
0.0
1002
}
1070
     0
1070
     2
1002
{
1002
}
1002
}
1002
{
1040
8030.0
1040
190.300003
1040
0.305
1040
228.0
1040
545.0
1040
14.0
1040
17.4
1040
0.456
1002
}
1002
}
  0
INSERT
  5
1476
  8
ASHADE
 62
     1
  2
AVE_GLOBAL
 10
0.0
 20
0.0
 30
0.0
1001
AVE_MATERIAL
1002
{
1000
*GLOBAL*
1000
1
1000
Global finish.
1002
{
1002
}
1002
{
1070
    63
1002
{
1002
{
1010
-1.0
1020
-1.0
1030
-1.0
1002
}
1040
0.1
1000

1040
0.0
1002
{
1002
}
1040
0.0
1002
{
1002
}
1040
0.0
1002
}
1002
{
1002
{
1010
-1.0
1020
-1.0
1030
-1.0
1002
}
1040
0.7
1000

1040
0.0
1002
{
1002
}
1040
0.0
1002
{
1002
}
1040
0.0
1002
}
1002
{
1002
{
1010
-1.0
1020
-1.0
1030
-1.0
1002
}
1040
0.2
1000

1040
0.0
1002
{
1002
}
1040
0.0
1002
{
1002
}
1040
0.0
1002
}
1002
{
1070
     0
1002
{
1070
     1
1002
{
1040
1.0
1040
1.0
1000

1040
0.0
1002
{
1002
}
1040
0.0
1002
{
1002
}
1040
0.0
1002
}
1002
}
1040
1.0
1040
0.0
1040
0.0
1002
}
1002
{
1040
1.0
1040
1.0
1000

1040
0.0
1002
{
1002
}
1040
0.0
1002
{
1002
}
1040
0.0
1002
}
1002
{
1040
0.5
1040
1.0
1000

1040
0.0
1002
{
1002
}
1040
0.0
1002
{
1002
}
1040
0.0
1002
}
1002
{
1070
     0
1040
0.0
1002
{
1002
}
1040
1.0
1002
{
1002
}
1040
0.0
1002
}
1002
{
1040
0.0
1002
{
1002
{
1010
0.0
1020
0.0
1030
0.0
1002
}
1040
1.0
1000

1040
0.0
1002
{
1002
}
1040
0.0
1002
{
1002
}
1040
0.0
1002
}
1002
}
1002
{
1002
{
1070
     1
1002
{
1040
0.0
1040
1.0
1000

1040
0.0
1002
{
1002
}
1040
0.0
1002
{
1002
}
1040
0.0
1002
}
1002
}
1040
0.0
1002
{
1002
}
1010
1.0
1020
0.0
1030
0.0
1010
0.0
1020
1.0
1030
0.0
1010
0.0
1020
0.0
1030
1.0
1070
     0
1002
}
1002
{
1002
{
1040
1.0
1040
1.0
1002
{
1070
     1
1002
{
1040
1.0
1040
1.0
1000

1040
0.0
1002
{
1002
}
1040
0.0
1002
{
1002
}
1040
0.0
1002
}
1002
}
1002
}
1070
     0
1040
0.0
1002
{
1002
}
1002
}
1002
{
1002
}
1002
}
1002
{
1071
        3
1070
     3
1070
     0
1002
{
1070
     2
1070
     0
1070
     0
1040
0.0
1002
}
1070
     0
1070
     2
1002
{
1002
}
1002
}
1002
{
1040
8030.0
1040
190.300003
1040
0.305
1040
228.0
1040
545.0
1040
14.0
1040
17.4
1040
0.456
1002
}
1002
}
  0
INSERT
  5
1477
  8
ASHADE
  6
CONTINUOUS
 62
     1
  2
AVE_GLOBAL
 10
0.0
 20
0.0
 30
0.0
1001
AVE_MATERIAL
1002
{
1000
*GLOBAL*
1000
1
1000
Global finish.
1002
{
1002
}
1002
{
1070
    63
1002
{
1002
{
1010
-1.0
1020
-1.0
1030
-1.0
1002
}
1040
0.1
1000

1040
0.0
1002
{
1002
}
1040
0.0
1002
{
1002
}
1040
0.0
1002
}
1002
{
1002
{
1010
-1.0
1020
-1.0
1030
-1.0
1002
}
1040
0.7
1000

1040
0.0
1002
{
1002
}
1040
0.0
1002
{
1002
}
1040
0.0
1002
}
1002
{
1002
{
1010
-1.0
1020
-1.0
1030
-1.0
1002
}
1040
0.2
1000

1040
0.0
1002
{
1002
}
1040
0.0
1002
{
1002
}
1040
0.0
1002
}
1002
{
1070
     0
1002
{
1070
     1
1002
{
1040
1.0
1040
1.0
1000

1040
0.0
1002
{
1002
}
1040
0.0
1002
{
1002
}
1040
0.0
1002
}
1002
}
1040
1.0
1040
0.0
1040
0.0
1002
}
1002
{
1040
1.0
1040
1.0
1000

1040
0.0
1002
{
1002
}
1040
0.0
1002
{
1002
}
1040
0.0
1002
}
1002
{
1040
0.5
1040
1.0
1000

1040
0.0
1002
{
1002
}
1040
0.0
1002
{
1002
}
1040
0.0
1002
}
1002
{
1070
     0
1040
0.0
1002
{
1002
}
1040
1.0
1002
{
1002
}
1040
0.0
1002
}
1002
{
1040
0.0
1002
{
1002
{
1010
0.0
1020
0.0
1030
0.0
1002
}
1040
1.0
1000

1040
0.0
1002
{
1002
}
1040
0.0
1002
{
1002
}
1040
0.0
1002
}
1002
}
1002
{
1002
{
1070
     1
1002
{
1040
0.0
1040
1.0
1000

1040
0.0
1002
{
1002
}
1040
0.0
1002
{
1002
}
1040
0.0
1002
}
1002
}
1040
0.0
1002
{
1002
}
1010
1.0
1020
0.0
1030
0.0
1010
0.0
1020
1.0
1030
0.0
1010
0.0
1020
0.0
1030
1.0
1070
     0
1002
}
1002
{
1002
{
1040
1.0
1040
1.0
1002
{
1070
     1
1002
{
1040
1.0
1040
1.0
1000

1040
0.0
1002
{
1002
}
1040
0.0
1002
{
1002
}
1040
0.0
1002
}
1002
}
1002
}
1070
     0
1040
0.0
1002
{
1002
}
1002
}
1002
{
1002
}
1002
}
1002
{
1071
        3
1070
     3
1070
     0
1002
{
1070
     2
1070
     0
1070
     0
1040
0.0
1002
}
1070
     0
1070
     2
1002
{
1002
}
1002
}
1002
{
1040
8030.0
1040
190.300003
1040
0.305
1040
228.0
1040
545.0
1040
14.0
1040
17.4
1040
0.456
1002
}
1002
}
  0
INSERT
  5
1478
  8
ASHADE
 62
     1
  2
AVE_GLOBAL
 10
0.0
 20
0.0
 30
0.0
1001
AVE_MATERIAL
1002
{
1000
*GLOBAL*
1000
1
1000
Global finish.
1002
{
1002
}
1002
{
1070
    63
1002
{
1002
{
1010
-1.0
1020
-1.0
1030
-1.0
1002
}
1040
0.1
1000

1040
0.0
1002
{
1002
}
1040
0.0
1002
{
1002
}
1040
0.0
1002
}
1002
{
1002
{
1010
-1.0
1020
-1.0
1030
-1.0
1002
}
1040
0.7
1000

1040
0.0
1002
{
1002
}
1040
0.0
1002
{
1002
}
1040
0.0
1002
}
1002
{
1002
{
1010
-1.0
1020
-1.0
1030
-1.0
1002
}
1040
0.2
1000

1040
0.0
1002
{
1002
}
1040
0.0
1002
{
1002
}
1040
0.0
1002
}
1002
{
1070
     0
1002
{
1070
     1
1002
{
1040
1.0
1040
1.0
1000

1040
0.0
1002
{
1002
}
1040
0.0
1002
{
1002
}
1040
0.0
1002
}
1002
}
1040
1.0
1040
0.0
1040
0.0
1002
}
1002
{
1040
1.0
1040
1.0
1000

1040
0.0
1002
{
1002
}
1040
0.0
1002
{
1002
}
1040
0.0
1002
}
1002
{
1040
0.5
1040
1.0
1000

1040
0.0
1002
{
1002
}
1040
0.0
1002
{
1002
}
1040
0.0
1002
}
1002
{
1070
     0
1040
0.0
1002
{
1002
}
1040
1.0
1002
{
1002
}
1040
0.0
1002
}
1002
{
1040
0.0
1002
{
1002
{
1010
0.0
1020
0.0
1030
0.0
1002
}
1040
1.0
1000

1040
0.0
1002
{
1002
}
1040
0.0
1002
{
1002
}
1040
0.0
1002
}
1002
}
1002
{
1002
{
1070
     1
1002
{
1040
0.0
1040
1.0
1000

1040
0.0
1002
{
1002
}
1040
0.0
1002
{
1002
}
1040
0.0
1002
}
1002
}
1040
0.0
1002
{
1002
}
1010
1.0
1020
0.0
1030
0.0
1010
0.0
1020
1.0
1030
0.0
1010
0.0
1020
0.0
1030
1.0
1070
     0
1002
}
1002
{
1002
{
1040
1.0
1040
1.0
1002
{
1070
     1
1002
{
1040
1.0
1040
1.0
1000

1040
0.0
1002
{
1002
}
1040
0.0
1002
{
1002
}
1040
0.0
1002
}
1002
}
1002
}
1070
     0
1040
0.0
1002
{
1002
}
1002
}
1002
{
1002
}
1002
}
1002
{
1071
        3
1070
     3
1070
     0
1002
{
1070
     2
1070
     0
1070
     0
1040
0.0
1002
}
1070
     0
1070
     2
1002
{
1002
}
1002
}
1002
{
1040
8030.0
1040
190.300003
1040
0.305
1040
228.0
1040
545.0
1040
14.0
1040
17.4
1040
0.456
1002
}
1002
}
  0
INSERT
  5
1479
  8
ASHADE
 62
     1
  2
AVE_GLOBAL
 10
0.0
 20
0.0
 30
0.0
1001
AVE_MATERIAL
1002
{
1000
*GLOBAL*
1000
1
1000
Global finish.
1002
{
1002
}
1002
{
1070
    63
1002
{
1002
{
1010
-1.0
1020
-1.0
1030
-1.0
1002
}
1040
0.1
1000

1040
0.0
1002
{
1002
}
1040
0.0
1002
{
1002
}
1040
0.0
1002
}
1002
{
1002
{
1010
-1.0
1020
-1.0
1030
-1.0
1002
}
1040
0.7
1000

1040
0.0
1002
{
1002
}
1040
0.0
1002
{
1002
}
1040
0.0
1002
}
1002
{
1002
{
1010
-1.0
1020
-1.0
1030
-1.0
1002
}
1040
0.2
1000

1040
0.0
1002
{
1002
}
1040
0.0
1002
{
1002
}
1040
0.0
1002
}
1002
{
1070
     0
1002
{
1070
     1
1002
{
1040
1.0
1040
1.0
1000

1040
0.0
1002
{
1002
}
1040
0.0
1002
{
1002
}
1040
0.0
1002
}
1002
}
1040
1.0
1040
0.0
1040
0.0
1002
}
1002
{
1040
1.0
1040
1.0
1000

1040
0.0
1002
{
1002
}
1040
0.0
1002
{
1002
}
1040
0.0
1002
}
1002
{
1040
0.5
1040
1.0
1000

1040
0.0
1002
{
1002
}
1040
0.0
1002
{
1002
}
1040
0.0
1002
}
1002
{
1070
     0
1040
0.0
1002
{
1002
}
1040
1.0
1002
{
1002
}
1040
0.0
1002
}
1002
{
1040
0.0
1002
{
1002
{
1010
0.0
1020
0.0
1030
0.0
1002
}
1040
1.0
1000

1040
0.0
1002
{
1002
}
1040
0.0
1002
{
1002
}
1040
0.0
1002
}
1002
}
1002
{
1002
{
1070
     1
1002
{
1040
0.0
1040
1.0
1000

1040
0.0
1002
{
1002
}
1040
0.0
1002
{
1002
}
1040
0.0
1002
}
1002
}
1040
0.0
1002
{
1002
}
1010
1.0
1020
0.0
1030
0.0
1010
0.0
1020
1.0
1030
0.0
1010
0.0
1020
0.0
1030
1.0
1070
     0
1002
}
1002
{
1002
{
1040
1.0
1040
1.0
1002
{
1070
     1
1002
{
1040
1.0
1040
1.0
1000

1040
0.0
1002
{
1002
}
1040
0.0
1002
{
1002
}
1040
0.0
1002
}
1002
}
1002
}
1070
     0
1040
0.0
1002
{
1002
}
1002
}
1002
{
1002
}
1002
}
1002
{
1071
        3
1070
     3
1070
     0
1002
{
1070
     2
1070
     0
1070
     0
1040
0.0
1002
}
1070
     0
1070
     2
1002
{
1002
}
1002
}
1002
{
1040
8030.0
1040
190.300003
1040
0.305
1040
228.0
1040
545.0
1040
14.0
1040
17.4
1040
0.456
1002
}
1002
}
  0
INSERT
  5
147A
  8
ASHADE
 62
     1
  2
AVE_GLOBAL
 10
0.0
 20
0.0
 30
0.0
1001
AVE_MATERIAL
1002
{
1000
*GLOBAL*
1000
1
1000
Global finish.
1002
{
1002
}
1002
{
1070
    63
1002
{
1002
{
1010
-1.0
1020
-1.0
1030
-1.0
1002
}
1040
0.1
1000

1040
0.0
1002
{
1002
}
1040
0.0
1002
{
1002
}
1040
0.0
1002
}
1002
{
1002
{
1010
-1.0
1020
-1.0
1030
-1.0
1002
}
1040
0.7
1000

1040
0.0
1002
{
1002
}
1040
0.0
1002
{
1002
}
1040
0.0
1002
}
1002
{
1002
{
1010
-1.0
1020
-1.0
1030
-1.0
1002
}
1040
0.2
1000

1040
0.0
1002
{
1002
}
1040
0.0
1002
{
1002
}
1040
0.0
1002
}
1002
{
1070
     0
1002
{
1070
     1
1002
{
1040
1.0
1040
1.0
1000

1040
0.0
1002
{
1002
}
1040
0.0
1002
{
1002
}
1040
0.0
1002
}
1002
}
1040
1.0
1040
0.0
1040
0.0
1002
}
1002
{
1040
1.0
1040
1.0
1000

1040
0.0
1002
{
1002
}
1040
0.0
1002
{
1002
}
1040
0.0
1002
}
1002
{
1040
0.5
1040
1.0
1000

1040
0.0
1002
{
1002
}
1040
0.0
1002
{
1002
}
1040
0.0
1002
}
1002
{
1070
     0
1040
0.0
1002
{
1002
}
1040
1.0
1002
{
1002
}
1040
0.0
1002
}
1002
{
1040
0.0
1002
{
1002
{
1010
0.0
1020
0.0
1030
0.0
1002
}
1040
1.0
1000

1040
0.0
1002
{
1002
}
1040
0.0
1002
{
1002
}
1040
0.0
1002
}
1002
}
1002
{
1002
{
1070
     1
1002
{
1040
0.0
1040
1.0
1000

1040
0.0
1002
{
1002
}
1040
0.0
1002
{
1002
}
1040
0.0
1002
}
1002
}
1040
0.0
1002
{
1002
}
1010
1.0
1020
0.0
1030
0.0
1010
0.0
1020
1.0
1030
0.0
1010
0.0
1020
0.0
1030
1.0
1070
     0
1002
}
1002
{
1002
{
1040
1.0
1040
1.0
1002
{
1070
     1
1002
{
1040
1.0
1040
1.0
1000

1040
0.0
1002
{
1002
}
1040
0.0
1002
{
1002
}
1040
0.0
1002
}
1002
}
1002
}
1070
     0
1040
0.0
1002
{
1002
}
1002
}
1002
{
1002
}
1002
}
1002
{
1071
        3
1070
     3
1070
     0
1002
{
1070
     2
1070
     0
1070
     0
1040
0.0
1002
}
1070
     0
1070
     2
1002
{
1002
}
1002
}
1002
{
1040
8030.0
1040
190.300003
1040
0.305
1040
228.0
1040
545.0
1040
14.0
1040
17.4
1040
0.456
1002
}
1002
}
  0
INSERT
  5
147B
  8
ASHADE
 62
     1
  2
AVE_GLOBAL
 10
0.0
 20
0.0
 30
0.0
1001
AVE_MATERIAL
1002
{
1000
*GLOBAL*
1000
1
1000
Global finish.
1002
{
1002
}
1002
{
1070
    63
1002
{
1002
{
1010
-1.0
1020
-1.0
1030
-1.0
1002
}
1040
0.1
1000

1040
0.0
1002
{
1002
}
1040
0.0
1002
{
1002
}
1040
0.0
1002
}
1002
{
1002
{
1010
-1.0
1020
-1.0
1030
-1.0
1002
}
1040
0.7
1000

1040
0.0
1002
{
1002
}
1040
0.0
1002
{
1002
}
1040
0.0
1002
}
1002
{
1002
{
1010
-1.0
1020
-1.0
1030
-1.0
1002
}
1040
0.2
1000

1040
0.0
1002
{
1002
}
1040
0.0
1002
{
1002
}
1040
0.0
1002
}
1002
{
1070
     0
1002
{
1070
     1
1002
{
1040
1.0
1040
1.0
1000

1040
0.0
1002
{
1002
}
1040
0.0
1002
{
1002
}
1040
0.0
1002
}
1002
}
1040
1.0
1040
0.0
1040
0.0
1002
}
1002
{
1040
1.0
1040
1.0
1000

1040
0.0
1002
{
1002
}
1040
0.0
1002
{
1002
}
1040
0.0
1002
}
1002
{
1040
0.5
1040
1.0
1000

1040
0.0
1002
{
1002
}
1040
0.0
1002
{
1002
}
1040
0.0
1002
}
1002
{
1070
     0
1040
0.0
1002
{
1002
}
1040
1.0
1002
{
1002
}
1040
0.0
1002
}
1002
{
1040
0.0
1002
{
1002
{
1010
0.0
1020
0.0
1030
0.0
1002
}
1040
1.0
1000

1040
0.0
1002
{
1002
}
1040
0.0
1002
{
1002
}
1040
0.0
1002
}
1002
}
1002
{
1002
{
1070
     1
1002
{
1040
0.0
1040
1.0
1000

1040
0.0
1002
{
1002
}
1040
0.0
1002
{
1002
}
1040
0.0
1002
}
1002
}
1040
0.0
1002
{
1002
}
1010
1.0
1020
0.0
1030
0.0
1010
0.0
1020
1.0
1030
0.0
1010
0.0
1020
0.0
1030
1.0
1070
     0
1002
}
1002
{
1002
{
1040
1.0
1040
1.0
1002
{
1070
     1
1002
{
1040
1.0
1040
1.0
1000

1040
0.0
1002
{
1002
}
1040
0.0
1002
{
1002
}
1040
0.0
1002
}
1002
}
1002
}
1070
     0
1040
0.0
1002
{
1002
}
1002
}
1002
{
1002
}
1002
}
1002
{
1071
        3
1070
     3
1070
     0
1002
{
1070
     2
1070
     0
1070
     0
1040
0.0
1002
}
1070
     0
1070
     2
1002
{
1002
}
1002
}
1002
{
1040
8030.0
1040
190.300003
1040
0.305
1040
228.0
1040
545.0
1040
14.0
1040
17.4
1040
0.456
1002
}
1002
}
  0
INSERT
  5
147C
  8
ASHADE
 62
     1
  2
AVE_GLOBAL
 10
0.0
 20
0.0
 30
0.0
1001
AVE_MATERIAL
1002
{
1000
*GLOBAL*
1000
1
1000
Global finish.
1002
{
1002
}
1002
{
1070
    63
1002
{
1002
{
1010
-1.0
1020
-1.0
1030
-1.0
1002
}
1040
0.1
1000

1040
0.0
1002
{
1002
}
1040
0.0
1002
{
1002
}
1040
0.0
1002
}
1002
{
1002
{
1010
-1.0
1020
-1.0
1030
-1.0
1002
}
1040
0.7
1000

1040
0.0
1002
{
1002
}
1040
0.0
1002
{
1002
}
1040
0.0
1002
}
1002
{
1002
{
1010
-1.0
1020
-1.0
1030
-1.0
1002
}
1040
0.2
1000

1040
0.0
1002
{
1002
}
1040
0.0
1002
{
1002
}
1040
0.0
1002
}
1002
{
1070
     0
1002
{
1070
     1
1002
{
1040
1.0
1040
1.0
1000

1040
0.0
1002
{
1002
}
1040
0.0
1002
{
1002
}
1040
0.0
1002
}
1002
}
1040
1.0
1040
0.0
1040
0.0
1002
}
1002
{
1040
1.0
1040
1.0
1000

1040
0.0
1002
{
1002
}
1040
0.0
1002
{
1002
}
1040
0.0
1002
}
1002
{
1040
0.5
1040
1.0
1000

1040
0.0
1002
{
1002
}
1040
0.0
1002
{
1002
}
1040
0.0
1002
}
1002
{
1070
     0
1040
0.0
1002
{
1002
}
1040
1.0
1002
{
1002
}
1040
0.0
1002
}
1002
{
1040
0.0
1002
{
1002
{
1010
0.0
1020
0.0
1030
0.0
1002
}
1040
1.0
1000

1040
0.0
1002
{
1002
}
1040
0.0
1002
{
1002
}
1040
0.0
1002
}
1002
}
1002
{
1002
{
1070
     1
1002
{
1040
0.0
1040
1.0
1000

1040
0.0
1002
{
1002
}
1040
0.0
1002
{
1002
}
1040
0.0
1002
}
1002
}
1040
0.0
1002
{
1002
}
1010
1.0
1020
0.0
1030
0.0
1010
0.0
1020
1.0
1030
0.0
1010
0.0
1020
0.0
1030
1.0
1070
     0
1002
}
1002
{
1002
{
1040
1.0
1040
1.0
1002
{
1070
     1
1002
{
1040
1.0
1040
1.0
1000

1040
0.0
1002
{
1002
}
1040
0.0
1002
{
1002
}
1040
0.0
1002
}
1002
}
1002
}
1070
     0
1040
0.0
1002
{
1002
}
1002
}
1002
{
1002
}
1002
}
1002
{
1071
        3
1070
     3
1070
     0
1002
{
1070
     2
1070
     0
1070
     0
1040
0.0
1002
}
1070
     0
1070
     2
1002
{
1002
}
1002
}
1002
{
1040
8030.0
1040
190.300003
1040
0.305
1040
228.0
1040
545.0
1040
14.0
1040
17.4
1040
0.456
1002
}
1002
}
  0
INSERT
  5
147D
  8
ASHADE
 62
     1
  2
AVE_GLOBAL
 10
0.0
 20
0.0
 30
0.0
1001
AVE_MATERIAL
1002
{
1000
*GLOBAL*
1000
1
1000
Global finish.
1002
{
1002
}
1002
{
1070
    63
1002
{
1002
{
1010
-1.0
1020
-1.0
1030
-1.0
1002
}
1040
0.1
1000

1040
0.0
1002
{
1002
}
1040
0.0
1002
{
1002
}
1040
0.0
1002
}
1002
{
1002
{
1010
-1.0
1020
-1.0
1030
-1.0
1002
}
1040
0.7
1000

1040
0.0
1002
{
1002
}
1040
0.0
1002
{
1002
}
1040
0.0
1002
}
1002
{
1002
{
1010
-1.0
1020
-1.0
1030
-1.0
1002
}
1040
0.2
1000

1040
0.0
1002
{
1002
}
1040
0.0
1002
{
1002
}
1040
0.0
1002
}
1002
{
1070
     0
1002
{
1070
     1
1002
{
1040
1.0
1040
1.0
1000

1040
0.0
1002
{
1002
}
1040
0.0
1002
{
1002
}
1040
0.0
1002
}
1002
}
1040
1.0
1040
0.0
1040
0.0
1002
}
1002
{
1040
1.0
1040
1.0
1000

1040
0.0
1002
{
1002
}
1040
0.0
1002
{
1002
}
1040
0.0
1002
}
1002
{
1040
0.5
1040
1.0
1000

1040
0.0
1002
{
1002
}
1040
0.0
1002
{
1002
}
1040
0.0
1002
}
1002
{
1070
     0
1040
0.0
1002
{
1002
}
1040
1.0
1002
{
1002
}
1040
0.0
1002
}
1002
{
1040
0.0
1002
{
1002
{
1010
0.0
1020
0.0
1030
0.0
1002
}
1040
1.0
1000

1040
0.0
1002
{
1002
}
1040
0.0
1002
{
1002
}
1040
0.0
1002
}
1002
}
1002
{
1002
{
1070
     1
1002
{
1040
0.0
1040
1.0
1000

1040
0.0
1002
{
1002
}
1040
0.0
1002
{
1002
}
1040
0.0
1002
}
1002
}
1040
0.0
1002
{
1002
}
1010
1.0
1020
0.0
1030
0.0
1010
0.0
1020
1.0
1030
0.0
1010
0.0
1020
0.0
1030
1.0
1070
     0
1002
}
1002
{
1002
{
1040
1.0
1040
1.0
1002
{
1070
     1
1002
{
1040
1.0
1040
1.0
1000

1040
0.0
1002
{
1002
}
1040
0.0
1002
{
1002
}
1040
0.0
1002
}
1002
}
1002
}
1070
     0
1040
0.0
1002
{
1002
}
1002
}
1002
{
1002
}
1002
}
1002
{
1071
        3
1070
     3
1070
     0
1002
{
1070
     2
1070
     0
1070
     0
1040
0.0
1002
}
1070
     0
1070
     2
1002
{
1002
}
1002
}
1002
{
1040
8030.0
1040
190.300003
1040
0.305
1040
228.0
1040
545.0
1040
14.0
1040
17.4
1040
0.456
1002
}
1002
}
  0
INSERT
  5
147E
  8
ASHADE
  6
CONTINUOUS
 62
     1
  2
AVE_GLOBAL
 10
0.0
 20
0.0
 30
0.0
1001
AVE_MATERIAL
1002
{
1000
*GLOBAL*
1000
1
1000
Global finish.
1002
{
1002
}
1002
{
1070
    63
1002
{
1002
{
1010
-1.0
1020
-1.0
1030
-1.0
1002
}
1040
0.1
1000

1040
0.0
1002
{
1002
}
1040
0.0
1002
{
1002
}
1040
0.0
1002
}
1002
{
1002
{
1010
-1.0
1020
-1.0
1030
-1.0
1002
}
1040
0.7
1000

1040
0.0
1002
{
1002
}
1040
0.0
1002
{
1002
}
1040
0.0
1002
}
1002
{
1002
{
1010
-1.0
1020
-1.0
1030
-1.0
1002
}
1040
0.2
1000

1040
0.0
1002
{
1002
}
1040
0.0
1002
{
1002
}
1040
0.0
1002
}
1002
{
1070
     0
1002
{
1070
     1
1002
{
1040
1.0
1040
1.0
1000

1040
0.0
1002
{
1002
}
1040
0.0
1002
{
1002
}
1040
0.0
1002
}
1002
}
1040
1.0
1040
0.0
1040
0.0
1002
}
1002
{
1040
1.0
1040
1.0
1000

1040
0.0
1002
{
1002
}
1040
0.0
1002
{
1002
}
1040
0.0
1002
}
1002
{
1040
0.5
1040
1.0
1000

1040
0.0
1002
{
1002
}
1040
0.0
1002
{
1002
}
1040
0.0
1002
}
1002
{
1070
     0
1040
0.0
1002
{
1002
}
1040
1.0
1002
{
1002
}
1040
0.0
1002
}
1002
{
1040
0.0
1002
{
1002
{
1010
0.0
1020
0.0
1030
0.0
1002
}
1040
1.0
1000

1040
0.0
1002
{
1002
}
1040
0.0
1002
{
1002
}
1040
0.0
1002
}
1002
}
1002
{
1002
{
1070
     1
1002
{
1040
0.0
1040
1.0
1000

1040
0.0
1002
{
1002
}
1040
0.0
1002
{
1002
}
1040
0.0
1002
}
1002
}
1040
0.0
1002
{
1002
}
1010
1.0
1020
0.0
1030
0.0
1010
0.0
1020
1.0
1030
0.0
1010
0.0
1020
0.0
1030
1.0
1070
     0
1002
}
1002
{
1002
{
1040
1.0
1040
1.0
1002
{
1070
     1
1002
{
1040
1.0
1040
1.0
1000

1040
0.0
1002
{
1002
}
1040
0.0
1002
{
1002
}
1040
0.0
1002
}
1002
}
1002
}
1070
     0
1040
0.0
1002
{
1002
}
1002
}
1002
{
1002
}
1002
}
1002
{
1071
        3
1070
     3
1070
     0
1002
{
1070
     2
1070
     0
1070
     0
1040
0.0
1002
}
1070
     0
1070
     2
1002
{
1002
}
1002
}
1002
{
1040
8030.0
1040
190.300003
1040
0.305
1040
228.0
1040
545.0
1040
14.0
1040
17.4
1040
0.456
1002
}
1002
}
  0
INSERT
  5
147F
  8
ASHADE
 62
     1
  2
AVE_GLOBAL
 10
0.0
 20
0.0
 30
0.0
1001
AVE_MATERIAL
1002
{
1000
*GLOBAL*
1000
1
1000
Global finish.
1002
{
1002
}
1002
{
1070
    63
1002
{
1002
{
1010
-1.0
1020
-1.0
1030
-1.0
1002
}
1040
0.1
1000

1040
0.0
1002
{
1002
}
1040
0.0
1002
{
1002
}
1040
0.0
1002
}
1002
{
1002
{
1010
-1.0
1020
-1.0
1030
-1.0
1002
}
1040
0.7
1000

1040
0.0
1002
{
1002
}
1040
0.0
1002
{
1002
}
1040
0.0
1002
}
1002
{
1002
{
1010
-1.0
1020
-1.0
1030
-1.0
1002
}
1040
0.2
1000

1040
0.0
1002
{
1002
}
1040
0.0
1002
{
1002
}
1040
0.0
1002
}
1002
{
1070
     0
1002
{
1070
     1
1002
{
1040
1.0
1040
1.0
1000

1040
0.0
1002
{
1002
}
1040
0.0
1002
{
1002
}
1040
0.0
1002
}
1002
}
1040
1.0
1040
0.0
1040
0.0
1002
}
1002
{
1040
1.0
1040
1.0
1000

1040
0.0
1002
{
1002
}
1040
0.0
1002
{
1002
}
1040
0.0
1002
}
1002
{
1040
0.5
1040
1.0
1000

1040
0.0
1002
{
1002
}
1040
0.0
1002
{
1002
}
1040
0.0
1002
}
1002
{
1070
     0
1040
0.0
1002
{
1002
}
1040
1.0
1002
{
1002
}
1040
0.0
1002
}
1002
{
1040
0.0
1002
{
1002
{
1010
0.0
1020
0.0
1030
0.0
1002
}
1040
1.0
1000

1040
0.0
1002
{
1002
}
1040
0.0
1002
{
1002
}
1040
0.0
1002
}
1002
}
1002
{
1002
{
1070
     1
1002
{
1040
0.0
1040
1.0
1000

1040
0.0
1002
{
1002
}
1040
0.0
1002
{
1002
}
1040
0.0
1002
}
1002
}
1040
0.0
1002
{
1002
}
1010
1.0
1020
0.0
1030
0.0
1010
0.0
1020
1.0
1030
0.0
1010
0.0
1020
0.0
1030
1.0
1070
     0
1002
}
1002
{
1002
{
1040
1.0
1040
1.0
1002
{
1070
     1
1002
{
1040
1.0
1040
1.0
1000

1040
0.0
1002
{
1002
}
1040
0.0
1002
{
1002
}
1040
0.0
1002
}
1002
}
1002
}
1070
     0
1040
0.0
1002
{
1002
}
1002
}
1002
{
1002
}
1002
}
1002
{
1071
        3
1070
     3
1070
     0
1002
{
1070
     2
1070
     0
1070
     0
1040
0.0
1002
}
1070
     0
1070
     2
1002
{
1002
}
1002
}
1002
{
1040
8030.0
1040
190.300003
1040
0.305
1040
228.0
1040
545.0
1040
14.0
1040
17.4
1040
0.456
1002
}
1002
}
  0
INSERT
  5
1480
  8
ASHADE
 62
     1
  2
AVE_GLOBAL
 10
0.0
 20
0.0
 30
0.0
1001
AVE_MATERIAL
1002
{
1000
*GLOBAL*
1000
1
1000
Global finish.
1002
{
1002
}
1002
{
1070
    63
1002
{
1002
{
1010
-1.0
1020
-1.0
1030
-1.0
1002
}
1040
0.1
1000

1040
0.0
1002
{
1002
}
1040
0.0
1002
{
1002
}
1040
0.0
1002
}
1002
{
1002
{
1010
-1.0
1020
-1.0
1030
-1.0
1002
}
1040
0.7
1000

1040
0.0
1002
{
1002
}
1040
0.0
1002
{
1002
}
1040
0.0
1002
}
1002
{
1002
{
1010
-1.0
1020
-1.0
1030
-1.0
1002
}
1040
0.2
1000

1040
0.0
1002
{
1002
}
1040
0.0
1002
{
1002
}
1040
0.0
1002
}
1002
{
1070
     0
1002
{
1070
     1
1002
{
1040
1.0
1040
1.0
1000

1040
0.0
1002
{
1002
}
1040
0.0
1002
{
1002
}
1040
0.0
1002
}
1002
}
1040
1.0
1040
0.0
1040
0.0
1002
}
1002
{
1040
1.0
1040
1.0
1000

1040
0.0
1002
{
1002
}
1040
0.0
1002
{
1002
}
1040
0.0
1002
}
1002
{
1040
0.5
1040
1.0
1000

1040
0.0
1002
{
1002
}
1040
0.0
1002
{
1002
}
1040
0.0
1002
}
1002
{
1070
     0
1040
0.0
1002
{
1002
}
1040
1.0
1002
{
1002
}
1040
0.0
1002
}
1002
{
1040
0.0
1002
{
1002
{
1010
0.0
1020
0.0
1030
0.0
1002
}
1040
1.0
1000

1040
0.0
1002
{
1002
}
1040
0.0
1002
{
1002
}
1040
0.0
1002
}
1002
}
1002
{
1002
{
1070
     1
1002
{
1040
0.0
1040
1.0
1000

1040
0.0
1002
{
1002
}
1040
0.0
1002
{
1002
}
1040
0.0
1002
}
1002
}
1040
0.0
1002
{
1002
}
1010
1.0
1020
0.0
1030
0.0
1010
0.0
1020
1.0
1030
0.0
1010
0.0
1020
0.0
1030
1.0
1070
     0
1002
}
1002
{
1002
{
1040
1.0
1040
1.0
1002
{
1070
     1
1002
{
1040
1.0
1040
1.0
1000

1040
0.0
1002
{
1002
}
1040
0.0
1002
{
1002
}
1040
0.0
1002
}
1002
}
1002
}
1070
     0
1040
0.0
1002
{
1002
}
1002
}
1002
{
1002
}
1002
}
1002
{
1071
        3
1070
     3
1070
     0
1002
{
1070
     2
1070
     0
1070
     0
1040
0.0
1002
}
1070
     0
1070
     2
1002
{
1002
}
1002
}
1002
{
1040
8030.0
1040
190.300003
1040
0.305
1040
228.0
1040
545.0
1040
14.0
1040
17.4
1040
0.456
1002
}
1002
}
  0
INSERT
  5
1481
  8
ASHADE
 62
     1
  2
AVE_GLOBAL
 10
0.0
 20
0.0
 30
0.0
1001
AVE_MATERIAL
1002
{
1000
*GLOBAL*
1000
1
1000
Global finish.
1002
{
1002
}
1002
{
1070
    63
1002
{
1002
{
1010
-1.0
1020
-1.0
1030
-1.0
1002
}
1040
0.1
1000

1040
0.0
1002
{
1002
}
1040
0.0
1002
{
1002
}
1040
0.0
1002
}
1002
{
1002
{
1010
-1.0
1020
-1.0
1030
-1.0
1002
}
1040
0.7
1000

1040
0.0
1002
{
1002
}
1040
0.0
1002
{
1002
}
1040
0.0
1002
}
1002
{
1002
{
1010
-1.0
1020
-1.0
1030
-1.0
1002
}
1040
0.2
1000

1040
0.0
1002
{
1002
}
1040
0.0
1002
{
1002
}
1040
0.0
1002
}
1002
{
1070
     0
1002
{
1070
     1
1002
{
1040
1.0
1040
1.0
1000

1040
0.0
1002
{
1002
}
1040
0.0
1002
{
1002
}
1040
0.0
1002
}
1002
}
1040
1.0
1040
0.0
1040
0.0
1002
}
1002
{
1040
1.0
1040
1.0
1000

1040
0.0
1002
{
1002
}
1040
0.0
1002
{
1002
}
1040
0.0
1002
}
1002
{
1040
0.5
1040
1.0
1000

1040
0.0
1002
{
1002
}
1040
0.0
1002
{
1002
}
1040
0.0
1002
}
1002
{
1070
     0
1040
0.0
1002
{
1002
}
1040
1.0
1002
{
1002
}
1040
0.0
1002
}
1002
{
1040
0.0
1002
{
1002
{
1010
0.0
1020
0.0
1030
0.0
1002
}
1040
1.0
1000

1040
0.0
1002
{
1002
}
1040
0.0
1002
{
1002
}
1040
0.0
1002
}
1002
}
1002
{
1002
{
1070
     1
1002
{
1040
0.0
1040
1.0
1000

1040
0.0
1002
{
1002
}
1040
0.0
1002
{
1002
}
1040
0.0
1002
}
1002
}
1040
0.0
1002
{
1002
}
1010
1.0
1020
0.0
1030
0.0
1010
0.0
1020
1.0
1030
0.0
1010
0.0
1020
0.0
1030
1.0
1070
     0
1002
}
1002
{
1002
{
1040
1.0
1040
1.0
1002
{
1070
     1
1002
{
1040
1.0
1040
1.0
1000

1040
0.0
1002
{
1002
}
1040
0.0
1002
{
1002
}
1040
0.0
1002
}
1002
}
1002
}
1070
     0
1040
0.0
1002
{
1002
}
1002
}
1002
{
1002
}
1002
}
1002
{
1071
        3
1070
     3
1070
     0
1002
{
1070
     2
1070
     0
1070
     0
1040
0.0
1002
}
1070
     0
1070
     2
1002
{
1002
}
1002
}
1002
{
1040
8030.0
1040
190.300003
1040
0.305
1040
228.0
1040
545.0
1040
14.0
1040
17.4
1040
0.456
1002
}
1002
}
  0
INSERT
  5
1482
  8
ASHADE
 62
     1
  2
AVE_GLOBAL
 10
0.0
 20
0.0
 30
0.0
1001
AVE_MATERIAL
1002
{
1000
*GLOBAL*
1000
1
1000
Global finish.
1002
{
1002
}
1002
{
1070
    63
1002
{
1002
{
1010
-1.0
1020
-1.0
1030
-1.0
1002
}
1040
0.1
1000

1040
0.0
1002
{
1002
}
1040
0.0
1002
{
1002
}
1040
0.0
1002
}
1002
{
1002
{
1010
-1.0
1020
-1.0
1030
-1.0
1002
}
1040
0.7
1000

1040
0.0
1002
{
1002
}
1040
0.0
1002
{
1002
}
1040
0.0
1002
}
1002
{
1002
{
1010
-1.0
1020
-1.0
1030
-1.0
1002
}
1040
0.2
1000

1040
0.0
1002
{
1002
}
1040
0.0
1002
{
1002
}
1040
0.0
1002
}
1002
{
1070
     0
1002
{
1070
     1
1002
{
1040
1.0
1040
1.0
1000

1040
0.0
1002
{
1002
}
1040
0.0
1002
{
1002
}
1040
0.0
1002
}
1002
}
1040
1.0
1040
0.0
1040
0.0
1002
}
1002
{
1040
1.0
1040
1.0
1000

1040
0.0
1002
{
1002
}
1040
0.0
1002
{
1002
}
1040
0.0
1002
}
1002
{
1040
0.5
1040
1.0
1000

1040
0.0
1002
{
1002
}
1040
0.0
1002
{
1002
}
1040
0.0
1002
}
1002
{
1070
     0
1040
0.0
1002
{
1002
}
1040
1.0
1002
{
1002
}
1040
0.0
1002
}
1002
{
1040
0.0
1002
{
1002
{
1010
0.0
1020
0.0
1030
0.0
1002
}
1040
1.0
1000

1040
0.0
1002
{
1002
}
1040
0.0
1002
{
1002
}
1040
0.0
1002
}
1002
}
1002
{
1002
{
1070
     1
1002
{
1040
0.0
1040
1.0
1000

1040
0.0
1002
{
1002
}
1040
0.0
1002
{
1002
}
1040
0.0
1002
}
1002
}
1040
0.0
1002
{
1002
}
1010
1.0
1020
0.0
1030
0.0
1010
0.0
1020
1.0
1030
0.0
1010
0.0
1020
0.0
1030
1.0
1070
     0
1002
}
1002
{
1002
{
1040
1.0
1040
1.0
1002
{
1070
     1
1002
{
1040
1.0
1040
1.0
1000

1040
0.0
1002
{
1002
}
1040
0.0
1002
{
1002
}
1040
0.0
1002
}
1002
}
1002
}
1070
     0
1040
0.0
1002
{
1002
}
1002
}
1002
{
1002
}
1002
}
1002
{
1071
        3
1070
     3
1070
     0
1002
{
1070
     2
1070
     0
1070
     0
1040
0.0
1002
}
1070
     0
1070
     2
1002
{
1002
}
1002
}
1002
{
1040
8030.0
1040
190.300003
1040
0.305
1040
228.0
1040
545.0
1040
14.0
1040
17.4
1040
0.456
1002
}
1002
}
  0
INSERT
  5
1483
  8
ASHADE
 62
     1
  2
AVE_GLOBAL
 10
0.0
 20
0.0
 30
0.0
1001
AVE_MATERIAL
1002
{
1000
*GLOBAL*
1000
1
1000
Global finish.
1002
{
1002
}
1002
{
1070
    63
1002
{
1002
{
1010
-1.0
1020
-1.0
1030
-1.0
1002
}
1040
0.1
1000

1040
0.0
1002
{
1002
}
1040
0.0
1002
{
1002
}
1040
0.0
1002
}
1002
{
1002
{
1010
-1.0
1020
-1.0
1030
-1.0
1002
}
1040
0.7
1000

1040
0.0
1002
{
1002
}
1040
0.0
1002
{
1002
}
1040
0.0
1002
}
1002
{
1002
{
1010
-1.0
1020
-1.0
1030
-1.0
1002
}
1040
0.2
1000

1040
0.0
1002
{
1002
}
1040
0.0
1002
{
1002
}
1040
0.0
1002
}
1002
{
1070
     0
1002
{
1070
     1
1002
{
1040
1.0
1040
1.0
1000

1040
0.0
1002
{
1002
}
1040
0.0
1002
{
1002
}
1040
0.0
1002
}
1002
}
1040
1.0
1040
0.0
1040
0.0
1002
}
1002
{
1040
1.0
1040
1.0
1000

1040
0.0
1002
{
1002
}
1040
0.0
1002
{
1002
}
1040
0.0
1002
}
1002
{
1040
0.5
1040
1.0
1000

1040
0.0
1002
{
1002
}
1040
0.0
1002
{
1002
}
1040
0.0
1002
}
1002
{
1070
     0
1040
0.0
1002
{
1002
}
1040
1.0
1002
{
1002
}
1040
0.0
1002
}
1002
{
1040
0.0
1002
{
1002
{
1010
0.0
1020
0.0
1030
0.0
1002
}
1040
1.0
1000

1040
0.0
1002
{
1002
}
1040
0.0
1002
{
1002
}
1040
0.0
1002
}
1002
}
1002
{
1002
{
1070
     1
1002
{
1040
0.0
1040
1.0
1000

1040
0.0
1002
{
1002
}
1040
0.0
1002
{
1002
}
1040
0.0
1002
}
1002
}
1040
0.0
1002
{
1002
}
1010
1.0
1020
0.0
1030
0.0
1010
0.0
1020
1.0
1030
0.0
1010
0.0
1020
0.0
1030
1.0
1070
     0
1002
}
1002
{
1002
{
1040
1.0
1040
1.0
1002
{
1070
     1
1002
{
1040
1.0
1040
1.0
1000

1040
0.0
1002
{
1002
}
1040
0.0
1002
{
1002
}
1040
0.0
1002
}
1002
}
1002
}
1070
     0
1040
0.0
1002
{
1002
}
1002
}
1002
{
1002
}
1002
}
1002
{
1071
        3
1070
     3
1070
     0
1002
{
1070
     2
1070
     0
1070
     0
1040
0.0
1002
}
1070
     0
1070
     2
1002
{
1002
}
1002
}
1002
{
1040
8030.0
1040
190.300003
1040
0.305
1040
228.0
1040
545.0
1040
14.0
1040
17.4
1040
0.456
1002
}
1002
}
  0
INSERT
  5
1484
  8
ASHADE
 62
     1
  2
AVE_GLOBAL
 10
0.0
 20
0.0
 30
0.0
1001
AVE_MATERIAL
1002
{
1000
*GLOBAL*
1000
1
1000
Global finish.
1002
{
1002
}
1002
{
1070
    63
1002
{
1002
{
1010
-1.0
1020
-1.0
1030
-1.0
1002
}
1040
0.1
1000

1040
0.0
1002
{
1002
}
1040
0.0
1002
{
1002
}
1040
0.0
1002
}
1002
{
1002
{
1010
-1.0
1020
-1.0
1030
-1.0
1002
}
1040
0.7
1000

1040
0.0
1002
{
1002
}
1040
0.0
1002
{
1002
}
1040
0.0
1002
}
1002
{
1002
{
1010
-1.0
1020
-1.0
1030
-1.0
1002
}
1040
0.2
1000

1040
0.0
1002
{
1002
}
1040
0.0
1002
{
1002
}
1040
0.0
1002
}
1002
{
1070
     0
1002
{
1070
     1
1002
{
1040
1.0
1040
1.0
1000

1040
0.0
1002
{
1002
}
1040
0.0
1002
{
1002
}
1040
0.0
1002
}
1002
}
1040
1.0
1040
0.0
1040
0.0
1002
}
1002
{
1040
1.0
1040
1.0
1000

1040
0.0
1002
{
1002
}
1040
0.0
1002
{
1002
}
1040
0.0
1002
}
1002
{
1040
0.5
1040
1.0
1000

1040
0.0
1002
{
1002
}
1040
0.0
1002
{
1002
}
1040
0.0
1002
}
1002
{
1070
     0
1040
0.0
1002
{
1002
}
1040
1.0
1002
{
1002
}
1040
0.0
1002
}
1002
{
1040
0.0
1002
{
1002
{
1010
0.0
1020
0.0
1030
0.0
1002
}
1040
1.0
1000

1040
0.0
1002
{
1002
}
1040
0.0
1002
{
1002
}
1040
0.0
1002
}
1002
}
1002
{
1002
{
1070
     1
1002
{
1040
0.0
1040
1.0
1000

1040
0.0
1002
{
1002
}
1040
0.0
1002
{
1002
}
1040
0.0
1002
}
1002
}
1040
0.0
1002
{
1002
}
1010
1.0
1020
0.0
1030
0.0
1010
0.0
1020
1.0
1030
0.0
1010
0.0
1020
0.0
1030
1.0
1070
     0
1002
}
1002
{
1002
{
1040
1.0
1040
1.0
1002
{
1070
     1
1002
{
1040
1.0
1040
1.0
1000

1040
0.0
1002
{
1002
}
1040
0.0
1002
{
1002
}
1040
0.0
1002
}
1002
}
1002
}
1070
     0
1040
0.0
1002
{
1002
}
1002
}
1002
{
1002
}
1002
}
1002
{
1071
        3
1070
     3
1070
     0
1002
{
1070
     2
1070
     0
1070
     0
1040
0.0
1002
}
1070
     0
1070
     2
1002
{
1002
}
1002
}
1002
{
1040
8030.0
1040
190.300003
1040
0.305
1040
228.0
1040
545.0
1040
14.0
1040
17.4
1040
0.456
1002
}
1002
}
  0
INSERT
  5
1485
  8
ASHADE
 62
     1
  2
AVE_GLOBAL
 10
0.0
 20
0.0
 30
0.0
1001
AVE_MATERIAL
1002
{
1000
*GLOBAL*
1000
1
1000
Global finish.
1002
{
1002
}
1002
{
1070
    63
1002
{
1002
{
1010
-1.0
1020
-1.0
1030
-1.0
1002
}
1040
0.1
1000

1040
0.0
1002
{
1002
}
1040
0.0
1002
{
1002
}
1040
0.0
1002
}
1002
{
1002
{
1010
-1.0
1020
-1.0
1030
-1.0
1002
}
1040
0.7
1000

1040
0.0
1002
{
1002
}
1040
0.0
1002
{
1002
}
1040
0.0
1002
}
1002
{
1002
{
1010
-1.0
1020
-1.0
1030
-1.0
1002
}
1040
0.2
1000

1040
0.0
1002
{
1002
}
1040
0.0
1002
{
1002
}
1040
0.0
1002
}
1002
{
1070
     0
1002
{
1070
     1
1002
{
1040
1.0
1040
1.0
1000

1040
0.0
1002
{
1002
}
1040
0.0
1002
{
1002
}
1040
0.0
1002
}
1002
}
1040
1.0
1040
0.0
1040
0.0
1002
}
1002
{
1040
1.0
1040
1.0
1000

1040
0.0
1002
{
1002
}
1040
0.0
1002
{
1002
}
1040
0.0
1002
}
1002
{
1040
0.5
1040
1.0
1000

1040
0.0
1002
{
1002
}
1040
0.0
1002
{
1002
}
1040
0.0
1002
}
1002
{
1070
     0
1040
0.0
1002
{
1002
}
1040
1.0
1002
{
1002
}
1040
0.0
1002
}
1002
{
1040
0.0
1002
{
1002
{
1010
0.0
1020
0.0
1030
0.0
1002
}
1040
1.0
1000

1040
0.0
1002
{
1002
}
1040
0.0
1002
{
1002
}
1040
0.0
1002
}
1002
}
1002
{
1002
{
1070
     1
1002
{
1040
0.0
1040
1.0
1000

1040
0.0
1002
{
1002
}
1040
0.0
1002
{
1002
}
1040
0.0
1002
}
1002
}
1040
0.0
1002
{
1002
}
1010
1.0
1020
0.0
1030
0.0
1010
0.0
1020
1.0
1030
0.0
1010
0.0
1020
0.0
1030
1.0
1070
     0
1002
}
1002
{
1002
{
1040
1.0
1040
1.0
1002
{
1070
     1
1002
{
1040
1.0
1040
1.0
1000

1040
0.0
1002
{
1002
}
1040
0.0
1002
{
1002
}
1040
0.0
1002
}
1002
}
1002
}
1070
     0
1040
0.0
1002
{
1002
}
1002
}
1002
{
1002
}
1002
}
1002
{
1071
        3
1070
     3
1070
     0
1002
{
1070
     2
1070
     0
1070
     0
1040
0.0
1002
}
1070
     0
1070
     2
1002
{
1002
}
1002
}
1002
{
1040
8030.0
1040
190.300003
1040
0.305
1040
228.0
1040
545.0
1040
14.0
1040
17.4
1040
0.456
1002
}
1002
}
  0
INSERT
  5
1486
  8
ASHADE
 62
     1
  2
AVE_GLOBAL
 10
0.0
 20
0.0
 30
0.0
1001
AVE_MATERIAL
1002
{
1000
*GLOBAL*
1000
1
1000
Global finish.
1002
{
1002
}
1002
{
1070
    63
1002
{
1002
{
1010
-1.0
1020
-1.0
1030
-1.0
1002
}
1040
0.1
1000

1040
0.0
1002
{
1002
}
1040
0.0
1002
{
1002
}
1040
0.0
1002
}
1002
{
1002
{
1010
-1.0
1020
-1.0
1030
-1.0
1002
}
1040
0.7
1000

1040
0.0
1002
{
1002
}
1040
0.0
1002
{
1002
}
1040
0.0
1002
}
1002
{
1002
{
1010
-1.0
1020
-1.0
1030
-1.0
1002
}
1040
0.2
1000

1040
0.0
1002
{
1002
}
1040
0.0
1002
{
1002
}
1040
0.0
1002
}
1002
{
1070
     0
1002
{
1070
     1
1002
{
1040
1.0
1040
1.0
1000

1040
0.0
1002
{
1002
}
1040
0.0
1002
{
1002
}
1040
0.0
1002
}
1002
}
1040
1.0
1040
0.0
1040
0.0
1002
}
1002
{
1040
1.0
1040
1.0
1000

1040
0.0
1002
{
1002
}
1040
0.0
1002
{
1002
}
1040
0.0
1002
}
1002
{
1040
0.5
1040
1.0
1000

1040
0.0
1002
{
1002
}
1040
0.0
1002
{
1002
}
1040
0.0
1002
}
1002
{
1070
     0
1040
0.0
1002
{
1002
}
1040
1.0
1002
{
1002
}
1040
0.0
1002
}
1002
{
1040
0.0
1002
{
1002
{
1010
0.0
1020
0.0
1030
0.0
1002
}
1040
1.0
1000

1040
0.0
1002
{
1002
}
1040
0.0
1002
{
1002
}
1040
0.0
1002
}
1002
}
1002
{
1002
{
1070
     1
1002
{
1040
0.0
1040
1.0
1000

1040
0.0
1002
{
1002
}
1040
0.0
1002
{
1002
}
1040
0.0
1002
}
1002
}
1040
0.0
1002
{
1002
}
1010
1.0
1020
0.0
1030
0.0
1010
0.0
1020
1.0
1030
0.0
1010
0.0
1020
0.0
1030
1.0
1070
     0
1002
}
1002
{
1002
{
1040
1.0
1040
1.0
1002
{
1070
     1
1002
{
1040
1.0
1040
1.0
1000

1040
0.0
1002
{
1002
}
1040
0.0
1002
{
1002
}
1040
0.0
1002
}
1002
}
1002
}
1070
     0
1040
0.0
1002
{
1002
}
1002
}
1002
{
1002
}
1002
}
1002
{
1071
        3
1070
     3
1070
     0
1002
{
1070
     2
1070
     0
1070
     0
1040
0.0
1002
}
1070
     0
1070
     2
1002
{
1002
}
1002
}
1002
{
1040
8030.0
1040
190.300003
1040
0.305
1040
228.0
1040
545.0
1040
14.0
1040
17.4
1040
0.456
1002
}
1002
}
  0
INSERT
  5
1487
  8
ASHADE
  6
CONTINUOUS
 62
     1
  2
AVE_GLOBAL
 10
0.0
 20
0.0
 30
0.0
1001
AVE_MATERIAL
1002
{
1000
*GLOBAL*
1000
1
1000
Global finish.
1002
{
1002
}
1002
{
1070
    63
1002
{
1002
{
1010
-1.0
1020
-1.0
1030
-1.0
1002
}
1040
0.1
1000

1040
0.0
1002
{
1002
}
1040
0.0
1002
{
1002
}
1040
0.0
1002
}
1002
{
1002
{
1010
-1.0
1020
-1.0
1030
-1.0
1002
}
1040
0.7
1000

1040
0.0
1002
{
1002
}
1040
0.0
1002
{
1002
}
1040
0.0
1002
}
1002
{
1002
{
1010
-1.0
1020
-1.0
1030
-1.0
1002
}
1040
0.2
1000

1040
0.0
1002
{
1002
}
1040
0.0
1002
{
1002
}
1040
0.0
1002
}
1002
{
1070
     0
1002
{
1070
     1
1002
{
1040
1.0
1040
1.0
1000

1040
0.0
1002
{
1002
}
1040
0.0
1002
{
1002
}
1040
0.0
1002
}
1002
}
1040
1.0
1040
0.0
1040
0.0
1002
}
1002
{
1040
1.0
1040
1.0
1000

1040
0.0
1002
{
1002
}
1040
0.0
1002
{
1002
}
1040
0.0
1002
}
1002
{
1040
0.5
1040
1.0
1000

1040
0.0
1002
{
1002
}
1040
0.0
1002
{
1002
}
1040
0.0
1002
}
1002
{
1070
     0
1040
0.0
1002
{
1002
}
1040
1.0
1002
{
1002
}
1040
0.0
1002
}
1002
{
1040
0.0
1002
{
1002
{
1010
0.0
1020
0.0
1030
0.0
1002
}
1040
1.0
1000

1040
0.0
1002
{
1002
}
1040
0.0
1002
{
1002
}
1040
0.0
1002
}
1002
}
1002
{
1002
{
1070
     1
1002
{
1040
0.0
1040
1.0
1000

1040
0.0
1002
{
1002
}
1040
0.0
1002
{
1002
}
1040
0.0
1002
}
1002
}
1040
0.0
1002
{
1002
}
1010
1.0
1020
0.0
1030
0.0
1010
0.0
1020
1.0
1030
0.0
1010
0.0
1020
0.0
1030
1.0
1070
     0
1002
}
1002
{
1002
{
1040
1.0
1040
1.0
1002
{
1070
     1
1002
{
1040
1.0
1040
1.0
1000

1040
0.0
1002
{
1002
}
1040
0.0
1002
{
1002
}
1040
0.0
1002
}
1002
}
1002
}
1070
     0
1040
0.0
1002
{
1002
}
1002
}
1002
{
1002
}
1002
}
1002
{
1071
        3
1070
     3
1070
     0
1002
{
1070
     2
1070
     0
1070
     0
1040
0.0
1002
}
1070
     0
1070
     2
1002
{
1002
}
1002
}
1002
{
1040
8030.0
1040
190.300003
1040
0.305
1040
228.0
1040
545.0
1040
14.0
1040
17.4
1040
0.456
1002
}
1002
}
  0
INSERT
  5
1488
  8
ASHADE
 62
     1
  2
AVE_GLOBAL
 10
0.0
 20
0.0
 30
0.0
1001
AVE_MATERIAL
1002
{
1000
*GLOBAL*
1000
1
1000
Global finish.
1002
{
1002
}
1002
{
1070
    63
1002
{
1002
{
1010
-1.0
1020
-1.0
1030
-1.0
1002
}
1040
0.1
1000

1040
0.0
1002
{
1002
}
1040
0.0
1002
{
1002
}
1040
0.0
1002
}
1002
{
1002
{
1010
-1.0
1020
-1.0
1030
-1.0
1002
}
1040
0.7
1000

1040
0.0
1002
{
1002
}
1040
0.0
1002
{
1002
}
1040
0.0
1002
}
1002
{
1002
{
1010
-1.0
1020
-1.0
1030
-1.0
1002
}
1040
0.2
1000

1040
0.0
1002
{
1002
}
1040
0.0
1002
{
1002
}
1040
0.0
1002
}
1002
{
1070
     0
1002
{
1070
     1
1002
{
1040
1.0
1040
1.0
1000

1040
0.0
1002
{
1002
}
1040
0.0
1002
{
1002
}
1040
0.0
1002
}
1002
}
1040
1.0
1040
0.0
1040
0.0
1002
}
1002
{
1040
1.0
1040
1.0
1000

1040
0.0
1002
{
1002
}
1040
0.0
1002
{
1002
}
1040
0.0
1002
}
1002
{
1040
0.5
1040
1.0
1000

1040
0.0
1002
{
1002
}
1040
0.0
1002
{
1002
}
1040
0.0
1002
}
1002
{
1070
     0
1040
0.0
1002
{
1002
}
1040
1.0
1002
{
1002
}
1040
0.0
1002
}
1002
{
1040
0.0
1002
{
1002
{
1010
0.0
1020
0.0
1030
0.0
1002
}
1040
1.0
1000

1040
0.0
1002
{
1002
}
1040
0.0
1002
{
1002
}
1040
0.0
1002
}
1002
}
1002
{
1002
{
1070
     1
1002
{
1040
0.0
1040
1.0
1000

1040
0.0
1002
{
1002
}
1040
0.0
1002
{
1002
}
1040
0.0
1002
}
1002
}
1040
0.0
1002
{
1002
}
1010
1.0
1020
0.0
1030
0.0
1010
0.0
1020
1.0
1030
0.0
1010
0.0
1020
0.0
1030
1.0
1070
     0
1002
}
1002
{
1002
{
1040
1.0
1040
1.0
1002
{
1070
     1
1002
{
1040
1.0
1040
1.0
1000

1040
0.0
1002
{
1002
}
1040
0.0
1002
{
1002
}
1040
0.0
1002
}
1002
}
1002
}
1070
     0
1040
0.0
1002
{
1002
}
1002
}
1002
{
1002
}
1002
}
1002
{
1071
        3
1070
     3
1070
     0
1002
{
1070
     2
1070
     0
1070
     0
1040
0.0
1002
}
1070
     0
1070
     2
1002
{
1002
}
1002
}
1002
{
1040
8030.0
1040
190.300003
1040
0.305
1040
228.0
1040
545.0
1040
14.0
1040
17.4
1040
0.456
1002
}
1002
}
  0
INSERT
  5
1489
  8
ASHADE
 62
     1
  2
AVE_GLOBAL
 10
0.0
 20
0.0
 30
0.0
1001
AVE_MATERIAL
1002
{
1000
*GLOBAL*
1000
1
1000
Global finish.
1002
{
1002
}
1002
{
1070
    63
1002
{
1002
{
1010
-1.0
1020
-1.0
1030
-1.0
1002
}
1040
0.1
1000

1040
0.0
1002
{
1002
}
1040
0.0
1002
{
1002
}
1040
0.0
1002
}
1002
{
1002
{
1010
-1.0
1020
-1.0
1030
-1.0
1002
}
1040
0.7
1000

1040
0.0
1002
{
1002
}
1040
0.0
1002
{
1002
}
1040
0.0
1002
}
1002
{
1002
{
1010
-1.0
1020
-1.0
1030
-1.0
1002
}
1040
0.2
1000

1040
0.0
1002
{
1002
}
1040
0.0
1002
{
1002
}
1040
0.0
1002
}
1002
{
1070
     0
1002
{
1070
     1
1002
{
1040
1.0
1040
1.0
1000

1040
0.0
1002
{
1002
}
1040
0.0
1002
{
1002
}
1040
0.0
1002
}
1002
}
1040
1.0
1040
0.0
1040
0.0
1002
}
1002
{
1040
1.0
1040
1.0
1000

1040
0.0
1002
{
1002
}
1040
0.0
1002
{
1002
}
1040
0.0
1002
}
1002
{
1040
0.5
1040
1.0
1000

1040
0.0
1002
{
1002
}
1040
0.0
1002
{
1002
}
1040
0.0
1002
}
1002
{
1070
     0
1040
0.0
1002
{
1002
}
1040
1.0
1002
{
1002
}
1040
0.0
1002
}
1002
{
1040
0.0
1002
{
1002
{
1010
0.0
1020
0.0
1030
0.0
1002
}
1040
1.0
1000

1040
0.0
1002
{
1002
}
1040
0.0
1002
{
1002
}
1040
0.0
1002
}
1002
}
1002
{
1002
{
1070
     1
1002
{
1040
0.0
1040
1.0
1000

1040
0.0
1002
{
1002
}
1040
0.0
1002
{
1002
}
1040
0.0
1002
}
1002
}
1040
0.0
1002
{
1002
}
1010
1.0
1020
0.0
1030
0.0
1010
0.0
1020
1.0
1030
0.0
1010
0.0
1020
0.0
1030
1.0
1070
     0
1002
}
1002
{
1002
{
1040
1.0
1040
1.0
1002
{
1070
     1
1002
{
1040
1.0
1040
1.0
1000

1040
0.0
1002
{
1002
}
1040
0.0
1002
{
1002
}
1040
0.0
1002
}
1002
}
1002
}
1070
     0
1040
0.0
1002
{
1002
}
1002
}
1002
{
1002
}
1002
}
1002
{
1071
        3
1070
     3
1070
     0
1002
{
1070
     2
1070
     0
1070
     0
1040
0.0
1002
}
1070
     0
1070
     2
1002
{
1002
}
1002
}
1002
{
1040
8030.0
1040
190.300003
1040
0.305
1040
228.0
1040
545.0
1040
14.0
1040
17.4
1040
0.456
1002
}
1002
}
  0
INSERT
  5
148A
  8
ASHADE
 62
     1
  2
AVE_GLOBAL
 10
0.0
 20
0.0
 30
0.0
1001
AVE_MATERIAL
1002
{
1000
*GLOBAL*
1000
1
1000
Global finish.
1002
{
1002
}
1002
{
1070
    63
1002
{
1002
{
1010
-1.0
1020
-1.0
1030
-1.0
1002
}
1040
0.1
1000

1040
0.0
1002
{
1002
}
1040
0.0
1002
{
1002
}
1040
0.0
1002
}
1002
{
1002
{
1010
-1.0
1020
-1.0
1030
-1.0
1002
}
1040
0.7
1000

1040
0.0
1002
{
1002
}
1040
0.0
1002
{
1002
}
1040
0.0
1002
}
1002
{
1002
{
1010
-1.0
1020
-1.0
1030
-1.0
1002
}
1040
0.2
1000

1040
0.0
1002
{
1002
}
1040
0.0
1002
{
1002
}
1040
0.0
1002
}
1002
{
1070
     0
1002
{
1070
     1
1002
{
1040
1.0
1040
1.0
1000

1040
0.0
1002
{
1002
}
1040
0.0
1002
{
1002
}
1040
0.0
1002
}
1002
}
1040
1.0
1040
0.0
1040
0.0
1002
}
1002
{
1040
1.0
1040
1.0
1000

1040
0.0
1002
{
1002
}
1040
0.0
1002
{
1002
}
1040
0.0
1002
}
1002
{
1040
0.5
1040
1.0
1000

1040
0.0
1002
{
1002
}
1040
0.0
1002
{
1002
}
1040
0.0
1002
}
1002
{
1070
     0
1040
0.0
1002
{
1002
}
1040
1.0
1002
{
1002
}
1040
0.0
1002
}
1002
{
1040
0.0
1002
{
1002
{
1010
0.0
1020
0.0
1030
0.0
1002
}
1040
1.0
1000

1040
0.0
1002
{
1002
}
1040
0.0
1002
{
1002
}
1040
0.0
1002
}
1002
}
1002
{
1002
{
1070
     1
1002
{
1040
0.0
1040
1.0
1000

1040
0.0
1002
{
1002
}
1040
0.0
1002
{
1002
}
1040
0.0
1002
}
1002
}
1040
0.0
1002
{
1002
}
1010
1.0
1020
0.0
1030
0.0
1010
0.0
1020
1.0
1030
0.0
1010
0.0
1020
0.0
1030
1.0
1070
     0
1002
}
1002
{
1002
{
1040
1.0
1040
1.0
1002
{
1070
     1
1002
{
1040
1.0
1040
1.0
1000

1040
0.0
1002
{
1002
}
1040
0.0
1002
{
1002
}
1040
0.0
1002
}
1002
}
1002
}
1070
     0
1040
0.0
1002
{
1002
}
1002
}
1002
{
1002
}
1002
}
1002
{
1071
        3
1070
     3
1070
     0
1002
{
1070
     2
1070
     0
1070
     0
1040
0.0
1002
}
1070
     0
1070
     2
1002
{
1002
}
1002
}
1002
{
1040
8030.0
1040
190.300003
1040
0.305
1040
228.0
1040
545.0
1040
14.0
1040
17.4
1040
0.456
1002
}
1002
}
  0
INSERT
  5
148B
  8
ASHADE
 62
     1
  2
AVE_GLOBAL
 10
0.0
 20
0.0
 30
0.0
1001
AVE_MATERIAL
1002
{
1000
*GLOBAL*
1000
1
1000
Global finish.
1002
{
1002
}
1002
{
1070
    63
1002
{
1002
{
1010
-1.0
1020
-1.0
1030
-1.0
1002
}
1040
0.1
1000

1040
0.0
1002
{
1002
}
1040
0.0
1002
{
1002
}
1040
0.0
1002
}
1002
{
1002
{
1010
-1.0
1020
-1.0
1030
-1.0
1002
}
1040
0.7
1000

1040
0.0
1002
{
1002
}
1040
0.0
1002
{
1002
}
1040
0.0
1002
}
1002
{
1002
{
1010
-1.0
1020
-1.0
1030
-1.0
1002
}
1040
0.2
1000

1040
0.0
1002
{
1002
}
1040
0.0
1002
{
1002
}
1040
0.0
1002
}
1002
{
1070
     0
1002
{
1070
     1
1002
{
1040
1.0
1040
1.0
1000

1040
0.0
1002
{
1002
}
1040
0.0
1002
{
1002
}
1040
0.0
1002
}
1002
}
1040
1.0
1040
0.0
1040
0.0
1002
}
1002
{
1040
1.0
1040
1.0
1000

1040
0.0
1002
{
1002
}
1040
0.0
1002
{
1002
}
1040
0.0
1002
}
1002
{
1040
0.5
1040
1.0
1000

1040
0.0
1002
{
1002
}
1040
0.0
1002
{
1002
}
1040
0.0
1002
}
1002
{
1070
     0
1040
0.0
1002
{
1002
}
1040
1.0
1002
{
1002
}
1040
0.0
1002
}
1002
{
1040
0.0
1002
{
1002
{
1010
0.0
1020
0.0
1030
0.0
1002
}
1040
1.0
1000

1040
0.0
1002
{
1002
}
1040
0.0
1002
{
1002
}
1040
0.0
1002
}
1002
}
1002
{
1002
{
1070
     1
1002
{
1040
0.0
1040
1.0
1000

1040
0.0
1002
{
1002
}
1040
0.0
1002
{
1002
}
1040
0.0
1002
}
1002
}
1040
0.0
1002
{
1002
}
1010
1.0
1020
0.0
1030
0.0
1010
0.0
1020
1.0
1030
0.0
1010
0.0
1020
0.0
1030
1.0
1070
     0
1002
}
1002
{
1002
{
1040
1.0
1040
1.0
1002
{
1070
     1
1002
{
1040
1.0
1040
1.0
1000

1040
0.0
1002
{
1002
}
1040
0.0
1002
{
1002
}
1040
0.0
1002
}
1002
}
1002
}
1070
     0
1040
0.0
1002
{
1002
}
1002
}
1002
{
1002
}
1002
}
1002
{
1071
        3
1070
     3
1070
     0
1002
{
1070
     2
1070
     0
1070
     0
1040
0.0
1002
}
1070
     0
1070
     2
1002
{
1002
}
1002
}
1002
{
1040
8030.0
1040
190.300003
1040
0.305
1040
228.0
1040
545.0
1040
14.0
1040
17.4
1040
0.456
1002
}
1002
}
  0
INSERT
  5
148C
  8
ASHADE
 62
     1
  2
AVE_GLOBAL
 10
0.0
 20
0.0
 30
0.0
1001
AVE_MATERIAL
1002
{
1000
*GLOBAL*
1000
1
1000
Global finish.
1002
{
1002
}
1002
{
1070
    63
1002
{
1002
{
1010
-1.0
1020
-1.0
1030
-1.0
1002
}
1040
0.1
1000

1040
0.0
1002
{
1002
}
1040
0.0
1002
{
1002
}
1040
0.0
1002
}
1002
{
1002
{
1010
-1.0
1020
-1.0
1030
-1.0
1002
}
1040
0.7
1000

1040
0.0
1002
{
1002
}
1040
0.0
1002
{
1002
}
1040
0.0
1002
}
1002
{
1002
{
1010
-1.0
1020
-1.0
1030
-1.0
1002
}
1040
0.2
1000

1040
0.0
1002
{
1002
}
1040
0.0
1002
{
1002
}
1040
0.0
1002
}
1002
{
1070
     0
1002
{
1070
     1
1002
{
1040
1.0
1040
1.0
1000

1040
0.0
1002
{
1002
}
1040
0.0
1002
{
1002
}
1040
0.0
1002
}
1002
}
1040
1.0
1040
0.0
1040
0.0
1002
}
1002
{
1040
1.0
1040
1.0
1000

1040
0.0
1002
{
1002
}
1040
0.0
1002
{
1002
}
1040
0.0
1002
}
1002
{
1040
0.5
1040
1.0
1000

1040
0.0
1002
{
1002
}
1040
0.0
1002
{
1002
}
1040
0.0
1002
}
1002
{
1070
     0
1040
0.0
1002
{
1002
}
1040
1.0
1002
{
1002
}
1040
0.0
1002
}
1002
{
1040
0.0
1002
{
1002
{
1010
0.0
1020
0.0
1030
0.0
1002
}
1040
1.0
1000

1040
0.0
1002
{
1002
}
1040
0.0
1002
{
1002
}
1040
0.0
1002
}
1002
}
1002
{
1002
{
1070
     1
1002
{
1040
0.0
1040
1.0
1000

1040
0.0
1002
{
1002
}
1040
0.0
1002
{
1002
}
1040
0.0
1002
}
1002
}
1040
0.0
1002
{
1002
}
1010
1.0
1020
0.0
1030
0.0
1010
0.0
1020
1.0
1030
0.0
1010
0.0
1020
0.0
1030
1.0
1070
     0
1002
}
1002
{
1002
{
1040
1.0
1040
1.0
1002
{
1070
     1
1002
{
1040
1.0
1040
1.0
1000

1040
0.0
1002
{
1002
}
1040
0.0
1002
{
1002
}
1040
0.0
1002
}
1002
}
1002
}
1070
     0
1040
0.0
1002
{
1002
}
1002
}
1002
{
1002
}
1002
}
1002
{
1071
        3
1070
     3
1070
     0
1002
{
1070
     2
1070
     0
1070
     0
1040
0.0
1002
}
1070
     0
1070
     2
1002
{
1002
}
1002
}
1002
{
1040
8030.0
1040
190.300003
1040
0.305
1040
228.0
1040
545.0
1040
14.0
1040
17.4
1040
0.456
1002
}
1002
}
  0
INSERT
  5
148D
  8
ASHADE
 62
     1
  2
AVE_GLOBAL
 10
0.0
 20
0.0
 30
0.0
1001
AVE_MATERIAL
1002
{
1000
*GLOBAL*
1000
1
1000
Global finish.
1002
{
1002
}
1002
{
1070
    63
1002
{
1002
{
1010
-1.0
1020
-1.0
1030
-1.0
1002
}
1040
0.1
1000

1040
0.0
1002
{
1002
}
1040
0.0
1002
{
1002
}
1040
0.0
1002
}
1002
{
1002
{
1010
-1.0
1020
-1.0
1030
-1.0
1002
}
1040
0.7
1000

1040
0.0
1002
{
1002
}
1040
0.0
1002
{
1002
}
1040
0.0
1002
}
1002
{
1002
{
1010
-1.0
1020
-1.0
1030
-1.0
1002
}
1040
0.2
1000

1040
0.0
1002
{
1002
}
1040
0.0
1002
{
1002
}
1040
0.0
1002
}
1002
{
1070
     0
1002
{
1070
     1
1002
{
1040
1.0
1040
1.0
1000

1040
0.0
1002
{
1002
}
1040
0.0
1002
{
1002
}
1040
0.0
1002
}
1002
}
1040
1.0
1040
0.0
1040
0.0
1002
}
1002
{
1040
1.0
1040
1.0
1000

1040
0.0
1002
{
1002
}
1040
0.0
1002
{
1002
}
1040
0.0
1002
}
1002
{
1040
0.5
1040
1.0
1000

1040
0.0
1002
{
1002
}
1040
0.0
1002
{
1002
}
1040
0.0
1002
}
1002
{
1070
     0
1040
0.0
1002
{
1002
}
1040
1.0
1002
{
1002
}
1040
0.0
1002
}
1002
{
1040
0.0
1002
{
1002
{
1010
0.0
1020
0.0
1030
0.0
1002
}
1040
1.0
1000

1040
0.0
1002
{
1002
}
1040
0.0
1002
{
1002
}
1040
0.0
1002
}
1002
}
1002
{
1002
{
1070
     1
1002
{
1040
0.0
1040
1.0
1000

1040
0.0
1002
{
1002
}
1040
0.0
1002
{
1002
}
1040
0.0
1002
}
1002
}
1040
0.0
1002
{
1002
}
1010
1.0
1020
0.0
1030
0.0
1010
0.0
1020
1.0
1030
0.0
1010
0.0
1020
0.0
1030
1.0
1070
     0
1002
}
1002
{
1002
{
1040
1.0
1040
1.0
1002
{
1070
     1
1002
{
1040
1.0
1040
1.0
1000

1040
0.0
1002
{
1002
}
1040
0.0
1002
{
1002
}
1040
0.0
1002
}
1002
}
1002
}
1070
     0
1040
0.0
1002
{
1002
}
1002
}
1002
{
1002
}
1002
}
1002
{
1071
        3
1070
     3
1070
     0
1002
{
1070
     2
1070
     0
1070
     0
1040
0.0
1002
}
1070
     0
1070
     2
1002
{
1002
}
1002
}
1002
{
1040
8030.0
1040
190.300003
1040
0.305
1040
228.0
1040
545.0
1040
14.0
1040
17.4
1040
0.456
1002
}
1002
}
  0
INSERT
  5
148E
  8
ASHADE
 62
     1
  2
AVE_GLOBAL
 10
0.0
 20
0.0
 30
0.0
1001
AVE_MATERIAL
1002
{
1000
*GLOBAL*
1000
1
1000
Global finish.
1002
{
1002
}
1002
{
1070
    63
1002
{
1002
{
1010
-1.0
1020
-1.0
1030
-1.0
1002
}
1040
0.1
1000

1040
0.0
1002
{
1002
}
1040
0.0
1002
{
1002
}
1040
0.0
1002
}
1002
{
1002
{
1010
-1.0
1020
-1.0
1030
-1.0
1002
}
1040
0.7
1000

1040
0.0
1002
{
1002
}
1040
0.0
1002
{
1002
}
1040
0.0
1002
}
1002
{
1002
{
1010
-1.0
1020
-1.0
1030
-1.0
1002
}
1040
0.2
1000

1040
0.0
1002
{
1002
}
1040
0.0
1002
{
1002
}
1040
0.0
1002
}
1002
{
1070
     0
1002
{
1070
     1
1002
{
1040
1.0
1040
1.0
1000

1040
0.0
1002
{
1002
}
1040
0.0
1002
{
1002
}
1040
0.0
1002
}
1002
}
1040
1.0
1040
0.0
1040
0.0
1002
}
1002
{
1040
1.0
1040
1.0
1000

1040
0.0
1002
{
1002
}
1040
0.0
1002
{
1002
}
1040
0.0
1002
}
1002
{
1040
0.5
1040
1.0
1000

1040
0.0
1002
{
1002
}
1040
0.0
1002
{
1002
}
1040
0.0
1002
}
1002
{
1070
     0
1040
0.0
1002
{
1002
}
1040
1.0
1002
{
1002
}
1040
0.0
1002
}
1002
{
1040
0.0
1002
{
1002
{
1010
0.0
1020
0.0
1030
0.0
1002
}
1040
1.0
1000

1040
0.0
1002
{
1002
}
1040
0.0
1002
{
1002
}
1040
0.0
1002
}
1002
}
1002
{
1002
{
1070
     1
1002
{
1040
0.0
1040
1.0
1000

1040
0.0
1002
{
1002
}
1040
0.0
1002
{
1002
}
1040
0.0
1002
}
1002
}
1040
0.0
1002
{
1002
}
1010
1.0
1020
0.0
1030
0.0
1010
0.0
1020
1.0
1030
0.0
1010
0.0
1020
0.0
1030
1.0
1070
     0
1002
}
1002
{
1002
{
1040
1.0
1040
1.0
1002
{
1070
     1
1002
{
1040
1.0
1040
1.0
1000

1040
0.0
1002
{
1002
}
1040
0.0
1002
{
1002
}
1040
0.0
1002
}
1002
}
1002
}
1070
     0
1040
0.0
1002
{
1002
}
1002
}
1002
{
1002
}
1002
}
1002
{
1071
        3
1070
     3
1070
     0
1002
{
1070
     2
1070
     0
1070
     0
1040
0.0
1002
}
1070
     0
1070
     2
1002
{
1002
}
1002
}
1002
{
1040
8030.0
1040
190.300003
1040
0.305
1040
228.0
1040
545.0
1040
14.0
1040
17.4
1040
0.456
1002
}
1002
}
  0
INSERT
  5
148F
  8
ASHADE
 62
     1
  2
AVE_GLOBAL
 10
0.0
 20
0.0
 30
0.0
1001
AVE_MATERIAL
1002
{
1000
*GLOBAL*
1000
1
1000
Global finish.
1002
{
1002
}
1002
{
1070
    63
1002
{
1002
{
1010
-1.0
1020
-1.0
1030
-1.0
1002
}
1040
0.1
1000

1040
0.0
1002
{
1002
}
1040
0.0
1002
{
1002
}
1040
0.0
1002
}
1002
{
1002
{
1010
-1.0
1020
-1.0
1030
-1.0
1002
}
1040
0.7
1000

1040
0.0
1002
{
1002
}
1040
0.0
1002
{
1002
}
1040
0.0
1002
}
1002
{
1002
{
1010
-1.0
1020
-1.0
1030
-1.0
1002
}
1040
0.2
1000

1040
0.0
1002
{
1002
}
1040
0.0
1002
{
1002
}
1040
0.0
1002
}
1002
{
1070
     0
1002
{
1070
     1
1002
{
1040
1.0
1040
1.0
1000

1040
0.0
1002
{
1002
}
1040
0.0
1002
{
1002
}
1040
0.0
1002
}
1002
}
1040
1.0
1040
0.0
1040
0.0
1002
}
1002
{
1040
1.0
1040
1.0
1000

1040
0.0
1002
{
1002
}
1040
0.0
1002
{
1002
}
1040
0.0
1002
}
1002
{
1040
0.5
1040
1.0
1000

1040
0.0
1002
{
1002
}
1040
0.0
1002
{
1002
}
1040
0.0
1002
}
1002
{
1070
     0
1040
0.0
1002
{
1002
}
1040
1.0
1002
{
1002
}
1040
0.0
1002
}
1002
{
1040
0.0
1002
{
1002
{
1010
0.0
1020
0.0
1030
0.0
1002
}
1040
1.0
1000

1040
0.0
1002
{
1002
}
1040
0.0
1002
{
1002
}
1040
0.0
1002
}
1002
}
1002
{
1002
{
1070
     1
1002
{
1040
0.0
1040
1.0
1000

1040
0.0
1002
{
1002
}
1040
0.0
1002
{
1002
}
1040
0.0
1002
}
1002
}
1040
0.0
1002
{
1002
}
1010
1.0
1020
0.0
1030
0.0
1010
0.0
1020
1.0
1030
0.0
1010
0.0
1020
0.0
1030
1.0
1070
     0
1002
}
1002
{
1002
{
1040
1.0
1040
1.0
1002
{
1070
     1
1002
{
1040
1.0
1040
1.0
1000

1040
0.0
1002
{
1002
}
1040
0.0
1002
{
1002
}
1040
0.0
1002
}
1002
}
1002
}
1070
     0
1040
0.0
1002
{
1002
}
1002
}
1002
{
1002
}
1002
}
1002
{
1071
        3
1070
     3
1070
     0
1002
{
1070
     2
1070
     0
1070
     0
1040
0.0
1002
}
1070
     0
1070
     2
1002
{
1002
}
1002
}
1002
{
1040
8030.0
1040
190.300003
1040
0.305
1040
228.0
1040
545.0
1040
14.0
1040
17.4
1040
0.456
1002
}
1002
}
  0
INSERT
  5
1490
  8
ASHADE
 62
     1
  2
AVE_GLOBAL
 10
0.0
 20
0.0
 30
0.0
1001
AVE_MATERIAL
1002
{
1000
*GLOBAL*
1000
1
1000
Global finish.
1002
{
1002
}
1002
{
1070
    63
1002
{
1002
{
1010
-1.0
1020
-1.0
1030
-1.0
1002
}
1040
0.1
1000

1040
0.0
1002
{
1002
}
1040
0.0
1002
{
1002
}
1040
0.0
1002
}
1002
{
1002
{
1010
-1.0
1020
-1.0
1030
-1.0
1002
}
1040
0.7
1000

1040
0.0
1002
{
1002
}
1040
0.0
1002
{
1002
}
1040
0.0
1002
}
1002
{
1002
{
1010
-1.0
1020
-1.0
1030
-1.0
1002
}
1040
0.2
1000

1040
0.0
1002
{
1002
}
1040
0.0
1002
{
1002
}
1040
0.0
1002
}
1002
{
1070
     0
1002
{
1070
     1
1002
{
1040
1.0
1040
1.0
1000

1040
0.0
1002
{
1002
}
1040
0.0
1002
{
1002
}
1040
0.0
1002
}
1002
}
1040
1.0
1040
0.0
1040
0.0
1002
}
1002
{
1040
1.0
1040
1.0
1000

1040
0.0
1002
{
1002
}
1040
0.0
1002
{
1002
}
1040
0.0
1002
}
1002
{
1040
0.5
1040
1.0
1000

1040
0.0
1002
{
1002
}
1040
0.0
1002
{
1002
}
1040
0.0
1002
}
1002
{
1070
     0
1040
0.0
1002
{
1002
}
1040
1.0
1002
{
1002
}
1040
0.0
1002
}
1002
{
1040
0.0
1002
{
1002
{
1010
0.0
1020
0.0
1030
0.0
1002
}
1040
1.0
1000

1040
0.0
1002
{
1002
}
1040
0.0
1002
{
1002
}
1040
0.0
1002
}
1002
}
1002
{
1002
{
1070
     1
1002
{
1040
0.0
1040
1.0
1000

1040
0.0
1002
{
1002
}
1040
0.0
1002
{
1002
}
1040
0.0
1002
}
1002
}
1040
0.0
1002
{
1002
}
1010
1.0
1020
0.0
1030
0.0
1010
0.0
1020
1.0
1030
0.0
1010
0.0
1020
0.0
1030
1.0
1070
     0
1002
}
1002
{
1002
{
1040
1.0
1040
1.0
1002
{
1070
     1
1002
{
1040
1.0
1040
1.0
1000

1040
0.0
1002
{
1002
}
1040
0.0
1002
{
1002
}
1040
0.0
1002
}
1002
}
1002
}
1070
     0
1040
0.0
1002
{
1002
}
1002
}
1002
{
1002
}
1002
}
1002
{
1071
        3
1070
     3
1070
     0
1002
{
1070
     2
1070
     0
1070
     0
1040
0.0
1002
}
1070
     0
1070
     2
1002
{
1002
}
1002
}
1002
{
1040
8030.0
1040
190.300003
1040
0.305
1040
228.0
1040
545.0
1040
14.0
1040
17.4
1040
0.456
1002
}
1002
}
  0
INSERT
  5
1491
  8
ASHADE
 62
     1
  2
AVE_GLOBAL
 10
0.0
 20
0.0
 30
0.0
1001
AVE_MATERIAL
1002
{
1000
*GLOBAL*
1000
1
1000
Global finish.
1002
{
1002
}
1002
{
1070
    63
1002
{
1002
{
1010
-1.0
1020
-1.0
1030
-1.0
1002
}
1040
0.1
1000

1040
0.0
1002
{
1002
}
1040
0.0
1002
{
1002
}
1040
0.0
1002
}
1002
{
1002
{
1010
-1.0
1020
-1.0
1030
-1.0
1002
}
1040
0.7
1000

1040
0.0
1002
{
1002
}
1040
0.0
1002
{
1002
}
1040
0.0
1002
}
1002
{
1002
{
1010
-1.0
1020
-1.0
1030
-1.0
1002
}
1040
0.2
1000

1040
0.0
1002
{
1002
}
1040
0.0
1002
{
1002
}
1040
0.0
1002
}
1002
{
1070
     0
1002
{
1070
     1
1002
{
1040
1.0
1040
1.0
1000

1040
0.0
1002
{
1002
}
1040
0.0
1002
{
1002
}
1040
0.0
1002
}
1002
}
1040
1.0
1040
0.0
1040
0.0
1002
}
1002
{
1040
1.0
1040
1.0
1000

1040
0.0
1002
{
1002
}
1040
0.0
1002
{
1002
}
1040
0.0
1002
}
1002
{
1040
0.5
1040
1.0
1000

1040
0.0
1002
{
1002
}
1040
0.0
1002
{
1002
}
1040
0.0
1002
}
1002
{
1070
     0
1040
0.0
1002
{
1002
}
1040
1.0
1002
{
1002
}
1040
0.0
1002
}
1002
{
1040
0.0
1002
{
1002
{
1010
0.0
1020
0.0
1030
0.0
1002
}
1040
1.0
1000

1040
0.0
1002
{
1002
}
1040
0.0
1002
{
1002
}
1040
0.0
1002
}
1002
}
1002
{
1002
{
1070
     1
1002
{
1040
0.0
1040
1.0
1000

1040
0.0
1002
{
1002
}
1040
0.0
1002
{
1002
}
1040
0.0
1002
}
1002
}
1040
0.0
1002
{
1002
}
1010
1.0
1020
0.0
1030
0.0
1010
0.0
1020
1.0
1030
0.0
1010
0.0
1020
0.0
1030
1.0
1070
     0
1002
}
1002
{
1002
{
1040
1.0
1040
1.0
1002
{
1070
     1
1002
{
1040
1.0
1040
1.0
1000

1040
0.0
1002
{
1002
}
1040
0.0
1002
{
1002
}
1040
0.0
1002
}
1002
}
1002
}
1070
     0
1040
0.0
1002
{
1002
}
1002
}
1002
{
1002
}
1002
}
1002
{
1071
        3
1070
     3
1070
     0
1002
{
1070
     2
1070
     0
1070
     0
1040
0.0
1002
}
1070
     0
1070
     2
1002
{
1002
}
1002
}
1002
{
1040
8030.0
1040
190.300003
1040
0.305
1040
228.0
1040
545.0
1040
14.0
1040
17.4
1040
0.456
1002
}
1002
}
  0
POLYLINE
  5
1CE2
  8
0
 66
     1
 10
0.0
 20
0.0
 30
0.0
 70
    16
 71
     5
 72
    13
  0
VERTEX
  5
1CE3
  8
0
 10
40.0
 20
1.0
 30
88.0
 70
    64
  0
VERTEX
  5
1CE4
  8
0
 10
29.9
 20
2.4
 30
88.0
 70
    64
  0
VERTEX
  5
1CE5
  8
0
 10
20.6
 20
6.2
 30
88.0
 70
    64
  0
VERTEX
  5
1CE6
  8
0
 10
12.5
 20
12.5
 30
88.0
 70
    64
  0
VERTEX
  5
1CE7
  8
0
 10
6.2
 20
20.6
 30
88.0
 70
    64
  0
VERTEX
  5
1CE8
  8
0
 10
2.4
 20
29.9
 30
88.0
 70
    64
  0
VERTEX
  5
1CE9
  8
0
 10
1.0
 20
40.0
 30
88.0
 70
    64
  0
VERTEX
  5
1CEA
  8
0
 10
2.4
 20
50.1
 30
88.0
 70
    64
  0
VERTEX
  5
1CEB
  8
0
 10
6.2
 20
59.4
 30
88.0
 70
    64
  0
VERTEX
  5
1CEC
  8
0
 10
12.5
 20
67.5
 30
88.0
 70
    64
  0
VERTEX
  5
1CED
  8
0
 10
20.6
 20
73.8
 30
88.0
 70
    64
  0
VERTEX
  5
1CEE
  8
0
 10
31.0
 20
77.7
 30
82.0
 70
    64
  0
VERTEX
  5
1CEF
  8
0
 10
40.0
 20
77.7
 30
82.0
 70
    64
  0
VERTEX
  5
1CF0
  8
0
 10
40.0
 20
3.0
 30
88.0
 70
    64
  0
VERTEX
  5
1CF1
  8
0
 10
30.4
 20
4.3
 30
88.0
 70
    64
  0
VERTEX
  5
1CF2
  8
0
 10
21.6
 20
8.0
 30
88.0
 70
    64
  0
VERTEX
  5
1CF3
  8
0
 10
13.9
 20
13.9
 30
88.0
 70
    64
  0
VERTEX
  5
1CF4
  8
0
 10
8.0
 20
21.6
 30
88.0
 70
    64
  0
VERTEX
  5
1CF5
  8
0
 10
4.3
 20
30.4
 30
88.0
 70
    64
  0
VERTEX
  5
1CF6
  8
0
 10
3.0
 20
40.0
 30
88.0
 70
    64
  0
VERTEX
  5
1CF7
  8
0
 10
4.3
 20
49.6
 30
88.0
 70
    64
  0
VERTEX
  5
1CF8
  8
0
 10
8.0
 20
58.4
 30
88.0
 70
    64
  0
VERTEX
  5
1CF9
  8
0
 10
13.9
 20
66.1
 30
88.0
 70
    64
  0
VERTEX
  5
1CFA
  8
0
 10
21.6
 20
72.0
 30
88.0
 70
    64
  0
VERTEX
  5
1CFB
  8
0
 10
31.0
 20
75.8
 30
82.0
 70
    64
  0
VERTEX
  5
1CFC
  8
0
 10
40.0
 20
75.8
 30
82.0
 70
    64
  0
VERTEX
  5
1CFD
  8
0
 10
40.0
 20
3.0
 30
100.0
 70
    64
  0
VERTEX
  5
1CFE
  8
0
 10
30.4
 20
4.3
 30
100.0
 70
    64
  0
VERTEX
  5
1CFF
  8
0
 10
21.6
 20
8.0
 30
100.0
 70
    64
  0
VERTEX
  5
1D00
  8
0
 10
13.9
 20
13.9
 30
100.0
 70
    64
  0
VERTEX
  5
1D01
  8
0
 10
8.0
 20
21.6
 30
100.0
 70
    64
  0
VERTEX
  5
1D02
  8
0
 10
4.3
 20
30.4
 30
100.0
 70
    64
  0
VERTEX
  5
1D03
  8
0
 10
3.0
 20
40.0
 30
100.0
 70
    64
  0
VERTEX
  5
1D04
  8
0
 10
4.3
 20
49.6
 30
100.0
 70
    64
  0
VERTEX
  5
1D05
  8
0
 10
8.0
 20
58.4
 30
100.0
 70
    64
  0
VERTEX
  5
1D06
  8
0
 10
13.9
 20
66.1
 30
100.0
 70
    64
  0
VERTEX
  5
1D07
  8
0
 10
21.6
 20
72.0
 30
100.0
 70
    64
  0
VERTEX
  5
1D08
  8
0
 10
31.0
 20
75.8
 30
100.0
 70
    64
  0
VERTEX
  5
1D09
  8
0
 10
40.0
 20
75.8
 30
100.0
 70
    64
  0
VERTEX
  5
1D0A
  8
0
 10
40.0
 20
1.0
 30
100.0
 70
    64
  0
VERTEX
  5
1D0B
  8
0
 10
29.9
 20
2.4
 30
100.0
 70
    64
  0
VERTEX
  5
1D0C
  8
0
 10
20.6
 20
6.2
 30
100.0
 70
    64
  0
VERTEX
  5
1D0D
  8
0
 10
12.5
 20
12.5
 30
100.0
 70
    64
  0
VERTEX
  5
1D0E
  8
0
 10
6.2
 20
20.6
 30
100.0
 70
    64
  0
VERTEX
  5
1D0F
  8
0
 10
2.4
 20
29.9
 30
100.0
 70
    64
  0
VERTEX
  5
1D10
  8
0
 10
1.0
 20
40.0
 30
100.0
 70
    64
  0
VERTEX
  5
1D11
  8
0
 10
2.4
 20
50.1
 30
100.0
 70
    64
  0
VERTEX
  5
1D12
  8
0
 10
6.2
 20
59.4
 30
100.0
 70
    64
  0
VERTEX
  5
1D13
  8
0
 10
12.5
 20
67.5
 30
100.0
 70
    64
  0
VERTEX
  5
1D14
  8
0
 10
20.6
 20
73.8
 30
100.0
 70
    64
  0
VERTEX
  5
1D15
  8
0
 10
31.0
 20
77.7
 30
100.0
 70
    64
  0
VERTEX
  5
1D16
  8
0
 10
40.0
 20
77.7
 30
100.0
 70
    64
  0
VERTEX
  5
1D17
  8
0
 10
40.0
 20
1.0
 30
88.0
 70
    64
  0
VERTEX
  5
1D18
  8
0
 10
29.9
 20
2.4
 30
88.0
 70
    64
  0
VERTEX
  5
1D19
  8
0
 10
20.6
 20
6.2
 30
88.0
 70
    64
  0
VERTEX
  5
1D1A
  8
0
 10
12.5
 20
12.5
 30
88.0
 70
    64
  0
VERTEX
  5
1D1B
  8
0
 10
6.2
 20
20.6
 30
88.0
 70
    64
  0
VERTEX
  5
1D1C
  8
0
 10
2.4
 20
29.9
 30
88.0
 70
    64
  0
VERTEX
  5
1D1D
  8
0
 10
1.0
 20
40.0
 30
88.0
 70
    64
  0
VERTEX
  5
1D1E
  8
0
 10
2.4
 20
50.1
 30
88.0
 70
    64
  0
VERTEX
  5
1D1F
  8
0
 10
6.2
 20
59.4
 30
88.0
 70
    64
  0
VERTEX
  5
1D20
  8
0
 10
12.5
 20
67.5
 30
88.0
 70
    64
  0
VERTEX
  5
1D21
  8
0
 10
20.6
 20
73.8
 30
88.0
 70
    64
  0
VERTEX
  5
1D22
  8
0
 10
31.0
 20
77.7
 30
82.0
 70
    64
  0
VERTEX
  5
1D23
  8
0
 10
40.0
 20
77.7
 30
82.0
 70
    64
  0
SEQEND
  5
1D24
  8
0
  0
POLYLINE
  5
1D25
  8
0
 66
     1
 10
0.0
 20
0.0
 30
0.0
 70
    16
 71
     5
 72
    13
  0
VERTEX
  5
1D26
  8
0
 10
40.0
 20
1.0
 30
88.0
 70
    64
  0
VERTEX
  5
1D27
  8
0
 10
50.1
 20
2.4
 30
88.0
 70
    64
  0
VERTEX
  5
1D28
  8
0
 10
59.4
 20
6.2
 30
88.0
 70
    64
  0
VERTEX
  5
1D29
  8
0
 10
67.5
 20
12.5
 30
88.0
 70
    64
  0
VERTEX
  5
1D2A
  8
0
 10
73.8
 20
20.6
 30
88.0
 70
    64
  0
VERTEX
  5
1D2B
  8
0
 10
77.6
 20
29.9
 30
88.0
 70
    64
  0
VERTEX
  5
1D2C
  8
0
 10
79.0
 20
40.0
 30
88.0
 70
    64
  0
VERTEX
  5
1D2D
  8
0
 10
77.6
 20
50.1
 30
88.0
 70
    64
  0
VERTEX
  5
1D2E
  8
0
 10
73.8
 20
59.4
 30
88.0
 70
    64
  0
VERTEX
  5
1D2F
  8
0
 10
67.5
 20
67.5
 30
88.0
 70
    64
  0
VERTEX
  5
1D30
  8
0
 10
59.4
 20
73.8
 30
88.0
 70
    64
  0
VERTEX
  5
1D31
  8
0
 10
49.0
 20
77.7
 30
82.0
 70
    64
  0
VERTEX
  5
1D32
  8
0
 10
40.0
 20
77.7
 30
82.0
 70
    64
  0
VERTEX
  5
1D33
  8
0
 10
40.0
 20
3.0
 30
88.0
 70
    64
  0
VERTEX
  5
1D34
  8
0
 10
49.6
 20
4.3
 30
88.0
 70
    64
  0
VERTEX
  5
1D35
  8
0
 10
58.4
 20
8.0
 30
88.0
 70
    64
  0
VERTEX
  5
1D36
  8
0
 10
66.1
 20
13.9
 30
88.0
 70
    64
  0
VERTEX
  5
1D37
  8
0
 10
72.0
 20
21.6
 30
88.0
 70
    64
  0
VERTEX
  5
1D38
  8
0
 10
75.7
 20
30.4
 30
88.0
 70
    64
  0
VERTEX
  5
1D39
  8
0
 10
77.0
 20
40.0
 30
88.0
 70
    64
  0
VERTEX
  5
1D3A
  8
0
 10
75.7
 20
49.6
 30
88.0
 70
    64
  0
VERTEX
  5
1D3B
  8
0
 10
72.0
 20
58.4
 30
88.0
 70
    64
  0
VERTEX
  5
1D3C
  8
0
 10
66.1
 20
66.1
 30
88.0
 70
    64
  0
VERTEX
  5
1D3D
  8
0
 10
58.4
 20
72.0
 30
88.0
 70
    64
  0
VERTEX
  5
1D3E
  8
0
 10
49.0
 20
75.8
 30
82.0
 70
    64
  0
VERTEX
  5
1D3F
  8
0
 10
40.0
 20
75.8
 30
82.0
 70
    64
  0
VERTEX
  5
1D40
  8
0
 10
40.0
 20
3.0
 30
100.0
 70
    64
  0
VERTEX
  5
1D41
  8
0
 10
49.6
 20
4.3
 30
100.0
 70
    64
  0
VERTEX
  5
1D42
  8
0
 10
58.4
 20
8.0
 30
100.0
 70
    64
  0
VERTEX
  5
1D43
  8
0
 10
66.1
 20
13.9
 30
100.0
 70
    64
  0
VERTEX
  5
1D44
  8
0
 10
72.0
 20
21.6
 30
100.0
 70
    64
  0
VERTEX
  5
1D45
  8
0
 10
75.7
 20
30.4
 30
100.0
 70
    64
  0
VERTEX
  5
1D46
  8
0
 10
77.0
 20
40.0
 30
100.0
 70
    64
  0
VERTEX
  5
1D47
  8
0
 10
75.7
 20
49.6
 30
100.0
 70
    64
  0
VERTEX
  5
1D48
  8
0
 10
72.0
 20
58.4
 30
100.0
 70
    64
  0
VERTEX
  5
1D49
  8
0
 10
66.1
 20
66.1
 30
100.0
 70
    64
  0
VERTEX
  5
1D4A
  8
0
 10
58.4
 20
72.0
 30
100.0
 70
    64
  0
VERTEX
  5
1D4B
  8
0
 10
49.0
 20
75.8
 30
100.0
 70
    64
  0
VERTEX
  5
1D4C
  8
0
 10
40.0
 20
75.8
 30
100.0
 70
    64
  0
VERTEX
  5
1D4D
  8
0
 10
40.0
 20
1.0
 30
100.0
 70
    64
  0
VERTEX
  5
1D4E
  8
0
 10
50.1
 20
2.4
 30
100.0
 70
    64
  0
VERTEX
  5
1D4F
  8
0
 10
59.4
 20
6.2
 30
100.0
 70
    64
  0
VERTEX
  5
1D50
  8
0
 10
67.5
 20
12.5
 30
100.0
 70
    64
  0
VERTEX
  5
1D51
  8
0
 10
73.8
 20
20.6
 30
100.0
 70
    64
  0
VERTEX
  5
1D52
  8
0
 10
77.6
 20
29.9
 30
100.0
 70
    64
  0
VERTEX
  5
1D53
  8
0
 10
79.0
 20
40.0
 30
100.0
 70
    64
  0
VERTEX
  5
1D54
  8
0
 10
77.6
 20
50.1
 30
100.0
 70
    64
  0
VERTEX
  5
1D55
  8
0
 10
73.8
 20
59.4
 30
100.0
 70
    64
  0
VERTEX
  5
1D56
  8
0
 10
67.5
 20
67.5
 30
100.0
 70
    64
  0
VERTEX
  5
1D57
  8
0
 10
59.4
 20
73.8
 30
100.0
 70
    64
  0
VERTEX
  5
1D58
  8
0
 10
49.0
 20
77.7
 30
100.0
 70
    64
  0
VERTEX
  5
1D59
  8
0
 10
40.0
 20
77.7
 30
100.0
 70
    64
  0
VERTEX
  5
1D5A
  8
0
 10
40.0
 20
1.0
 30
88.0
 70
    64
  0
VERTEX
  5
1D5B
  8
0
 10
50.1
 20
2.4
 30
88.0
 70
    64
  0
VERTEX
  5
1D5C
  8
0
 10
59.4
 20
6.2
 30
88.0
 70
    64
  0
VERTEX
  5
1D5D
  8
0
 10
67.5
 20
12.5
 30
88.0
 70
    64
  0
VERTEX
  5
1D5E
  8
0
 10
73.8
 20
20.6
 30
88.0
 70
    64
  0
VERTEX
  5
1D5F
  8
0
 10
77.6
 20
29.9
 30
88.0
 70
    64
  0
VERTEX
  5
1D60
  8
0
 10
79.0
 20
40.0
 30
88.0
 70
    64
  0
VERTEX
  5
1D61
  8
0
 10
77.6
 20
50.1
 30
88.0
 70
    64
  0
VERTEX
  5
1D62
  8
0
 10
73.8
 20
59.4
 30
88.0
 70
    64
  0
VERTEX
  5
1D63
  8
0
 10
67.5
 20
67.5
 30
88.0
 70
    64
  0
VERTEX
  5
1D64
  8
0
 10
59.4
 20
73.8
 30
88.0
 70
    64
  0
VERTEX
  5
1D65
  8
0
 10
49.0
 20
77.7
 30
82.0
 70
    64
  0
VERTEX
  5
1D66
  8
0
 10
40.0
 20
77.7
 30
82.0
 70
    64
  0
SEQEND
  5
1D67
  8
0
  0
POLYLINE
  5
1D99
  8
0
 66
     1
 10
0.0
 20
0.0
 30
0.0
 70
    16
 71
     2
 72
     4
  0
VERTEX
  5
1D9A
  8
0
 10
40.0
 20
77.7
 30
100.0
 70
    64
  0
VERTEX
  5
1D9B
  8
0
 10
40.0
 20
77.7
 30
100.0
 70
    64
  0
VERTEX
  5
1D9C
  8
0
 10
49.0
 20
77.7
 30
100.0
 70
    64
  0
VERTEX
  5
1D9D
  8
0
 10
49.0
 20
77.7
 30
91.0
 70
    64
  0
VERTEX
  5
1D9E
  8
0
 10
40.0
 20
94.0
 30
100.0
 70
    64
  0
VERTEX
  5
1D9F
  8
0
 10
40.0
 20
94.0
 30
100.0
 70
    64
  0
VERTEX
  5
1DA0
  8
0
 10
49.0
 20
96.0
 30
100.0
 70
    64
  0
VERTEX
  5
1DA1
  8
0
 10
49.0
 20
96.0
 30
91.0
 70
    64
  0
SEQEND
  5
1DA2
  8
0
  0
POLYLINE
  5
1DED
  8
0
 66
     1
 10
0.0
 20
0.0
 30
0.0
 70
    16
 71
     2
 72
     4
  0
VERTEX
  5
1DEE
  8
0
 10
40.0
 20
77.7
 30
82.0
 70
    64
  0
VERTEX
  5
1DEF
  8
0
 10
40.0
 20
77.7
 30
82.0
 70
    64
  0
VERTEX
  5
1DF0
  8
0
 10
49.0
 20
77.7
 30
82.0
 70
    64
  0
VERTEX
  5
1DF1
  8
0
 10
49.0
 20
77.7
 30
91.0
 70
    64
  0
VERTEX
  5
1DF2
  8
0
 10
40.0
 20
94.0
 30
82.0
 70
    64
  0
VERTEX
  5
1DF3
  8
0
 10
40.0
 20
94.0
 30
82.0
 70
    64
  0
VERTEX
  5
1DF4
  8
0
 10
49.0
 20
96.0
 30
82.0
 70
    64
  0
VERTEX
  5
1DF5
  8
0
 10
49.0
 20
96.0
 30
91.0
 70
    64
  0
SEQEND
  5
1DF6
  8
0
  0
INSERT
  5
1E74
  8
ASHADE
 62
     1
  2
AVE_RENDER
 10
0.0
 20
0.0
 30
0.0
1001
AVE_RENDER
1002
{
1070
     7
1000
Pref
1070
    30
1070
    20
1070
     1
1070
     0
1000

1070
    10
1070
     1
1070
    10
1040
1.0
1070
     1
1040
0.3
1040
0.7
1040
0.0
1040
10.0
1010
-1.0
1020
-1.0
1030
-1.0
1040
0.3
1070
    49
1070
     0
1070
     0
1010
1.0
1020
1.0
1030
1.0
1040
45.0
1070
     1
1070
     0
1000
WCS
1040
0.0
1070
     0
1040
10.0
1002
}
  0
INSERT
  5
1E75
  8
ASHADE
 62
     3
  2
AVE_RENDER
 10
0.0
 20
0.0
 30
0.0
1001
AVE_RENDER
1002
{
1070
     0
1000
Full Opt
1070
     0
1070
     1
1070
     1
1070
     1
1070
     0
1070
     0
1070
     0
1070
     1
1070
     1
1040
0.0001
1040
0.0001
1002
}
  0
INSERT
  5
1E76
  8
ASHADE
 62
     4
  2
AVE_RENDER
 10
0.0
 20
0.0
 30
0.0
1001
AVE_RENDER
1002
{
1070
     0
1000
Quick Opt
1070
     0
1070
     1
1070
     1
1070
     1
1070
     0
1070
     0
1070
     1
1002
}
  0
INSERT
  5
1E77
  8
ASHADE
 62
     5
  2
AVE_RENDER
 10
0.0
 20
0.0
 30
0.0
1001
AVE_RENDER
1002
{
1070
     1
1000
Scanl Opt
1070
     2
1070
     0
1070
     2
1040
2.0
1040
4.0
1070
     0
1070
     1
1070
     0
1040
0.03
1002
}
  0
INSERT
  5
1E78
  8
ASHADE
 62
     6
  2
AVE_RENDER
 10
0.0
 20
0.0
 30
0.0
1001
AVE_RENDER
1002
{
1070
     2
1000
Raytr Opt
1070
     2
1070
     0
1070
     2
1040
2.0
1040
4.0
1070
     0
1070
     1
1070
     1
1040
0.03
1070
     3
1040
0.03
1002
}
  0
INSERT
  5
1E79
  8
ASHADE
 62
     7
  2
AVE_RENDER
 10
0.0
 20
0.0
 30
0.0
1001
AVE_RENDER
1002
{
1070
     0
1000
RFile Opt
1070
     1
1070
   640
1070
   480
1070
 10000
1070
     1
1070
     8
1070
     8
1070
     0
1070
     0
1070
     0
1070
     0
1070
     0
1070
     0
1070
     0
1002
}
  0
INSERT
  5
1E7A
  8
ASHADE
 62
     8
  2
AVE_RENDER
 10
0.0
 20
0.0
 30
0.0
1001
AVE_RENDER
1002
{
1070
     0
1000
Fog Opt
1070
     0
1070
     0
1040
0.0
1040
1.0
1040
0.0
1040
1.0
1010
0.5
1020
0.5
1030
0.5
1002
}
  0
INSERT
  5
1E7B
  8
ASHADE
 62
     9
  2
AVE_RENDER
 10
0.0
 20
0.0
 30
0.0
1001
AVE_RENDER
1002
{
1070
     0
1000
BG Opt
1070
     0
1070
     1
1010
0.0
1020
0.0
1030
0.0
1010
1.0
1020
0.0
1030
0.0
1010
0.0
1020
1.0
1030
0.0
1010
0.0
1020
0.0
1030
1.0
1040
0.5
1040
0.33
1040
0.0
1000

1070
     1
1000

1070
     1
1070
     1
1040
1.0
1040
1.0
1040
0.0
1040
0.0
1070
     0
1002
}
  0
INSERT
  5
1E7C
  8
ASHADE
 62
     1
  2
AVE_GLOBAL
 10
0.0
 20
0.0
 30
0.0
1001
AVE_MATERIAL
1002
{
1000
*GLOBAL*
1000
1
1000
Global finish.
1002
{
1002
}
1002
{
1070
    63
1002
{
1002
{
1010
-1.0
1020
-1.0
1030
-1.0
1002
}
1040
0.1
1000

1040
0.0
1002
{
1002
}
1040
0.0
1002
{
1002
}
1040
0.0
1002
}
1002
{
1002
{
1010
-1.0
1020
-1.0
1030
-1.0
1002
}
1040
0.7
1000

1040
0.0
1002
{
1002
}
1040
0.0
1002
{
1002
}
1040
0.0
1002
}
1002
{
1002
{
1010
-1.0
1020
-1.0
1030
-1.0
1002
}
1040
0.2
1000

1040
0.0
1002
{
1002
}
1040
0.0
1002
{
1002
}
1040
0.0
1002
}
1002
{
1070
     0
1002
{
1070
     1
1002
{
1040
1.0
1040
1.0
1000

1040
0.0
1002
{
1002
}
1040
0.0
1002
{
1002
}
1040
0.0
1002
}
1002
}
1040
1.0
1040
0.0
1040
0.0
1002
}
1002
{
1040
1.0
1040
1.0
1000

1040
0.0
1002
{
1002
}
1040
0.0
1002
{
1002
}
1040
0.0
1002
}
1002
{
1040
0.5
1040
1.0
1000

1040
0.0
1002
{
1002
}
1040
0.0
1002
{
1002
}
1040
0.0
1002
}
1002
{
1070
     0
1040
0.0
1002
{
1002
}
1040
1.0
1002
{
1002
}
1040
0.0
1002
}
1002
{
1040
0.0
1002
{
1002
{
1010
0.0
1020
0.0
1030
0.0
1002
}
1040
1.0
1000

1040
0.0
1002
{
1002
}
1040
0.0
1002
{
1002
}
1040
0.0
1002
}
1002
}
1002
{
1002
{
1070
     1
1002
{
1040
0.0
1040
1.0
1000

1040
0.0
1002
{
1002
}
1040
0.0
1002
{
1002
}
1040
0.0
1002
}
1002
}
1040
0.0
1002
{
1002
}
1010
1.0
1020
0.0
1030
0.0
1010
0.0
1020
1.0
1030
0.0
1010
0.0
1020
0.0
1030
1.0
1070
     0
1002
}
1002
{
1002
{
1040
1.0
1040
1.0
1002
{
1070
     1
1002
{
1040
1.0
1040
1.0
1000

1040
0.0
1002
{
1002
}
1040
0.0
1002
{
1002
}
1040
0.0
1002
}
1002
}
1002
}
1070
     0
1040
0.0
1002
{
1002
}
1002
}
1002
{
1002
}
1002
}
1002
{
1071
        3
1070
     3
1070
     0
1002
{
1070
     2
1070
     0
1070
     0
1040
0.0
1002
}
1070
     0
1070
     2
1002
{
1002
}
1002
}
1002
{
1040
8030.0
1040
190.300003
1040
0.305
1040
228.0
1040
545.0
1040
14.0
1040
17.4
1040
0.456
1002
}
1002
}
  0
POLYLINE
  5
1E7D
  8
0
 66
     1
 10
0.0
 20
0.0
 30
0.0
 70
    16
 71
    12
 72
     7
  0
VERTEX
  5
1E7E
  8
0
 10
40.0
 20
40.0
 30
30.0
 70
    64
  0
VERTEX
  5
1E7F
  8
0
 10
40.0
 20
40.0
 30
30.0
 70
    64
  0
VERTEX
  5
1E80
  8
0
 10
40.0
 20
40.0
 30
30.0
 70
    64
  0
VERTEX
  5
1E81
  8
0
 10
40.0
 20
40.0
 30
30.0
 70
    64
  0
VERTEX
  5
1E82
  8
0
 10
40.0
 20
40.0
 30
30.0
 70
    64
  0
VERTEX
  5
1E83
  8
0
 10
40.0
 20
40.0
 30
30.0
 70
    64
  0
VERTEX
  5
1E84
  8
0
 10
40.0
 20
40.0
 30
30.0
 70
    64
  0
VERTEX
  5
1E85
  8
0
 10
23.0
 20
40.0
 30
34.0
 70
    64
  0
VERTEX
  5
1E86
  8
0
 10
23.6
 20
35.6
 30
34.0
 70
    64
  0
VERTEX
  5
1E87
  8
0
 10
25.3
 20
31.5
 30
34.0
 70
    64
  0
VERTEX
  5
1E88
  8
0
 10
28.0
 20
28.0
 30
34.0
 70
    64
  0
VERTEX
  5
1E89
  8
0
 10
31.5
 20
25.3
 30
34.0
 70
    64
  0
VERTEX
  5
1E8A
  8
0
 10
35.6
 20
23.6
 30
34.0
 70
    64
  0
VERTEX
  5
1E8B
  8
0
 10
40.0
 20
23.0
 30
34.0
 70
    64
  0
VERTEX
  5
1E8C
  8
0
 10
10.0
 20
40.0
 30
48.0
 70
    64
  0
VERTEX
  5
1E8D
  8
0
 10
11.1
 20
32.2
 30
48.0
 70
    64
  0
VERTEX
  5
1E8E
  8
0
 10
14.0
 20
25.1
 30
48.0
 70
    64
  0
VERTEX
  5
1E8F
  8
0
 10
18.8
 20
18.8
 30
48.0
 70
    64
  0
VERTEX
  5
1E90
  8
0
 10
25.1
 20
14.0
 30
48.0
 70
    64
  0
VERTEX
  5
1E91
  8
0
 10
32.2
 20
11.1
 30
48.0
 70
    64
  0
VERTEX
  5
1E92
  8
0
 10
40.0
 20
10.0
 30
48.0
 70
    64
  0
VERTEX
  5
1E93
  8
0
 10
6.0
 20
40.0
 30
64.0
 70
    64
  0
VERTEX
  5
1E94
  8
0
 10
7.2
 20
31.2
 30
64.0
 70
    64
  0
VERTEX
  5
1E95
  8
0
 10
10.6
 20
23.1
 30
64.0
 70
    64
  0
VERTEX
  5
1E96
  8
0
 10
16.0
 20
16.0
 30
64.0
 70
    64
  0
VERTEX
  5
1E97
  8
0
 10
23.1
 20
10.6
 30
64.0
 70
    64
  0
VERTEX
  5
1E98
  8
0
 10
31.2
 20
7.2
 30
64.0
 70
    64
  0
VERTEX
  5
1E99
  8
0
 10
40.0
 20
6.0
 30
64.0
 70
    64
  0
VERTEX
  5
1E9A
  8
0
 10
6.0
 20
40.0
 30
118.0
 70
    64
  0
VERTEX
  5
1E9B
  8
0
 10
7.2
 20
31.2
 30
118.0
 70
    64
  0
VERTEX
  5
1E9C
  8
0
 10
10.6
 20
23.1
 30
118.0
 70
    64
  0
VERTEX
  5
1E9D
  8
0
 10
16.0
 20
16.0
 30
118.0
 70
    64
  0
VERTEX
  5
1E9E
  8
0
 10
23.1
 20
10.6
 30
118.0
 70
    64
  0
VERTEX
  5
1E9F
  8
0
 10
31.2
 20
7.2
 30
118.0
 70
    64
  0
VERTEX
  5
1EA0
  8
0
 10
40.0
 20
6.0
 30
118.0
 70
    64
  0
VERTEX
  5
1EA1
  8
0
 10
23.0
 20
40.0
 30
118.0
 70
    64
  0
VERTEX
  5
1EA2
  8
0
 10
23.6
 20
35.6
 30
118.0
 70
    64
  0
VERTEX
  5
1EA3
  8
0
 10
25.3
 20
31.5
 30
118.0
 70
    64
  0
VERTEX
  5
1EA4
  8
0
 10
28.0
 20
28.0
 30
118.0
 70
    64
  0
VERTEX
  5
1EA5
  8
0
 10
31.5
 20
25.3
 30
118.0
 70
    64
  0
VERTEX
  5
1EA6
  8
0
 10
35.6
 20
23.6
 30
118.0
 70
    64
  0
VERTEX
  5
1EA7
  8
0
 10
40.0
 20
23.0
 30
118.0
 70
    64
  0
VERTEX
  5
1EA8
  8
0
 10
23.0
 20
40.0
 30
125.0
 70
    64
  0
VERTEX
  5
1EA9
  8
0
 10
23.6
 20
35.6
 30
125.0
 70
    64
  0
VERTEX
  5
1EAA
  8
0
 10
25.3
 20
31.5
 30
125.0
 70
    64
  0
VERTEX
  5
1EAB
  8
0
 10
28.0
 20
28.0
 30
125.0
 70
    64
  0
VERTEX
  5
1EAC
  8
0
 10
31.5
 20
25.3
 30
125.0
 70
    64
  0
VERTEX
  5
1EAD
  8
0
 10
35.6
 20
23.6
 30
125.0
 70
    64
  0
VERTEX
  5
1EAE
  8
0
 10
40.0
 20
23.0
 30
125.0
 70
    64
  0
VERTEX
  5
1EAF
  8
0
 10
20.0
 20
40.0
 30
125.0
 70
    64
  0
VERTEX
  5
1EB0
  8
0
 10
20.7
 20
34.8
 30
125.0
 70
    64
  0
VERTEX
  5
1EB1
  8
0
 10
22.7
 20
30.0
 30
125.0
 70
    64
  0
VERTEX
  5
1EB2
  8
0
 10
25.9
 20
25.9
 30
125.0
 70
    64
  0
VERTEX
  5
1EB3
  8
0
 10
30.0
 20
22.7
 30
125.0
 70
    64
  0
VERTEX
  5
1EB4
  8
0
 10
34.8
 20
20.7
 30
125.0
 70
    64
  0
VERTEX
  5
1EB5
  8
0
 10
40.0
 20
20.0
 30
125.0
 70
    64
  0
VERTEX
  5
1EB6
  8
0
 10
20.0
 20
40.0
 30
117.0
 70
    64
  0
VERTEX
  5
1EB7
  8
0
 10
20.7
 20
34.8
 30
117.0
 70
    64
  0
VERTEX
  5
1EB8
  8
0
 10
22.7
 20
30.0
 30
117.0
 70
    64
  0
VERTEX
  5
1EB9
  8
0
 10
25.9
 20
25.9
 30
117.0
 70
    64
  0
VERTEX
  5
1EBA
  8
0
 10
30.0
 20
22.7
 30
117.0
 70
    64
  0
VERTEX
  5
1EBB
  8
0
 10
34.8
 20
20.7
 30
117.0
 70
    64
  0
VERTEX
  5
1EBC
  8
0
 10
40.0
 20
20.0
 30
117.0
 70
    64
  0
VERTEX
  5
1EBD
  8
0
 10
23.0
 20
40.0
 30
127.0
 70
    64
  0
VERTEX
  5
1EBE
  8
0
 10
23.6
 20
35.6
 30
127.0
 70
    64
  0
VERTEX
  5
1EBF
  8
0
 10
25.3
 20
31.5
 30
127.0
 70
    64
  0
VERTEX
  5
1EC0
  8
0
 10
28.0
 20
28.0
 30
127.0
 70
    64
  0
VERTEX
  5
1EC1
  8
0
 10
31.5
 20
25.3
 30
127.0
 70
    64
  0
VERTEX
  5
1EC2
  8
0
 10
35.6
 20
23.6
 30
127.0
 70
    64
  0
VERTEX
  5
1EC3
  8
0
 10
40.0
 20
23.0
 30
127.0
 70
    64
  0
VERTEX
  5
1EC4
  8
0
 10
27.0
 20
40.0
 30
130.0
 70
    64
  0
VERTEX
  5
1EC5
  8
0
 10
27.5
 20
36.6
 30
130.0
 70
    64
  0
VERTEX
  5
1EC6
  8
0
 10
28.7
 20
33.5
 30
130.0
 70
    64
  0
VERTEX
  5
1EC7
  8
0
 10
30.8
 20
30.8
 30
130.0
 70
    64
  0
VERTEX
  5
1EC8
  8
0
 10
33.5
 20
28.7
 30
130.0
 70
    64
  0
VERTEX
  5
1EC9
  8
0
 10
36.6
 20
27.5
 30
130.0
 70
    64
  0
VERTEX
  5
1ECA
  8
0
 10
40.0
 20
27.0
 30
130.0
 70
    64
  0
VERTEX
  5
1ECB
  8
0
 10
30.0
 20
40.0
 30
135.0
 70
    64
  0
VERTEX
  5
1ECC
  8
0
 10
30.4
 20
37.4
 30
135.0
 70
    64
  0
VERTEX
  5
1ECD
  8
0
 10
31.3
 20
35.0
 30
135.0
 70
    64
  0
VERTEX
  5
1ECE
  8
0
 10
32.9
 20
32.9
 30
135.0
 70
    64
  0
VERTEX
  5
1ECF
  8
0
 10
35.0
 20
31.3
 30
135.0
 70
    64
  0
VERTEX
  5
1ED0
  8
0
 10
37.4
 20
30.4
 30
135.0
 70
    64
  0
VERTEX
  5
1ED1
  8
0
 10
40.0
 20
30.0
 30
135.0
 70
    64
  0
SEQEND
  5
1ED2
  8
0
  0
POLYLINE
  5
1ED3
  8
0
 66
     1
 10
0.0
 20
0.0
 30
0.0
 70
    16
 71
    12
 72
     7
  0
VERTEX
  5
1ED4
  8
0
 10
40.0
 20
40.0
 30
30.0
 70
    64
  0
VERTEX
  5
1ED5
  8
0
 10
40.0
 20
40.0
 30
30.0
 70
    64
  0
VERTEX
  5
1ED6
  8
0
 10
40.0
 20
40.0
 30
30.0
 70
    64
  0
VERTEX
  5
1ED7
  8
0
 10
40.0
 20
40.0
 30
30.0
 70
    64
  0
VERTEX
  5
1ED8
  8
0
 10
40.0
 20
40.0
 30
30.0
 70
    64
  0
VERTEX
  5
1ED9
  8
0
 10
40.0
 20
40.0
 30
30.0
 70
    64
  0
VERTEX
  5
1EDA
  8
0
 10
40.0
 20
40.0
 30
30.0
 70
    64
  0
VERTEX
  5
1EDB
  8
0
 10
57.0
 20
40.0
 30
34.0
 70
    64
  0
VERTEX
  5
1EDC
  8
0
 10
56.4
 20
35.6
 30
34.0
 70
    64
  0
VERTEX
  5
1EDD
  8
0
 10
54.7
 20
31.5
 30
34.0
 70
    64
  0
VERTEX
  5
1EDE
  8
0
 10
52.0
 20
28.0
 30
34.0
 70
    64
  0
VERTEX
  5
1EDF
  8
0
 10
48.5
 20
25.3
 30
34.0
 70
    64
  0
VERTEX
  5
1EE0
  8
0
 10
44.4
 20
23.6
 30
34.0
 70
    64
  0
VERTEX
  5
1EE1
  8
0
 10
40.0
 20
23.0
 30
34.0
 70
    64
  0
VERTEX
  5
1EE2
  8
0
 10
70.0
 20
40.0
 30
48.0
 70
    64
  0
VERTEX
  5
1EE3
  8
0
 10
68.9
 20
32.2
 30
48.0
 70
    64
  0
VERTEX
  5
1EE4
  8
0
 10
66.0
 20
25.1
 30
48.0
 70
    64
  0
VERTEX
  5
1EE5
  8
0
 10
61.2
 20
18.8
 30
48.0
 70
    64
  0
VERTEX
  5
1EE6
  8
0
 10
54.9
 20
14.0
 30
48.0
 70
    64
  0
VERTEX
  5
1EE7
  8
0
 10
47.8
 20
11.1
 30
48.0
 70
    64
  0
VERTEX
  5
1EE8
  8
0
 10
40.0
 20
10.0
 30
48.0
 70
    64
  0
VERTEX
  5
1EE9
  8
0
 10
74.0
 20
40.0
 30
64.0
 70
    64
  0
VERTEX
  5
1EEA
  8
0
 10
72.8
 20
31.2
 30
64.0
 70
    64
  0
VERTEX
  5
1EEB
  8
0
 10
69.4
 20
23.1
 30
64.0
 70
    64
  0
VERTEX
  5
1EEC
  8
0
 10
64.0
 20
16.0
 30
64.0
 70
    64
  0
VERTEX
  5
1EED
  8
0
 10
56.9
 20
10.6
 30
64.0
 70
    64
  0
VERTEX
  5
1EEE
  8
0
 10
48.8
 20
7.2
 30
64.0
 70
    64
  0
VERTEX
  5
1EEF
  8
0
 10
40.0
 20
6.0
 30
64.0
 70
    64
  0
VERTEX
  5
1EF0
  8
0
 10
74.0
 20
40.0
 30
118.0
 70
    64
  0
VERTEX
  5
1EF1
  8
0
 10
72.8
 20
31.2
 30
118.0
 70
    64
  0
VERTEX
  5
1EF2
  8
0
 10
69.4
 20
23.1
 30
118.0
 70
    64
  0
VERTEX
  5
1EF3
  8
0
 10
64.0
 20
16.0
 30
118.0
 70
    64
  0
VERTEX
  5
1EF4
  8
0
 10
56.9
 20
10.6
 30
118.0
 70
    64
  0
VERTEX
  5
1EF5
  8
0
 10
48.8
 20
7.2
 30
118.0
 70
    64
  0
VERTEX
  5
1EF6
  8
0
 10
40.0
 20
6.0
 30
118.0
 70
    64
  0
VERTEX
  5
1EF7
  8
0
 10
57.0
 20
40.0
 30
118.0
 70
    64
  0
VERTEX
  5
1EF8
  8
0
 10
56.4
 20
35.6
 30
118.0
 70
    64
  0
VERTEX
  5
1EF9
  8
0
 10
54.7
 20
31.5
 30
118.0
 70
    64
  0
VERTEX
  5
1EFA
  8
0
 10
52.0
 20
28.0
 30
118.0
 70
    64
  0
VERTEX
  5
1EFB
  8
0
 10
48.5
 20
25.3
 30
118.0
 70
    64
  0
VERTEX
  5
1EFC
  8
0
 10
44.4
 20
23.6
 30
118.0
 70
    64
  0
VERTEX
  5
1EFD
  8
0
 10
40.0
 20
23.0
 30
118.0
 70
    64
  0
VERTEX
  5
1EFE
  8
0
 10
57.0
 20
40.0
 30
125.0
 70
    64
  0
VERTEX
  5
1EFF
  8
0
 10
56.4
 20
35.6
 30
125.0
 70
    64
  0
VERTEX
  5
1F00
  8
0
 10
54.7
 20
31.5
 30
125.0
 70
    64
  0
VERTEX
  5
1F01
  8
0
 10
52.0
 20
28.0
 30
125.0
 70
    64
  0
VERTEX
  5
1F02
  8
0
 10
48.5
 20
25.3
 30
125.0
 70
    64
  0
VERTEX
  5
1F03
  8
0
 10
44.4
 20
23.6
 30
125.0
 70
    64
  0
VERTEX
  5
1F04
  8
0
 10
40.0
 20
23.0
 30
125.0
 70
    64
  0
VERTEX
  5
1F05
  8
0
 10
60.0
 20
40.0
 30
125.0
 70
    64
  0
VERTEX
  5
1F06
  8
0
 10
59.3
 20
34.8
 30
125.0
 70
    64
  0
VERTEX
  5
1F07
  8
0
 10
57.3
 20
30.0
 30
125.0
 70
    64
  0
VERTEX
  5
1F08
  8
0
 10
54.1
 20
25.9
 30
125.0
 70
    64
  0
VERTEX
  5
1F09
  8
0
 10
50.0
 20
22.7
 30
125.0
 70
    64
  0
VERTEX
  5
1F0A
  8
0
 10
45.2
 20
20.7
 30
125.0
 70
    64
  0
VERTEX
  5
1F0B
  8
0
 10
40.0
 20
20.0
 30
125.0
 70
    64
  0
VERTEX
  5
1F0C
  8
0
 10
60.0
 20
40.0
 30
117.0
 70
    64
  0
VERTEX
  5
1F0D
  8
0
 10
59.3
 20
34.8
 30
117.0
 70
    64
  0
VERTEX
  5
1F0E
  8
0
 10
57.3
 20
30.0
 30
117.0
 70
    64
  0
VERTEX
  5
1F0F
  8
0
 10
54.1
 20
25.9
 30
117.0
 70
    64
  0
VERTEX
  5
1F10
  8
0
 10
50.0
 20
22.7
 30
117.0
 70
    64
  0
VERTEX
  5
1F11
  8
0
 10
45.2
 20
20.7
 30
117.0
 70
    64
  0
VERTEX
  5
1F12
  8
0
 10
40.0
 20
20.0
 30
117.0
 70
    64
  0
VERTEX
  5
1F13
  8
0
 10
57.0
 20
40.0
 30
127.0
 70
    64
  0
VERTEX
  5
1F14
  8
0
 10
56.4
 20
35.6
 30
127.0
 70
    64
  0
VERTEX
  5
1F15
  8
0
 10
54.7
 20
31.5
 30
127.0
 70
    64
  0
VERTEX
  5
1F16
  8
0
 10
52.0
 20
28.0
 30
127.0
 70
    64
  0
VERTEX
  5
1F17
  8
0
 10
48.5
 20
25.3
 30
127.0
 70
    64
  0
VERTEX
  5
1F18
  8
0
 10
44.4
 20
23.6
 30
127.0
 70
    64
  0
VERTEX
  5
1F19
  8
0
 10
40.0
 20
23.0
 30
127.0
 70
    64
  0
VERTEX
  5
1F1A
  8
0
 10
53.0
 20
40.0
 30
130.0
 70
    64
  0
VERTEX
  5
1F1B
  8
0
 10
52.5
 20
36.6
 30
130.0
 70
    64
  0
VERTEX
  5
1F1C
  8
0
 10
51.3
 20
33.5
 30
130.0
 70
    64
  0
VERTEX
  5
1F1D
  8
0
 10
49.2
 20
30.8
 30
130.0
 70
    64
  0
VERTEX
  5
1F1E
  8
0
 10
46.5
 20
28.7
 30
130.0
 70
    64
  0
VERTEX
  5
1F1F
  8
0
 10
43.4
 20
27.5
 30
130.0
 70
    64
  0
VERTEX
  5
1F20
  8
0
 10
40.0
 20
27.0
 30
130.0
 70
    64
  0
VERTEX
  5
1F21
  8
0
 10
50.0
 20
40.0
 30
135.0
 70
    64
  0
VERTEX
  5
1F22
  8
0
 10
49.6
 20
37.4
 30
135.0
 70
    64
  0
VERTEX
  5
1F23
  8
0
 10
48.7
 20
35.0
 30
135.0
 70
    64
  0
VERTEX
  5
1F24
  8
0
 10
47.1
 20
32.9
 30
135.0
 70
    64
  0
VERTEX
  5
1F25
  8
0
 10
45.0
 20
31.3
 30
135.0
 70
    64
  0
VERTEX
  5
1F26
  8
0
 10
42.6
 20
30.4
 30
135.0
 70
    64
  0
VERTEX
  5
1F27
  8
0
 10
40.0
 20
30.0
 30
135.0
 70
    64
  0
SEQEND
  5
1F28
  8
0
  0
POLYLINE
  5
1F29
  8
0
 66
     1
 10
0.0
 20
0.0
 30
0.0
 70
    16
 71
    12
 72
     7
  0
VERTEX
  5
1F2A
  8
0
 10
40.0
 20
40.0
 30
30.0
 70
    64
  0
VERTEX
  5
1F2B
  8
0
 10
40.0
 20
40.0
 30
30.0
 70
    64
  0
VERTEX
  5
1F2C
  8
0
 10
40.0
 20
40.0
 30
30.0
 70
    64
  0
VERTEX
  5
1F2D
  8
0
 10
40.0
 20
40.0
 30
30.0
 70
    64
  0
VERTEX
  5
1F2E
  8
0
 10
40.0
 20
40.0
 30
30.0
 70
    64
  0
VERTEX
  5
1F2F
  8
0
 10
40.0
 20
40.0
 30
30.0
 70
    64
  0
VERTEX
  5
1F30
  8
0
 10
40.0
 20
40.0
 30
30.0
 70
    64
  0
VERTEX
  5
1F31
  8
0
 10
23.0
 20
40.0
 30
34.0
 70
    64
  0
VERTEX
  5
1F32
  8
0
 10
23.6
 20
44.4
 30
34.0
 70
    64
  0
VERTEX
  5
1F33
  8
0
 10
25.3
 20
48.5
 30
34.0
 70
    64
  0
VERTEX
  5
1F34
  8
0
 10
28.0
 20
52.0
 30
34.0
 70
    64
  0
VERTEX
  5
1F35
  8
0
 10
31.5
 20
54.7
 30
34.0
 70
    64
  0
VERTEX
  5
1F36
  8
0
 10
35.6
 20
56.4
 30
34.0
 70
    64
  0
VERTEX
  5
1F37
  8
0
 10
40.0
 20
57.0
 30
34.0
 70
    64
  0
VERTEX
  5
1F38
  8
0
 10
10.0
 20
40.0
 30
48.0
 70
    64
  0
VERTEX
  5
1F39
  8
0
 10
11.1
 20
47.8
 30
48.0
 70
    64
  0
VERTEX
  5
1F3A
  8
0
 10
14.0
 20
54.9
 30
48.0
 70
    64
  0
VERTEX
  5
1F3B
  8
0
 10
18.8
 20
61.2
 30
48.0
 70
    64
  0
VERTEX
  5
1F3C
  8
0
 10
25.1
 20
66.0
 30
48.0
 70
    64
  0
VERTEX
  5
1F3D
  8
0
 10
32.2
 20
68.9
 30
48.0
 70
    64
  0
VERTEX
  5
1F3E
  8
0
 10
40.0
 20
70.0
 30
48.0
 70
    64
  0
VERTEX
  5
1F3F
  8
0
 10
6.0
 20
40.0
 30
64.0
 70
    64
  0
VERTEX
  5
1F40
  8
0
 10
7.2
 20
48.8
 30
64.0
 70
    64
  0
VERTEX
  5
1F41
  8
0
 10
10.6
 20
56.9
 30
64.0
 70
    64
  0
VERTEX
  5
1F42
  8
0
 10
16.0
 20
64.0
 30
64.0
 70
    64
  0
VERTEX
  5
1F43
  8
0
 10
23.1
 20
69.4
 30
64.0
 70
    64
  0
VERTEX
  5
1F44
  8
0
 10
31.2
 20
72.8
 30
64.0
 70
    64
  0
VERTEX
  5
1F45
  8
0
 10
40.0
 20
74.0
 30
64.0
 70
    64
  0
VERTEX
  5
1F46
  8
0
 10
6.0
 20
40.0
 30
118.0
 70
    64
  0
VERTEX
  5
1F47
  8
0
 10
7.2
 20
48.8
 30
118.0
 70
    64
  0
VERTEX
  5
1F48
  8
0
 10
10.6
 20
56.9
 30
118.0
 70
    64
  0
VERTEX
  5
1F49
  8
0
 10
16.0
 20
64.0
 30
118.0
 70
    64
  0
VERTEX
  5
1F4A
  8
0
 10
23.1
 20
69.4
 30
118.0
 70
    64
  0
VERTEX
  5
1F4B
  8
0
 10
31.2
 20
72.8
 30
118.0
 70
    64
  0
VERTEX
  5
1F4C
  8
0
 10
40.0
 20
74.0
 30
118.0
 70
    64
  0
VERTEX
  5
1F4D
  8
0
 10
23.0
 20
40.0
 30
118.0
 70
    64
  0
VERTEX
  5
1F4E
  8
0
 10
23.6
 20
44.4
 30
118.0
 70
    64
  0
VERTEX
  5
1F4F
  8
0
 10
25.3
 20
48.5
 30
118.0
 70
    64
  0
VERTEX
  5
1F50
  8
0
 10
28.0
 20
52.0
 30
118.0
 70
    64
  0
VERTEX
  5
1F51
  8
0
 10
31.5
 20
54.7
 30
118.0
 70
    64
  0
VERTEX
  5
1F52
  8
0
 10
35.6
 20
56.4
 30
118.0
 70
    64
  0
VERTEX
  5
1F53
  8
0
 10
40.0
 20
57.0
 30
118.0
 70
    64
  0
VERTEX
  5
1F54
  8
0
 10
23.0
 20
40.0
 30
125.0
 70
    64
  0
VERTEX
  5
1F55
  8
0
 10
23.6
 20
44.4
 30
125.0
 70
    64
  0
VERTEX
  5
1F56
  8
0
 10
25.3
 20
48.5
 30
125.0
 70
    64
  0
VERTEX
  5
1F57
  8
0
 10
28.0
 20
52.0
 30
125.0
 70
    64
  0
VERTEX
  5
1F58
  8
0
 10
31.5
 20
54.7
 30
125.0
 70
    64
  0
VERTEX
  5
1F59
  8
0
 10
35.6
 20
56.4
 30
125.0
 70
    64
  0
VERTEX
  5
1F5A
  8
0
 10
40.0
 20
57.0
 30
125.0
 70
    64
  0
VERTEX
  5
1F5B
  8
0
 10
20.0
 20
40.0
 30
125.0
 70
    64
  0
VERTEX
  5
1F5C
  8
0
 10
20.7
 20
45.2
 30
125.0
 70
    64
  0
VERTEX
  5
1F5D
  8
0
 10
22.7
 20
50.0
 30
125.0
 70
    64
  0
VERTEX
  5
1F5E
  8
0
 10
25.9
 20
54.1
 30
125.0
 70
    64
  0
VERTEX
  5
1F5F
  8
0
 10
30.0
 20
57.3
 30
125.0
 70
    64
  0
VERTEX
  5
1F60
  8
0
 10
34.8
 20
59.3
 30
125.0
 70
    64
  0
VERTEX
  5
1F61
  8
0
 10
40.0
 20
60.0
 30
125.0
 70
    64
  0
VERTEX
  5
1F62
  8
0
 10
20.0
 20
40.0
 30
117.0
 70
    64
  0
VERTEX
  5
1F63
  8
0
 10
20.7
 20
45.2
 30
117.0
 70
    64
  0
VERTEX
  5
1F64
  8
0
 10
22.7
 20
50.0
 30
117.0
 70
    64
  0
VERTEX
  5
1F65
  8
0
 10
25.9
 20
54.1
 30
117.0
 70
    64
  0
VERTEX
  5
1F66
  8
0
 10
30.0
 20
57.3
 30
117.0
 70
    64
  0
VERTEX
  5
1F67
  8
0
 10
34.8
 20
59.3
 30
117.0
 70
    64
  0
VERTEX
  5
1F68
  8
0
 10
40.0
 20
60.0
 30
117.0
 70
    64
  0
VERTEX
  5
1F69
  8
0
 10
23.0
 20
40.0
 30
127.0
 70
    64
  0
VERTEX
  5
1F6A
  8
0
 10
23.6
 20
44.4
 30
127.0
 70
    64
  0
VERTEX
  5
1F6B
  8
0
 10
25.3
 20
48.5
 30
127.0
 70
    64
  0
VERTEX
  5
1F6C
  8
0
 10
28.0
 20
52.0
 30
127.0
 70
    64
  0
VERTEX
  5
1F6D
  8
0
 10
31.5
 20
54.7
 30
127.0
 70
    64
  0
VERTEX
  5
1F6E
  8
0
 10
35.6
 20
56.4
 30
127.0
 70
    64
  0
VERTEX
  5
1F6F
  8
0
 10
40.0
 20
57.0
 30
127.0
 70
    64
  0
VERTEX
  5
1F70
  8
0
 10
27.0
 20
40.0
 30
130.0
 70
    64
  0
VERTEX
  5
1F71
  8
0
 10
27.5
 20
43.4
 30
130.0
 70
    64
  0
VERTEX
  5
1F72
  8
0
 10
28.7
 20
46.5
 30
130.0
 70
    64
  0
VERTEX
  5
1F73
  8
0
 10
30.8
 20
49.2
 30
130.0
 70
    64
  0
VERTEX
  5
1F74
  8
0
 10
33.5
 20
51.3
 30
130.0
 70
    64
  0
VERTEX
  5
1F75
  8
0
 10
36.6
 20
52.5
 30
130.0
 70
    64
  0
VERTEX
  5
1F76
  8
0
 10
40.0
 20
53.0
 30
130.0
 70
    64
  0
VERTEX
  5
1F77
  8
0
 10
30.0
 20
40.0
 30
135.0
 70
    64
  0
VERTEX
  5
1F78
  8
0
 10
30.4
 20
42.6
 30
135.0
 70
    64
  0
VERTEX
  5
1F79
  8
0
 10
31.3
 20
45.0
 30
135.0
 70
    64
  0
VERTEX
  5
1F7A
  8
0
 10
32.9
 20
47.1
 30
135.0
 70
    64
  0
VERTEX
  5
1F7B
  8
0
 10
35.0
 20
48.7
 30
135.0
 70
    64
  0
VERTEX
  5
1F7C
  8
0
 10
37.4
 20
49.6
 30
135.0
 70
    64
  0
VERTEX
  5
1F7D
  8
0
 10
40.0
 20
50.0
 30
135.0
 70
    64
  0
SEQEND
  5
1F7E
  8
0
  0
POLYLINE
  5
1F7F
  8
0
 66
     1
 10
0.0
 20
0.0
 30
0.0
 70
    16
 71
    12
 72
     7
  0
VERTEX
  5
1F80
  8
0
 10
40.0
 20
40.0
 30
30.0
 70
    64
  0
VERTEX
  5
1F81
  8
0
 10
40.0
 20
40.0
 30
30.0
 70
    64
  0
VERTEX
  5
1F82
  8
0
 10
40.0
 20
40.0
 30
30.0
 70
    64
  0
VERTEX
  5
1F83
  8
0
 10
40.0
 20
40.0
 30
30.0
 70
    64
  0
VERTEX
  5
1F84
  8
0
 10
40.0
 20
40.0
 30
30.0
 70
    64
  0
VERTEX
  5
1F85
  8
0
 10
40.0
 20
40.0
 30
30.0
 70
    64
  0
VERTEX
  5
1F86
  8
0
 10
40.0
 20
40.0
 30
30.0
 70
    64
  0
VERTEX
  5
1F87
  8
0
 10
57.0
 20
40.0
 30
34.0
 70
    64
  0
VERTEX
  5
1F88
  8
0
 10
56.4
 20
44.4
 30
34.0
 70
    64
  0
VERTEX
  5
1F89
  8
0
 10
54.7
 20
48.5
 30
34.0
 70
    64
  0
VERTEX
  5
1F8A
  8
0
 10
52.0
 20
52.0
 30
34.0
 70
    64
  0
VERTEX
  5
1F8B
  8
0
 10
48.5
 20
54.7
 30
34.0
 70
    64
  0
VERTEX
  5
1F8C
  8
0
 10
44.4
 20
56.4
 30
34.0
 70
    64
  0
VERTEX
  5
1F8D
  8
0
 10
40.0
 20
57.0
 30
34.0
 70
    64
  0
VERTEX
  5
1F8E
  8
0
 10
70.0
 20
40.0
 30
48.0
 70
    64
  0
VERTEX
  5
1F8F
  8
0
 10
68.9
 20
47.8
 30
48.0
 70
    64
  0
VERTEX
  5
1F90
  8
0
 10
66.0
 20
54.9
 30
48.0
 70
    64
  0
VERTEX
  5
1F91
  8
0
 10
61.2
 20
61.2
 30
48.0
 70
    64
  0
VERTEX
  5
1F92
  8
0
 10
54.9
 20
66.0
 30
48.0
 70
    64
  0
VERTEX
  5
1F93
  8
0
 10
47.8
 20
68.9
 30
48.0
 70
    64
  0
VERTEX
  5
1F94
  8
0
 10
40.0
 20
70.0
 30
48.0
 70
    64
  0
VERTEX
  5
1F95
  8
0
 10
74.0
 20
40.0
 30
64.0
 70
    64
  0
VERTEX
  5
1F96
  8
0
 10
72.8
 20
48.8
 30
64.0
 70
    64
  0
VERTEX
  5
1F97
  8
0
 10
69.4
 20
56.9
 30
64.0
 70
    64
  0
VERTEX
  5
1F98
  8
0
 10
64.0
 20
64.0
 30
64.0
 70
    64
  0
VERTEX
  5
1F99
  8
0
 10
56.9
 20
69.4
 30
64.0
 70
    64
  0
VERTEX
  5
1F9A
  8
0
 10
48.8
 20
72.8
 30
64.0
 70
    64
  0
VERTEX
  5
1F9B
  8
0
 10
40.0
 20
74.0
 30
64.0
 70
    64
  0
VERTEX
  5
1F9C
  8
0
 10
74.0
 20
40.0
 30
118.0
 70
    64
  0
VERTEX
  5
1F9D
  8
0
 10
72.8
 20
48.8
 30
118.0
 70
    64
  0
VERTEX
  5
1F9E
  8
0
 10
69.4
 20
56.9
 30
118.0
 70
    64
  0
VERTEX
  5
1F9F
  8
0
 10
64.0
 20
64.0
 30
118.0
 70
    64
  0
VERTEX
  5
1FA0
  8
0
 10
56.9
 20
69.4
 30
118.0
 70
    64
  0
VERTEX
  5
1FA1
  8
0
 10
48.8
 20
72.8
 30
118.0
 70
    64
  0
VERTEX
  5
1FA2
  8
0
 10
40.0
 20
74.0
 30
118.0
 70
    64
  0
VERTEX
  5
1FA3
  8
0
 10
57.0
 20
40.0
 30
118.0
 70
    64
  0
VERTEX
  5
1FA4
  8
0
 10
56.4
 20
44.4
 30
118.0
 70
    64
  0
VERTEX
  5
1FA5
  8
0
 10
54.7
 20
48.5
 30
118.0
 70
    64
  0
VERTEX
  5
1FA6
  8
0
 10
52.0
 20
52.0
 30
118.0
 70
    64
  0
VERTEX
  5
1FA7
  8
0
 10
48.5
 20
54.7
 30
118.0
 70
    64
  0
VERTEX
  5
1FA8
  8
0
 10
44.4
 20
56.4
 30
118.0
 70
    64
  0
VERTEX
  5
1FA9
  8
0
 10
40.0
 20
57.0
 30
118.0
 70
    64
  0
VERTEX
  5
1FAA
  8
0
 10
57.0
 20
40.0
 30
125.0
 70
    64
  0
VERTEX
  5
1FAB
  8
0
 10
56.4
 20
44.4
 30
125.0
 70
    64
  0
VERTEX
  5
1FAC
  8
0
 10
54.7
 20
48.5
 30
125.0
 70
    64
  0
VERTEX
  5
1FAD
  8
0
 10
52.0
 20
52.0
 30
125.0
 70
    64
  0
VERTEX
  5
1FAE
  8
0
 10
48.5
 20
54.7
 30
125.0
 70
    64
  0
VERTEX
  5
1FAF
  8
0
 10
44.4
 20
56.4
 30
125.0
 70
    64
  0
VERTEX
  5
1FB0
  8
0
 10
40.0
 20
57.0
 30
125.0
 70
    64
  0
VERTEX
  5
1FB1
  8
0
 10
60.0
 20
40.0
 30
125.0
 70
    64
  0
VERTEX
  5
1FB2
  8
0
 10
59.3
 20
45.2
 30
125.0
 70
    64
  0
VERTEX
  5
1FB3
  8
0
 10
57.3
 20
50.0
 30
125.0
 70
    64
  0
VERTEX
  5
1FB4
  8
0
 10
54.1
 20
54.1
 30
125.0
 70
    64
  0
VERTEX
  5
1FB5
  8
0
 10
50.0
 20
57.3
 30
125.0
 70
    64
  0
VERTEX
  5
1FB6
  8
0
 10
45.2
 20
59.3
 30
125.0
 70
    64
  0
VERTEX
  5
1FB7
  8
0
 10
40.0
 20
60.0
 30
125.0
 70
    64
  0
VERTEX
  5
1FB8
  8
0
 10
60.0
 20
40.0
 30
117.0
 70
    64
  0
VERTEX
  5
1FB9
  8
0
 10
59.3
 20
45.2
 30
117.0
 70
    64
  0
VERTEX
  5
1FBA
  8
0
 10
57.3
 20
50.0
 30
117.0
 70
    64
  0
VERTEX
  5
1FBB
  8
0
 10
54.1
 20
54.1
 30
117.0
 70
    64
  0
VERTEX
  5
1FBC
  8
0
 10
50.0
 20
57.3
 30
117.0
 70
    64
  0
VERTEX
  5
1FBD
  8
0
 10
45.2
 20
59.3
 30
117.0
 70
    64
  0
VERTEX
  5
1FBE
  8
0
 10
40.0
 20
60.0
 30
117.0
 70
    64
  0
VERTEX
  5
1FBF
  8
0
 10
57.0
 20
40.0
 30
127.0
 70
    64
  0
VERTEX
  5
1FC0
  8
0
 10
56.4
 20
44.4
 30
127.0
 70
    64
  0
VERTEX
  5
1FC1
  8
0
 10
54.7
 20
48.5
 30
127.0
 70
    64
  0
VERTEX
  5
1FC2
  8
0
 10
52.0
 20
52.0
 30
127.0
 70
    64
  0
VERTEX
  5
1FC3
  8
0
 10
48.5
 20
54.7
 30
127.0
 70
    64
  0
VERTEX
  5
1FC4
  8
0
 10
44.4
 20
56.4
 30
127.0
 70
    64
  0
VERTEX
  5
1FC5
  8
0
 10
40.0
 20
57.0
 30
127.0
 70
    64
  0
VERTEX
  5
1FC6
  8
0
 10
53.0
 20
40.0
 30
130.0
 70
    64
  0
VERTEX
  5
1FC7
  8
0
 10
52.5
 20
43.4
 30
130.0
 70
    64
  0
VERTEX
  5
1FC8
  8
0
 10
51.3
 20
46.5
 30
130.0
 70
    64
  0
VERTEX
  5
1FC9
  8
0
 10
49.2
 20
49.2
 30
130.0
 70
    64
  0
VERTEX
  5
1FCA
  8
0
 10
46.5
 20
51.3
 30
130.0
 70
    64
  0
VERTEX
  5
1FCB
  8
0
 10
43.4
 20
52.5
 30
130.0
 70
    64
  0
VERTEX
  5
1FCC
  8
0
 10
40.0
 20
53.0
 30
130.0
 70
    64
  0
VERTEX
  5
1FCD
  8
0
 10
50.0
 20
40.0
 30
135.0
 70
    64
  0
VERTEX
  5
1FCE
  8
0
 10
49.6
 20
42.6
 30
135.0
 70
    64
  0
VERTEX
  5
1FCF
  8
0
 10
48.7
 20
45.0
 30
135.0
 70
    64
  0
VERTEX
  5
1FD0
  8
0
 10
47.1
 20
47.1
 30
135.0
 70
    64
  0
VERTEX
  5
1FD1
  8
0
 10
45.0
 20
48.7
 30
135.0
 70
    64
  0
VERTEX
  5
1FD2
  8
0
 10
42.6
 20
49.6
 30
135.0
 70
    64
  0
VERTEX
  5
1FD3
  8
0
 10
40.0
 20
50.0
 30
135.0
 70
    64
  0
SEQEND
  5
1FD4
  8
0
  0
POLYLINE
  5
1FD5
  8
0
 66
     1
 10
0.0
 20
0.0
 30
0.0
 70
    16
 71
    14
 72
     7
  0
VERTEX
  5
1FD6
  8
0
 10
40.0
 20
40.0
 30
0.0
 70
    64
  0
VERTEX
  5
1FD7
  8
0
 10
40.0
 20
40.0
 30
0.0
 70
    64
  0
VERTEX
  5
1FD8
  8
0
 10
40.0
 20
40.0
 30
0.0
 70
    64
  0
VERTEX
  5
1FD9
  8
0
 10
40.0
 20
40.0
 30
0.0
 70
    64
  0
VERTEX
  5
1FDA
  8
0
 10
40.0
 20
40.0
 30
0.0
 70
    64
  0
VERTEX
  5
1FDB
  8
0
 10
40.0
 20
40.0
 30
0.0
 70
    64
  0
VERTEX
  5
1FDC
  8
0
 10
40.0
 20
40.0
 30
0.0
 70
    64
  0
VERTEX
  5
1FDD
  8
0
 10
30.7
 20
40.0
 30
1.3
 70
    64
  0
VERTEX
  5
1FDE
  8
0
 10
31.0
 20
37.6
 30
1.3
 70
    64
  0
VERTEX
  5
1FDF
  8
0
 10
31.9
 20
35.4
 30
1.3
 70
    64
  0
VERTEX
  5
1FE0
  8
0
 10
33.4
 20
33.4
 30
1.3
 70
    64
  0
VERTEX
  5
1FE1
  8
0
 10
35.4
 20
31.9
 30
1.3
 70
    64
  0
VERTEX
  5
1FE2
  8
0
 10
37.6
 20
31.0
 30
1.3
 70
    64
  0
VERTEX
  5
1FE3
  8
0
 10
40.0
 20
30.7
 30
1.3
 70
    64
  0
VERTEX
  5
1FE4
  8
0
 10
22.0
 20
40.0
 30
5.0
 70
    64
  0
VERTEX
  5
1FE5
  8
0
 10
22.6
 20
35.4
 30
5.0
 70
    64
  0
VERTEX
  5
1FE6
  8
0
 10
24.4
 20
31.0
 30
5.0
 70
    64
  0
VERTEX
  5
1FE7
  8
0
 10
27.3
 20
27.3
 30
5.0
 70
    64
  0
VERTEX
  5
1FE8
  8
0
 10
31.0
 20
24.4
 30
5.0
 70
    64
  0
VERTEX
  5
1FE9
  8
0
 10
35.4
 20
22.6
 30
5.0
 70
    64
  0
VERTEX
  5
1FEA
  8
0
 10
40.0
 20
22.0
 30
5.0
 70
    64
  0
VERTEX
  5
1FEB
  8
0
 10
14.6
 20
40.0
 30
10.6
 70
    64
  0
VERTEX
  5
1FEC
  8
0
 10
15.5
 20
33.4
 30
10.6
 70
    64
  0
VERTEX
  5
1FED
  8
0
 10
18.0
 20
27.4
 30
10.6
 70
    64
  0
VERTEX
  5
1FEE
  8
0
 10
22.1
 20
22.1
 30
10.6
 70
    64
  0
VERTEX
  5
1FEF
  8
0
 10
27.4
 20
18.0
 30
10.6
 70
    64
  0
VERTEX
  5
1FF0
  8
0
 10
33.4
 20
15.5
 30
10.6
 70
    64
  0
VERTEX
  5
1FF1
  8
0
 10
40.0
 20
14.6
 30
10.6
 70
    64
  0
VERTEX
  5
1FF2
  8
0
 10
8.9
 20
40.0
 30
18.1
 70
    64
  0
VERTEX
  5
1FF3
  8
0
 10
10.0
 20
32.0
 30
18.1
 70
    64
  0
VERTEX
  5
1FF4
  8
0
 10
13.1
 20
24.5
 30
18.1
 70
    64
  0
VERTEX
  5
1FF5
  8
0
 10
18.0
 20
18.0
 30
18.1
 70
    64
  0
VERTEX
  5
1FF6
  8
0
 10
24.5
 20
13.1
 30
18.1
 70
    64
  0
VERTEX
  5
1FF7
  8
0
 10
32.0
 20
10.0
 30
18.1
 70
    64
  0
VERTEX
  5
1FF8
  8
0
 10
40.0
 20
8.9
 30
18.1
 70
    64
  0
VERTEX
  5
1FF9
  8
0
 10
5.3
 20
40.0
 30
26.7
 70
    64
  0
VERTEX
  5
1FFA
  8
0
 10
6.5
 20
31.0
 30
26.7
 70
    64
  0
VERTEX
  5
1FFB
  8
0
 10
9.9
 20
22.7
 30
26.7
 70
    64
  0
VERTEX
  5
1FFC
  8
0
 10
15.5
 20
15.5
 30
26.7
 70
    64
  0
VERTEX
  5
1FFD
  8
0
 10
22.7
 20
9.9
 30
26.7
 70
    64
  0
VERTEX
  5
1FFE
  8
0
 10
31.0
 20
6.5
 30
26.7
 70
    64
  0
VERTEX
  5
1FFF
  8
0
 10
40.0
 20
5.3
 30
26.7
 70
    64
  0
VERTEX
  5
2000
  8
0
 10
4.0
 20
40.0
 30
36.0
 70
    64
  0
VERTEX
  5
2001
  8
0
 10
5.3
 20
30.7
 30
36.0
 70
    64
  0
VERTEX
  5
2002
  8
0
 10
8.8
 20
22.1
 30
36.0
 70
    64
  0
VERTEX
  5
2003
  8
0
 10
14.6
 20
14.6
 30
36.0
 70
    64
  0
VERTEX
  5
2004
  8
0
 10
22.1
 20
8.8
 30
36.0
 70
    64
  0
VERTEX
  5
2005
  8
0
 10
30.7
 20
5.3
 30
36.0
 70
    64
  0
VERTEX
  5
2006
  8
0
 10
40.0
 20
4.0
 30
36.0
 70
    64
  0
VERTEX
  5
2007
  8
0
 10
4.0
 20
40.0
 30
100.0
 70
    64
  0
VERTEX
  5
2008
  8
0
 10
5.3
 20
30.7
 30
100.0
 70
    64
  0
VERTEX
  5
2009
  8
0
 10
8.8
 20
22.1
 30
100.0
 70
    64
  0
VERTEX
  5
200A
  8
0
 10
14.6
 20
14.6
 30
100.0
 70
    64
  0
VERTEX
  5
200B
  8
0
 10
22.1
 20
8.8
 30
100.0
 70
    64
  0
VERTEX
  5
200C
  8
0
 10
30.7
 20
5.3
 30
100.0
 70
    64
  0
VERTEX
  5
200D
  8
0
 10
40.0
 20
4.0
 30
100.0
 70
    64
  0
VERTEX
  5
200E
  8
0
 10
2.0
 20
40.0
 30
100.0
 70
    64
  0
VERTEX
  5
200F
  8
0
 10
3.4
 20
30.2
 30
100.0
 70
    64
  0
VERTEX
  5
2010
  8
0
 10
7.1
 20
21.1
 30
100.0
 70
    64
  0
VERTEX
  5
2011
  8
0
 10
13.2
 20
13.2
 30
100.0
 70
    64
  0
VERTEX
  5
2012
  8
0
 10
21.1
 20
7.1
 30
100.0
 70
    64
  0
VERTEX
  5
2013
  8
0
 10
30.2
 20
3.4
 30
100.0
 70
    64
  0
VERTEX
  5
2014
  8
0
 10
40.0
 20
2.0
 30
100.0
 70
    64
  0
VERTEX
  5
2015
  8
0
 10
0.0
 20
40.0
 30
102.0
 70
    64
  0
VERTEX
  5
2016
  8
0
 10
1.4
 20
29.7
 30
102.0
 70
    64
  0
VERTEX
  5
2017
  8
0
 10
5.4
 20
20.1
 30
102.0
 70
    64
  0
VERTEX
  5
2018
  8
0
 10
11.8
 20
11.8
 30
102.0
 70
    64
  0
VERTEX
  5
2019
  8
0
 10
20.1
 20
5.4
 30
102.0
 70
    64
  0
VERTEX
  5
201A
  8
0
 10
29.7
 20
1.4
 30
102.0
 70
    64
  0
VERTEX
  5
201B
  8
0
 10
40.0
 20
0.0
 30
102.0
 70
    64
  0
VERTEX
  5
201C
  8
0
 10
0.0
 20
40.0
 30
123.0
 70
    64
  0
VERTEX
  5
201D
  8
0
 10
1.4
 20
29.7
 30
123.0
 70
    64
  0
VERTEX
  5
201E
  8
0
 10
5.4
 20
20.1
 30
123.0
 70
    64
  0
VERTEX
  5
201F
  8
0
 10
11.8
 20
11.8
 30
123.0
 70
    64
  0
VERTEX
  5
2020
  8
0
 10
20.1
 20
5.4
 30
123.0
 70
    64
  0
VERTEX
  5
2021
  8
0
 10
29.7
 20
1.4
 30
123.0
 70
    64
  0
VERTEX
  5
2022
  8
0
 10
40.0
 20
0.0
 30
123.0
 70
    64
  0
VERTEX
  5
2023
  8
0
 10
2.0
 20
40.0
 30
125.0
 70
    64
  0
VERTEX
  5
2024
  8
0
 10
3.4
 20
30.2
 30
125.0
 70
    64
  0
VERTEX
  5
2025
  8
0
 10
7.1
 20
21.1
 30
125.0
 70
    64
  0
VERTEX
  5
2026
  8
0
 10
13.2
 20
13.2
 30
125.0
 70
    64
  0
VERTEX
  5
2027
  8
0
 10
21.1
 20
7.1
 30
125.0
 70
    64
  0
VERTEX
  5
2028
  8
0
 10
30.2
 20
3.4
 30
125.0
 70
    64
  0
VERTEX
  5
2029
  8
0
 10
40.0
 20
2.0
 30
125.0
 70
    64
  0
VERTEX
  5
202A
  8
0
 10
5.3
 20
40.0
 30
125.0
 70
    64
  0
VERTEX
  5
202B
  8
0
 10
6.5
 20
31.0
 30
125.0
 70
    64
  0
VERTEX
  5
202C
  8
0
 10
9.9
 20
22.7
 30
125.0
 70
    64
  0
VERTEX
  5
202D
  8
0
 10
15.5
 20
15.5
 30
125.0
 70
    64
  0
VERTEX
  5
202E
  8
0
 10
22.7
 20
9.9
 30
125.0
 70
    64
  0
VERTEX
  5
202F
  8
0
 10
31.0
 20
6.5
 30
125.0
 70
    64
  0
VERTEX
  5
2030
  8
0
 10
40.0
 20
5.3
 30
125.0
 70
    64
  0
VERTEX
  5
2031
  8
0
 10
5.3
 20
40.0
 30
100.0
 70
    64
  0
VERTEX
  5
2032
  8
0
 10
6.5
 20
31.0
 30
100.0
 70
    64
  0
VERTEX
  5
2033
  8
0
 10
9.9
 20
22.7
 30
100.0
 70
    64
  0
VERTEX
  5
2034
  8
0
 10
15.5
 20
15.5
 30
100.0
 70
    64
  0
VERTEX
  5
2035
  8
0
 10
22.7
 20
9.9
 30
100.0
 70
    64
  0
VERTEX
  5
2036
  8
0
 10
31.0
 20
6.5
 30
100.0
 70
    64
  0
VERTEX
  5
2037
  8
0
 10
40.0
 20
5.3
 30
100.0
 70
    64
  0
SEQEND
  5
2038
  8
0
  0
POLYLINE
  5
2039
  8
0
 66
     1
 10
0.0
 20
0.0
 30
0.0
 70
    16
 71
    14
 72
     7
  0
VERTEX
  5
203A
  8
0
 10
40.0
 20
40.0
 30
0.0
 70
    64
  0
VERTEX
  5
203B
  8
0
 10
40.0
 20
40.0
 30
0.0
 70
    64
  0
VERTEX
  5
203C
  8
0
 10
40.0
 20
40.0
 30
0.0
 70
    64
  0
VERTEX
  5
203D
  8
0
 10
40.0
 20
40.0
 30
0.0
 70
    64
  0
VERTEX
  5
203E
  8
0
 10
40.0
 20
40.0
 30
0.0
 70
    64
  0
VERTEX
  5
203F
  8
0
 10
40.0
 20
40.0
 30
0.0
 70
    64
  0
VERTEX
  5
2040
  8
0
 10
40.0
 20
40.0
 30
0.0
 70
    64
  0
VERTEX
  5
2041
  8
0
 10
49.3
 20
40.0
 30
1.3
 70
    64
  0
VERTEX
  5
2042
  8
0
 10
49.0
 20
37.6
 30
1.3
 70
    64
  0
VERTEX
  5
2043
  8
0
 10
48.1
 20
35.4
 30
1.3
 70
    64
  0
VERTEX
  5
2044
  8
0
 10
46.6
 20
33.4
 30
1.3
 70
    64
  0
VERTEX
  5
2045
  8
0
 10
44.6
 20
31.9
 30
1.3
 70
    64
  0
VERTEX
  5
2046
  8
0
 10
42.4
 20
31.0
 30
1.3
 70
    64
  0
VERTEX
  5
2047
  8
0
 10
40.0
 20
30.7
 30
1.3
 70
    64
  0
VERTEX
  5
2048
  8
0
 10
58.0
 20
40.0
 30
5.0
 70
    64
  0
VERTEX
  5
2049
  8
0
 10
57.4
 20
35.4
 30
5.0
 70
    64
  0
VERTEX
  5
204A
  8
0
 10
55.6
 20
31.0
 30
5.0
 70
    64
  0
VERTEX
  5
204B
  8
0
 10
52.7
 20
27.3
 30
5.0
 70
    64
  0
VERTEX
  5
204C
  8
0
 10
49.0
 20
24.4
 30
5.0
 70
    64
  0
VERTEX
  5
204D
  8
0
 10
44.6
 20
22.6
 30
5.0
 70
    64
  0
VERTEX
  5
204E
  8
0
 10
40.0
 20
22.0
 30
5.0
 70
    64
  0
VERTEX
  5
204F
  8
0
 10
65.4
 20
40.0
 30
10.6
 70
    64
  0
VERTEX
  5
2050
  8
0
 10
64.5
 20
33.4
 30
10.6
 70
    64
  0
VERTEX
  5
2051
  8
0
 10
62.0
 20
27.4
 30
10.6
 70
    64
  0
VERTEX
  5
2052
  8
0
 10
57.9
 20
22.1
 30
10.6
 70
    64
  0
VERTEX
  5
2053
  8
0
 10
52.6
 20
18.0
 30
10.6
 70
    64
  0
VERTEX
  5
2054
  8
0
 10
46.6
 20
15.5
 30
10.6
 70
    64
  0
VERTEX
  5
2055
  8
0
 10
40.0
 20
14.6
 30
10.6
 70
    64
  0
VERTEX
  5
2056
  8
0
 10
71.1
 20
40.0
 30
18.1
 70
    64
  0
VERTEX
  5
2057
  8
0
 10
70.0
 20
32.0
 30
18.1
 70
    64
  0
VERTEX
  5
2058
  8
0
 10
66.9
 20
24.5
 30
18.1
 70
    64
  0
VERTEX
  5
2059
  8
0
 10
62.0
 20
18.0
 30
18.1
 70
    64
  0
VERTEX
  5
205A
  8
0
 10
55.5
 20
13.1
 30
18.1
 70
    64
  0
VERTEX
  5
205B
  8
0
 10
48.0
 20
10.0
 30
18.1
 70
    64
  0
VERTEX
  5
205C
  8
0
 10
40.0
 20
8.9
 30
18.1
 70
    64
  0
VERTEX
  5
205D
  8
0
 10
74.7
 20
40.0
 30
26.7
 70
    64
  0
VERTEX
  5
205E
  8
0
 10
73.5
 20
31.0
 30
26.7
 70
    64
  0
VERTEX
  5
205F
  8
0
 10
70.1
 20
22.7
 30
26.7
 70
    64
  0
VERTEX
  5
2060
  8
0
 10
64.5
 20
15.5
 30
26.7
 70
    64
  0
VERTEX
  5
2061
  8
0
 10
57.3
 20
9.9
 30
26.7
 70
    64
  0
VERTEX
  5
2062
  8
0
 10
49.0
 20
6.5
 30
26.7
 70
    64
  0
VERTEX
  5
2063
  8
0
 10
40.0
 20
5.3
 30
26.7
 70
    64
  0
VERTEX
  5
2064
  8
0
 10
76.0
 20
40.0
 30
36.0
 70
    64
  0
VERTEX
  5
2065
  8
0
 10
74.7
 20
30.7
 30
36.0
 70
    64
  0
VERTEX
  5
2066
  8
0
 10
71.2
 20
22.1
 30
36.0
 70
    64
  0
VERTEX
  5
2067
  8
0
 10
65.4
 20
14.6
 30
36.0
 70
    64
  0
VERTEX
  5
2068
  8
0
 10
57.9
 20
8.8
 30
36.0
 70
    64
  0
VERTEX
  5
2069
  8
0
 10
49.3
 20
5.3
 30
36.0
 70
    64
  0
VERTEX
  5
206A
  8
0
 10
40.0
 20
4.0
 30
36.0
 70
    64
  0
VERTEX
  5
206B
  8
0
 10
76.0
 20
40.0
 30
100.0
 70
    64
  0
VERTEX
  5
206C
  8
0
 10
74.7
 20
30.7
 30
100.0
 70
    64
  0
VERTEX
  5
206D
  8
0
 10
71.2
 20
22.1
 30
100.0
 70
    64
  0
VERTEX
  5
206E
  8
0
 10
65.4
 20
14.6
 30
100.0
 70
    64
  0
VERTEX
  5
206F
  8
0
 10
57.9
 20
8.8
 30
100.0
 70
    64
  0
VERTEX
  5
2070
  8
0
 10
49.3
 20
5.3
 30
100.0
 70
    64
  0
VERTEX
  5
2071
  8
0
 10
40.0
 20
4.0
 30
100.0
 70
    64
  0
VERTEX
  5
2072
  8
0
 10
78.0
 20
40.0
 30
100.0
 70
    64
  0
VERTEX
  5
2073
  8
0
 10
76.6
 20
30.2
 30
100.0
 70
    64
  0
VERTEX
  5
2074
  8
0
 10
72.9
 20
21.1
 30
100.0
 70
    64
  0
VERTEX
  5
2075
  8
0
 10
66.8
 20
13.2
 30
100.0
 70
    64
  0
VERTEX
  5
2076
  8
0
 10
58.9
 20
7.1
 30
100.0
 70
    64
  0
VERTEX
  5
2077
  8
0
 10
49.8
 20
3.4
 30
100.0
 70
    64
  0
VERTEX
  5
2078
  8
0
 10
40.0
 20
2.0
 30
100.0
 70
    64
  0
VERTEX
  5
2079
  8
0
 10
80.0
 20
40.0
 30
102.0
 70
    64
  0
VERTEX
  5
207A
  8
0
 10
78.6
 20
29.7
 30
102.0
 70
    64
  0
VERTEX
  5
207B
  8
0
 10
74.6
 20
20.1
 30
102.0
 70
    64
  0
VERTEX
  5
207C
  8
0
 10
68.2
 20
11.8
 30
102.0
 70
    64
  0
VERTEX
  5
207D
  8
0
 10
59.9
 20
5.4
 30
102.0
 70
    64
  0
VERTEX
  5
207E
  8
0
 10
50.3
 20
1.4
 30
102.0
 70
    64
  0
VERTEX
  5
207F
  8
0
 10
40.0
 20
0.0
 30
102.0
 70
    64
  0
VERTEX
  5
2080
  8
0
 10
80.0
 20
40.0
 30
123.0
 70
    64
  0
VERTEX
  5
2081
  8
0
 10
78.6
 20
29.7
 30
123.0
 70
    64
  0
VERTEX
  5
2082
  8
0
 10
74.6
 20
20.1
 30
123.0
 70
    64
  0
VERTEX
  5
2083
  8
0
 10
68.2
 20
11.8
 30
123.0
 70
    64
  0
VERTEX
  5
2084
  8
0
 10
59.9
 20
5.4
 30
123.0
 70
    64
  0
VERTEX
  5
2085
  8
0
 10
50.3
 20
1.4
 30
123.0
 70
    64
  0
VERTEX
  5
2086
  8
0
 10
40.0
 20
0.0
 30
123.0
 70
    64
  0
VERTEX
  5
2087
  8
0
 10
78.0
 20
40.0
 30
125.0
 70
    64
  0
VERTEX
  5
2088
  8
0
 10
76.6
 20
30.2
 30
125.0
 70
    64
  0
VERTEX
  5
2089
  8
0
 10
72.9
 20
21.1
 30
125.0
 70
    64
  0
VERTEX
  5
208A
  8
0
 10
66.8
 20
13.2
 30
125.0
 70
    64
  0
VERTEX
  5
208B
  8
0
 10
58.9
 20
7.1
 30
125.0
 70
    64
  0
VERTEX
  5
208C
  8
0
 10
49.8
 20
3.4
 30
125.0
 70
    64
  0
VERTEX
  5
208D
  8
0
 10
40.0
 20
2.0
 30
125.0
 70
    64
  0
VERTEX
  5
208E
  8
0
 10
74.7
 20
40.0
 30
125.0
 70
    64
  0
VERTEX
  5
208F
  8
0
 10
73.5
 20
31.0
 30
125.0
 70
    64
  0
VERTEX
  5
2090
  8
0
 10
70.1
 20
22.7
 30
125.0
 70
    64
  0
VERTEX
  5
2091
  8
0
 10
64.5
 20
15.5
 30
125.0
 70
    64
  0
VERTEX
  5
2092
  8
0
 10
57.3
 20
9.9
 30
125.0
 70
    64
  0
VERTEX
  5
2093
  8
0
 10
49.0
 20
6.5
 30
125.0
 70
    64
  0
VERTEX
  5
2094
  8
0
 10
40.0
 20
5.3
 30
125.0
 70
    64
  0
VERTEX
  5
2095
  8
0
 10
74.7
 20
40.0
 30
100.0
 70
    64
  0
VERTEX
  5
2096
  8
0
 10
73.5
 20
31.0
 30
100.0
 70
    64
  0
VERTEX
  5
2097
  8
0
 10
70.1
 20
22.7
 30
100.0
 70
    64
  0
VERTEX
  5
2098
  8
0
 10
64.5
 20
15.5
 30
100.0
 70
    64
  0
VERTEX
  5
2099
  8
0
 10
57.3
 20
9.9
 30
100.0
 70
    64
  0
VERTEX
  5
209A
  8
0
 10
49.0
 20
6.5
 30
100.0
 70
    64
  0
VERTEX
  5
209B
  8
0
 10
40.0
 20
5.3
 30
100.0
 70
    64
  0
SEQEND
  5
209C
  8
0
  0
POLYLINE
  5
209D
  8
0
 66
     1
 10
0.0
 20
0.0
 30
0.0
 70
    16
 71
    14
 72
     7
  0
VERTEX
  5
209E
  8
0
 10
40.0
 20
40.0
 30
0.0
 70
    64
  0
VERTEX
  5
209F
  8
0
 10
40.0
 20
40.0
 30
0.0
 70
    64
  0
VERTEX
  5
20A0
  8
0
 10
40.0
 20
40.0
 30
0.0
 70
    64
  0
VERTEX
  5
20A1
  8
0
 10
40.0
 20
40.0
 30
0.0
 70
    64
  0
VERTEX
  5
20A2
  8
0
 10
40.0
 20
40.0
 30
0.0
 70
    64
  0
VERTEX
  5
20A3
  8
0
 10
40.0
 20
40.0
 30
0.0
 70
    64
  0
VERTEX
  5
20A4
  8
0
 10
40.0
 20
40.0
 30
0.0
 70
    64
  0
VERTEX
  5
20A5
  8
0
 10
49.3
 20
40.0
 30
1.3
 70
    64
  0
VERTEX
  5
20A6
  8
0
 10
49.0
 20
42.4
 30
1.3
 70
    64
  0
VERTEX
  5
20A7
  8
0
 10
48.1
 20
44.6
 30
1.3
 70
    64
  0
VERTEX
  5
20A8
  8
0
 10
46.6
 20
46.6
 30
1.3
 70
    64
  0
VERTEX
  5
20A9
  8
0
 10
44.6
 20
48.1
 30
1.3
 70
    64
  0
VERTEX
  5
20AA
  8
0
 10
42.4
 20
49.0
 30
1.3
 70
    64
  0
VERTEX
  5
20AB
  8
0
 10
40.0
 20
49.3
 30
1.3
 70
    64
  0
VERTEX
  5
20AC
  8
0
 10
58.0
 20
40.0
 30
5.0
 70
    64
  0
VERTEX
  5
20AD
  8
0
 10
57.4
 20
44.6
 30
5.0
 70
    64
  0
VERTEX
  5
20AE
  8
0
 10
55.6
 20
49.0
 30
5.0
 70
    64
  0
VERTEX
  5
20AF
  8
0
 10
52.7
 20
52.7
 30
5.0
 70
    64
  0
VERTEX
  5
20B0
  8
0
 10
49.0
 20
55.6
 30
5.0
 70
    64
  0
VERTEX
  5
20B1
  8
0
 10
44.6
 20
57.4
 30
5.0
 70
    64
  0
VERTEX
  5
20B2
  8
0
 10
40.0
 20
58.0
 30
5.0
 70
    64
  0
VERTEX
  5
20B3
  8
0
 10
65.4
 20
40.0
 30
10.6
 70
    64
  0
VERTEX
  5
20B4
  8
0
 10
64.5
 20
46.6
 30
10.6
 70
    64
  0
VERTEX
  5
20B5
  8
0
 10
62.0
 20
52.6
 30
10.6
 70
    64
  0
VERTEX
  5
20B6
  8
0
 10
57.9
 20
57.9
 30
10.6
 70
    64
  0
VERTEX
  5
20B7
  8
0
 10
52.6
 20
62.0
 30
10.6
 70
    64
  0
VERTEX
  5
20B8
  8
0
 10
46.6
 20
64.5
 30
10.6
 70
    64
  0
VERTEX
  5
20B9
  8
0
 10
40.0
 20
65.4
 30
10.6
 70
    64
  0
VERTEX
  5
20BA
  8
0
 10
71.1
 20
40.0
 30
18.1
 70
    64
  0
VERTEX
  5
20BB
  8
0
 10
70.0
 20
48.0
 30
18.1
 70
    64
  0
VERTEX
  5
20BC
  8
0
 10
66.9
 20
55.5
 30
18.1
 70
    64
  0
VERTEX
  5
20BD
  8
0
 10
62.0
 20
62.0
 30
18.1
 70
    64
  0
VERTEX
  5
20BE
  8
0
 10
55.5
 20
66.9
 30
18.1
 70
    64
  0
VERTEX
  5
20BF
  8
0
 10
48.0
 20
70.0
 30
18.1
 70
    64
  0
VERTEX
  5
20C0
  8
0
 10
40.0
 20
71.1
 30
18.1
 70
    64
  0
VERTEX
  5
20C1
  8
0
 10
74.7
 20
40.0
 30
26.7
 70
    64
  0
VERTEX
  5
20C2
  8
0
 10
73.5
 20
49.0
 30
26.7
 70
    64
  0
VERTEX
  5
20C3
  8
0
 10
70.1
 20
57.3
 30
26.7
 70
    64
  0
VERTEX
  5
20C4
  8
0
 10
64.5
 20
64.5
 30
26.7
 70
    64
  0
VERTEX
  5
20C5
  8
0
 10
57.3
 20
70.1
 30
26.7
 70
    64
  0
VERTEX
  5
20C6
  8
0
 10
49.0
 20
73.5
 30
26.7
 70
    64
  0
VERTEX
  5
20C7
  8
0
 10
40.0
 20
74.7
 30
26.7
 70
    64
  0
VERTEX
  5
20C8
  8
0
 10
76.0
 20
40.0
 30
36.0
 70
    64
  0
VERTEX
  5
20C9
  8
0
 10
74.7
 20
49.3
 30
36.0
 70
    64
  0
VERTEX
  5
20CA
  8
0
 10
71.2
 20
57.9
 30
36.0
 70
    64
  0
VERTEX
  5
20CB
  8
0
 10
65.4
 20
65.4
 30
36.0
 70
    64
  0
VERTEX
  5
20CC
  8
0
 10
57.9
 20
71.2
 30
36.0
 70
    64
  0
VERTEX
  5
20CD
  8
0
 10
49.3
 20
74.7
 30
36.0
 70
    64
  0
VERTEX
  5
20CE
  8
0
 10
40.0
 20
76.0
 30
36.0
 70
    64
  0
VERTEX
  5
20CF
  8
0
 10
76.0
 20
40.0
 30
100.0
 70
    64
  0
VERTEX
  5
20D0
  8
0
 10
74.7
 20
49.3
 30
100.0
 70
    64
  0
VERTEX
  5
20D1
  8
0
 10
71.2
 20
57.9
 30
100.0
 70
    64
  0
VERTEX
  5
20D2
  8
0
 10
65.4
 20
65.4
 30
100.0
 70
    64
  0
VERTEX
  5
20D3
  8
0
 10
57.9
 20
71.2
 30
100.0
 70
    64
  0
VERTEX
  5
20D4
  8
0
 10
49.3
 20
74.7
 30
100.0
 70
    64
  0
VERTEX
  5
20D5
  8
0
 10
40.0
 20
76.0
 30
100.0
 70
    64
  0
VERTEX
  5
20D6
  8
0
 10
78.0
 20
40.0
 30
100.0
 70
    64
  0
VERTEX
  5
20D7
  8
0
 10
76.6
 20
49.8
 30
100.0
 70
    64
  0
VERTEX
  5
20D8
  8
0
 10
72.9
 20
58.9
 30
100.0
 70
    64
  0
VERTEX
  5
20D9
  8
0
 10
66.8
 20
66.8
 30
100.0
 70
    64
  0
VERTEX
  5
20DA
  8
0
 10
58.9
 20
72.9
 30
100.0
 70
    64
  0
VERTEX
  5
20DB
  8
0
 10
49.8
 20
76.6
 30
100.0
 70
    64
  0
VERTEX
  5
20DC
  8
0
 10
40.0
 20
78.0
 30
100.0
 70
    64
  0
VERTEX
  5
20DD
  8
0
 10
80.0
 20
40.0
 30
102.0
 70
    64
  0
VERTEX
  5
20DE
  8
0
 10
78.6
 20
50.3
 30
102.0
 70
    64
  0
VERTEX
  5
20DF
  8
0
 10
74.6
 20
59.9
 30
102.0
 70
    64
  0
VERTEX
  5
20E0
  8
0
 10
68.2
 20
68.2
 30
102.0
 70
    64
  0
VERTEX
  5
20E1
  8
0
 10
59.9
 20
74.6
 30
102.0
 70
    64
  0
VERTEX
  5
20E2
  8
0
 10
50.3
 20
78.6
 30
102.0
 70
    64
  0
VERTEX
  5
20E3
  8
0
 10
40.0
 20
80.0
 30
102.0
 70
    64
  0
VERTEX
  5
20E4
  8
0
 10
80.0
 20
40.0
 30
123.0
 70
    64
  0
VERTEX
  5
20E5
  8
0
 10
78.6
 20
50.3
 30
123.0
 70
    64
  0
VERTEX
  5
20E6
  8
0
 10
74.6
 20
59.9
 30
123.0
 70
    64
  0
VERTEX
  5
20E7
  8
0
 10
68.2
 20
68.2
 30
123.0
 70
    64
  0
VERTEX
  5
20E8
  8
0
 10
59.9
 20
74.6
 30
123.0
 70
    64
  0
VERTEX
  5
20E9
  8
0
 10
50.3
 20
78.6
 30
123.0
 70
    64
  0
VERTEX
  5
20EA
  8
0
 10
40.0
 20
80.0
 30
123.0
 70
    64
  0
VERTEX
  5
20EB
  8
0
 10
78.0
 20
40.0
 30
125.0
 70
    64
  0
VERTEX
  5
20EC
  8
0
 10
76.6
 20
49.8
 30
125.0
 70
    64
  0
VERTEX
  5
20ED
  8
0
 10
72.9
 20
58.9
 30
125.0
 70
    64
  0
VERTEX
  5
20EE
  8
0
 10
66.8
 20
66.8
 30
125.0
 70
    64
  0
VERTEX
  5
20EF
  8
0
 10
58.9
 20
72.9
 30
125.0
 70
    64
  0
VERTEX
  5
20F0
  8
0
 10
49.8
 20
76.6
 30
125.0
 70
    64
  0
VERTEX
  5
20F1
  8
0
 10
40.0
 20
78.0
 30
125.0
 70
    64
  0
VERTEX
  5
20F2
  8
0
 10
74.7
 20
40.0
 30
125.0
 70
    64
  0
VERTEX
  5
20F3
  8
0
 10
73.5
 20
49.0
 30
125.0
 70
    64
  0
VERTEX
  5
20F4
  8
0
 10
70.1
 20
57.3
 30
125.0
 70
    64
  0
VERTEX
  5
20F5
  8
0
 10
64.5
 20
64.5
 30
125.0
 70
    64
  0
VERTEX
  5
20F6
  8
0
 10
57.3
 20
70.1
 30
125.0
 70
    64
  0
VERTEX
  5
20F7
  8
0
 10
49.0
 20
73.5
 30
125.0
 70
    64
  0
VERTEX
  5
20F8
  8
0
 10
40.0
 20
74.7
 30
125.0
 70
    64
  0
VERTEX
  5
20F9
  8
0
 10
74.7
 20
40.0
 30
100.0
 70
    64
  0
VERTEX
  5
20FA
  8
0
 10
73.5
 20
49.0
 30
100.0
 70
    64
  0
VERTEX
  5
20FB
  8
0
 10
70.1
 20
57.3
 30
100.0
 70
    64
  0
VERTEX
  5
20FC
  8
0
 10
64.5
 20
64.5
 30
100.0
 70
    64
  0
VERTEX
  5
20FD
  8
0
 10
57.3
 20
70.1
 30
100.0
 70
    64
  0
VERTEX
  5
20FE
  8
0
 10
49.0
 20
73.5
 30
100.0
 70
    64
  0
VERTEX
  5
20FF
  8
0
 10
40.0
 20
74.7
 30
100.0
 70
    64
  0
SEQEND
  5
2100
  8
0
  0
POLYLINE
  5
2101
  8
0
 66
     1
 10
0.0
 20
0.0
 30
0.0
 70
    16
 71
    14
 72
     7
  0
VERTEX
  5
2102
  8
0
 10
40.0
 20
40.0
 30
0.0
 70
    64
  0
VERTEX
  5
2103
  8
0
 10
40.0
 20
40.0
 30
0.0
 70
    64
  0
VERTEX
  5
2104
  8
0
 10
40.0
 20
40.0
 30
0.0
 70
    64
  0
VERTEX
  5
2105
  8
0
 10
40.0
 20
40.0
 30
0.0
 70
    64
  0
VERTEX
  5
2106
  8
0
 10
40.0
 20
40.0
 30
0.0
 70
    64
  0
VERTEX
  5
2107
  8
0
 10
40.0
 20
40.0
 30
0.0
 70
    64
  0
VERTEX
  5
2108
  8
0
 10
40.0
 20
40.0
 30
0.0
 70
    64
  0
VERTEX
  5
2109
  8
0
 10
30.7
 20
40.0
 30
1.3
 70
    64
  0
VERTEX
  5
210A
  8
0
 10
31.0
 20
42.4
 30
1.3
 70
    64
  0
VERTEX
  5
210B
  8
0
 10
31.9
 20
44.6
 30
1.3
 70
    64
  0
VERTEX
  5
210C
  8
0
 10
33.4
 20
46.6
 30
1.3
 70
    64
  0
VERTEX
  5
210D
  8
0
 10
35.4
 20
48.1
 30
1.3
 70
    64
  0
VERTEX
  5
210E
  8
0
 10
37.6
 20
49.0
 30
1.3
 70
    64
  0
VERTEX
  5
210F
  8
0
 10
40.0
 20
49.3
 30
1.3
 70
    64
  0
VERTEX
  5
2110
  8
0
 10
22.0
 20
40.0
 30
5.0
 70
    64
  0
VERTEX
  5
2111
  8
0
 10
22.6
 20
44.6
 30
5.0
 70
    64
  0
VERTEX
  5
2112
  8
0
 10
24.4
 20
49.0
 30
5.0
 70
    64
  0
VERTEX
  5
2113
  8
0
 10
27.3
 20
52.7
 30
5.0
 70
    64
  0
VERTEX
  5
2114
  8
0
 10
31.0
 20
55.6
 30
5.0
 70
    64
  0
VERTEX
  5
2115
  8
0
 10
35.4
 20
57.4
 30
5.0
 70
    64
  0
VERTEX
  5
2116
  8
0
 10
40.0
 20
58.0
 30
5.0
 70
    64
  0
VERTEX
  5
2117
  8
0
 10
14.6
 20
40.0
 30
10.6
 70
    64
  0
VERTEX
  5
2118
  8
0
 10
15.5
 20
46.6
 30
10.6
 70
    64
  0
VERTEX
  5
2119
  8
0
 10
18.0
 20
52.6
 30
10.6
 70
    64
  0
VERTEX
  5
211A
  8
0
 10
22.1
 20
57.9
 30
10.6
 70
    64
  0
VERTEX
  5
211B
  8
0
 10
27.4
 20
62.0
 30
10.6
 70
    64
  0
VERTEX
  5
211C
  8
0
 10
33.4
 20
64.5
 30
10.6
 70
    64
  0
VERTEX
  5
211D
  8
0
 10
40.0
 20
65.4
 30
10.6
 70
    64
  0
VERTEX
  5
211E
  8
0
 10
8.9
 20
40.0
 30
18.1
 70
    64
  0
VERTEX
  5
211F
  8
0
 10
10.0
 20
48.0
 30
18.1
 70
    64
  0
VERTEX
  5
2120
  8
0
 10
13.1
 20
55.5
 30
18.1
 70
    64
  0
VERTEX
  5
2121
  8
0
 10
18.0
 20
62.0
 30
18.1
 70
    64
  0
VERTEX
  5
2122
  8
0
 10
24.5
 20
66.9
 30
18.1
 70
    64
  0
VERTEX
  5
2123
  8
0
 10
32.0
 20
70.0
 30
18.1
 70
    64
  0
VERTEX
  5
2124
  8
0
 10
40.0
 20
71.1
 30
18.1
 70
    64
  0
VERTEX
  5
2125
  8
0
 10
5.3
 20
40.0
 30
26.7
 70
    64
  0
VERTEX
  5
2126
  8
0
 10
6.5
 20
49.0
 30
26.7
 70
    64
  0
VERTEX
  5
2127
  8
0
 10
9.9
 20
57.3
 30
26.7
 70
    64
  0
VERTEX
  5
2128
  8
0
 10
15.5
 20
64.5
 30
26.7
 70
    64
  0
VERTEX
  5
2129
  8
0
 10
22.7
 20
70.1
 30
26.7
 70
    64
  0
VERTEX
  5
212A
  8
0
 10
31.0
 20
73.5
 30
26.7
 70
    64
  0
VERTEX
  5
212B
  8
0
 10
40.0
 20
74.7
 30
26.7
 70
    64
  0
VERTEX
  5
212C
  8
0
 10
4.0
 20
40.0
 30
36.0
 70
    64
  0
VERTEX
  5
212D
  8
0
 10
5.3
 20
49.3
 30
36.0
 70
    64
  0
VERTEX
  5
212E
  8
0
 10
8.8
 20
57.9
 30
36.0
 70
    64
  0
VERTEX
  5
212F
  8
0
 10
14.6
 20
65.4
 30
36.0
 70
    64
  0
VERTEX
  5
2130
  8
0
 10
22.1
 20
71.2
 30
36.0
 70
    64
  0
VERTEX
  5
2131
  8
0
 10
30.7
 20
74.7
 30
36.0
 70
    64
  0
VERTEX
  5
2132
  8
0
 10
40.0
 20
76.0
 30
36.0
 70
    64
  0
VERTEX
  5
2133
  8
0
 10
4.0
 20
40.0
 30
100.0
 70
    64
  0
VERTEX
  5
2134
  8
0
 10
5.3
 20
49.3
 30
100.0
 70
    64
  0
VERTEX
  5
2135
  8
0
 10
8.8
 20
57.9
 30
100.0
 70
    64
  0
VERTEX
  5
2136
  8
0
 10
14.6
 20
65.4
 30
100.0
 70
    64
  0
VERTEX
  5
2137
  8
0
 10
22.1
 20
71.2
 30
100.0
 70
    64
  0
VERTEX
  5
2138
  8
0
 10
30.7
 20
74.7
 30
100.0
 70
    64
  0
VERTEX
  5
2139
  8
0
 10
40.0
 20
76.0
 30
100.0
 70
    64
  0
VERTEX
  5
213A
  8
0
 10
2.0
 20
40.0
 30
100.0
 70
    64
  0
VERTEX
  5
213B
  8
0
 10
3.4
 20
49.8
 30
100.0
 70
    64
  0
VERTEX
  5
213C
  8
0
 10
7.1
 20
58.9
 30
100.0
 70
    64
  0
VERTEX
  5
213D
  8
0
 10
13.2
 20
66.8
 30
100.0
 70
    64
  0
VERTEX
  5
213E
  8
0
 10
21.1
 20
72.9
 30
100.0
 70
    64
  0
VERTEX
  5
213F
  8
0
 10
30.2
 20
76.6
 30
100.0
 70
    64
  0
VERTEX
  5
2140
  8
0
 10
40.0
 20
78.0
 30
100.0
 70
    64
  0
VERTEX
  5
2141
  8
0
 10
0.0
 20
40.0
 30
102.0
 70
    64
  0
VERTEX
  5
2142
  8
0
 10
1.4
 20
50.3
 30
102.0
 70
    64
  0
VERTEX
  5
2143
  8
0
 10
5.4
 20
59.9
 30
102.0
 70
    64
  0
VERTEX
  5
2144
  8
0
 10
11.8
 20
68.2
 30
102.0
 70
    64
  0
VERTEX
  5
2145
  8
0
 10
20.1
 20
74.6
 30
102.0
 70
    64
  0
VERTEX
  5
2146
  8
0
 10
29.7
 20
78.6
 30
102.0
 70
    64
  0
VERTEX
  5
2147
  8
0
 10
40.0
 20
80.0
 30
102.0
 70
    64
  0
VERTEX
  5
2148
  8
0
 10
0.0
 20
40.0
 30
123.0
 70
    64
  0
VERTEX
  5
2149
  8
0
 10
1.4
 20
50.3
 30
123.0
 70
    64
  0
VERTEX
  5
214A
  8
0
 10
5.4
 20
59.9
 30
123.0
 70
    64
  0
VERTEX
  5
214B
  8
0
 10
11.8
 20
68.2
 30
123.0
 70
    64
  0
VERTEX
  5
214C
  8
0
 10
20.1
 20
74.6
 30
123.0
 70
    64
  0
VERTEX
  5
214D
  8
0
 10
29.7
 20
78.6
 30
123.0
 70
    64
  0
VERTEX
  5
214E
  8
0
 10
40.0
 20
80.0
 30
123.0
 70
    64
  0
VERTEX
  5
214F
  8
0
 10
2.0
 20
40.0
 30
125.0
 70
    64
  0
VERTEX
  5
2150
  8
0
 10
3.4
 20
49.8
 30
125.0
 70
    64
  0
VERTEX
  5
2151
  8
0
 10
7.1
 20
58.9
 30
125.0
 70
    64
  0
VERTEX
  5
2152
  8
0
 10
13.2
 20
66.8
 30
125.0
 70
    64
  0
VERTEX
  5
2153
  8
0
 10
21.1
 20
72.9
 30
125.0
 70
    64
  0
VERTEX
  5
2154
  8
0
 10
30.2
 20
76.6
 30
125.0
 70
    64
  0
VERTEX
  5
2155
  8
0
 10
40.0
 20
78.0
 30
125.0
 70
    64
  0
VERTEX
  5
2156
  8
0
 10
5.3
 20
40.0
 30
125.0
 70
    64
  0
VERTEX
  5
2157
  8
0
 10
6.5
 20
49.0
 30
125.0
 70
    64
  0
VERTEX
  5
2158
  8
0
 10
9.9
 20
57.3
 30
125.0
 70
    64
  0
VERTEX
  5
2159
  8
0
 10
15.5
 20
64.5
 30
125.0
 70
    64
  0
VERTEX
  5
215A
  8
0
 10
22.7
 20
70.1
 30
125.0
 70
    64
  0
VERTEX
  5
215B
  8
0
 10
31.0
 20
73.5
 30
125.0
 70
    64
  0
VERTEX
  5
215C
  8
0
 10
40.0
 20
74.7
 30
125.0
 70
    64
  0
VERTEX
  5
215D
  8
0
 10
5.3
 20
40.0
 30
100.0
 70
    64
  0
VERTEX
  5
215E
  8
0
 10
6.5
 20
49.0
 30
100.0
 70
    64
  0
VERTEX
  5
215F
  8
0
 10
9.9
 20
57.3
 30
100.0
 70
    64
  0
VERTEX
  5
2160
  8
0
 10
15.5
 20
64.5
 30
100.0
 70
    64
  0
VERTEX
  5
2161
  8
0
 10
22.7
 20
70.1
 30
100.0
 70
    64
  0
VERTEX
  5
2162
  8
0
 10
31.0
 20
73.5
 30
100.0
 70
    64
  0
VERTEX
  5
2163
  8
0
 10
40.0
 20
74.7
 30
100.0
 70
    64
  0
SEQEND
  5
2164
  8
0
  0
POLYLINE
  5
2175
  8
0
 66
     1
 10
0.0
 20
0.0
 30
0.0
 70
    16
 71
     6
 72
     7
  0
VERTEX
  5
2176
  8
0
 10
30.0
 20
40.0
 30
346.0
 70
    64
  0
VERTEX
  5
2177
  8
0
 10
30.4
 20
37.4
 30
346.0
 70
    64
  0
VERTEX
  5
2178
  8
0
 10
31.3
 20
35.0
 30
346.0
 70
    64
  0
VERTEX
  5
2179
  8
0
 10
32.9
 20
32.9
 30
346.0
 70
    64
  0
VERTEX
  5
217A
  8
0
 10
35.0
 20
31.3
 30
346.0
 70
    64
  0
VERTEX
  5
217B
  8
0
 10
37.4
 20
30.4
 30
346.0
 70
    64
  0
VERTEX
  5
217C
  8
0
 10
40.0
 20
30.0
 30
346.0
 70
    64
  0
VERTEX
  5
217D
  8
0
 10
28.0
 20
40.0
 30
346.0
 70
    64
  0
VERTEX
  5
217E
  8
0
 10
28.4
 20
36.9
 30
346.0
 70
    64
  0
VERTEX
  5
217F
  8
0
 10
29.6
 20
34.0
 30
346.0
 70
    64
  0
VERTEX
  5
2180
  8
0
 10
31.5
 20
31.5
 30
346.0
 70
    64
  0
VERTEX
  5
2181
  8
0
 10
34.0
 20
29.6
 30
346.0
 70
    64
  0
VERTEX
  5
2182
  8
0
 10
36.9
 20
28.4
 30
346.0
 70
    64
  0
VERTEX
  5
2183
  8
0
 10
40.0
 20
28.0
 30
346.0
 70
    64
  0
VERTEX
  5
2184
  8
0
 10
27.0
 20
40.0
 30
347.0
 70
    64
  0
VERTEX
  5
2185
  8
0
 10
27.5
 20
36.6
 30
347.0
 70
    64
  0
VERTEX
  5
2186
  8
0
 10
28.7
 20
33.5
 30
347.0
 70
    64
  0
VERTEX
  5
2187
  8
0
 10
30.8
 20
30.8
 30
347.0
 70
    64
  0
VERTEX
  5
2188
  8
0
 10
33.5
 20
28.7
 30
347.0
 70
    64
  0
VERTEX
  5
2189
  8
0
 10
36.6
 20
27.5
 30
347.0
 70
    64
  0
VERTEX
  5
218A
  8
0
 10
40.0
 20
27.0
 30
347.0
 70
    64
  0
VERTEX
  5
218B
  8
0
 10
27.0
 20
40.0
 30
349.0
 70
    64
  0
VERTEX
  5
218C
  8
0
 10
27.5
 20
36.6
 30
349.0
 70
    64
  0
VERTEX
  5
218D
  8
0
 10
28.7
 20
33.5
 30
349.0
 70
    64
  0
VERTEX
  5
218E
  8
0
 10
30.8
 20
30.8
 30
349.0
 70
    64
  0
VERTEX
  5
218F
  8
0
 10
33.5
 20
28.7
 30
349.0
 70
    64
  0
VERTEX
  5
2190
  8
0
 10
36.6
 20
27.5
 30
349.0
 70
    64
  0
VERTEX
  5
2191
  8
0
 10
40.0
 20
27.0
 30
349.0
 70
    64
  0
VERTEX
  5
2192
  8
0
 10
28.0
 20
40.0
 30
350.0
 70
    64
  0
VERTEX
  5
2193
  8
0
 10
28.4
 20
36.9
 30
350.0
 70
    64
  0
VERTEX
  5
2194
  8
0
 10
29.6
 20
34.0
 30
350.0
 70
    64
  0
VERTEX
  5
2195
  8
0
 10
31.5
 20
31.5
 30
350.0
 70
    64
  0
VERTEX
  5
2196
  8
0
 10
34.0
 20
29.6
 30
350.0
 70
    64
  0
VERTEX
  5
2197
  8
0
 10
36.9
 20
28.4
 30
350.0
 70
    64
  0
VERTEX
  5
2198
  8
0
 10
40.0
 20
28.0
 30
350.0
 70
    64
  0
VERTEX
  5
2199
  8
0
 10
40.0
 20
40.0
 30
350.0
 70
    64
  0
VERTEX
  5
219A
  8
0
 10
40.0
 20
40.0
 30
350.0
 70
    64
  0
VERTEX
  5
219B
  8
0
 10
40.0
 20
40.0
 30
350.0
 70
    64
  0
VERTEX
  5
219C
  8
0
 10
40.0
 20
40.0
 30
350.0
 70
    64
  0
VERTEX
  5
219D
  8
0
 10
40.0
 20
40.0
 30
350.0
 70
    64
  0
VERTEX
  5
219E
  8
0
 10
40.0
 20
40.0
 30
350.0
 70
    64
  0
VERTEX
  5
219F
  8
0
 10
40.0
 20
40.0
 30
350.0
 70
    64
  0
SEQEND
  5
21A0
  8
0
  0
POLYLINE
  5
21B1
  8
0
 66
     1
 10
0.0
 20
0.0
 30
0.0
 70
    16
 71
     6
 72
     7
  0
VERTEX
  5
21B2
  8
0
 10
50.0
 20
40.0
 30
346.0
 70
    64
  0
VERTEX
  5
21B3
  8
0
 10
49.6
 20
37.4
 30
346.0
 70
    64
  0
VERTEX
  5
21B4
  8
0
 10
48.7
 20
35.0
 30
346.0
 70
    64
  0
VERTEX
  5
21B5
  8
0
 10
47.1
 20
32.9
 30
346.0
 70
    64
  0
VERTEX
  5
21B6
  8
0
 10
45.0
 20
31.3
 30
346.0
 70
    64
  0
VERTEX
  5
21B7
  8
0
 10
42.6
 20
30.4
 30
346.0
 70
    64
  0
VERTEX
  5
21B8
  8
0
 10
40.0
 20
30.0
 30
346.0
 70
    64
  0
VERTEX
  5
21B9
  8
0
 10
52.0
 20
40.0
 30
346.0
 70
    64
  0
VERTEX
  5
21BA
  8
0
 10
51.6
 20
36.9
 30
346.0
 70
    64
  0
VERTEX
  5
21BB
  8
0
 10
50.4
 20
34.0
 30
346.0
 70
    64
  0
VERTEX
  5
21BC
  8
0
 10
48.5
 20
31.5
 30
346.0
 70
    64
  0
VERTEX
  5
21BD
  8
0
 10
46.0
 20
29.6
 30
346.0
 70
    64
  0
VERTEX
  5
21BE
  8
0
 10
43.1
 20
28.4
 30
346.0
 70
    64
  0
VERTEX
  5
21BF
  8
0
 10
40.0
 20
28.0
 30
346.0
 70
    64
  0
VERTEX
  5
21C0
  8
0
 10
53.0
 20
40.0
 30
347.0
 70
    64
  0
VERTEX
  5
21C1
  8
0
 10
52.5
 20
36.6
 30
347.0
 70
    64
  0
VERTEX
  5
21C2
  8
0
 10
51.3
 20
33.5
 30
347.0
 70
    64
  0
VERTEX
  5
21C3
  8
0
 10
49.2
 20
30.8
 30
347.0
 70
    64
  0
VERTEX
  5
21C4
  8
0
 10
46.5
 20
28.7
 30
347.0
 70
    64
  0
VERTEX
  5
21C5
  8
0
 10
43.4
 20
27.5
 30
347.0
 70
    64
  0
VERTEX
  5
21C6
  8
0
 10
40.0
 20
27.0
 30
347.0
 70
    64
  0
VERTEX
  5
21C7
  8
0
 10
53.0
 20
40.0
 30
349.0
 70
    64
  0
VERTEX
  5
21C8
  8
0
 10
52.5
 20
36.6
 30
349.0
 70
    64
  0
VERTEX
  5
21C9
  8
0
 10
51.3
 20
33.5
 30
349.0
 70
    64
  0
VERTEX
  5
21CA
  8
0
 10
49.2
 20
30.8
 30
349.0
 70
    64
  0
VERTEX
  5
21CB
  8
0
 10
46.5
 20
28.7
 30
349.0
 70
    64
  0
VERTEX
  5
21CC
  8
0
 10
43.4
 20
27.5
 30
349.0
 70
    64
  0
VERTEX
  5
21CD
  8
0
 10
40.0
 20
27.0
 30
349.0
 70
    64
  0
VERTEX
  5
21CE
  8
0
 10
52.0
 20
40.0
 30
350.0
 70
    64
  0
VERTEX
  5
21CF
  8
0
 10
51.6
 20
36.9
 30
350.0
 70
    64
  0
VERTEX
  5
21D0
  8
0
 10
50.4
 20
34.0
 30
350.0
 70
    64
  0
VERTEX
  5
21D1
  8
0
 10
48.5
 20
31.5
 30
350.0
 70
    64
  0
VERTEX
  5
21D2
  8
0
 10
46.0
 20
29.6
 30
350.0
 70
    64
  0
VERTEX
  5
21D3
  8
0
 10
43.1
 20
28.4
 30
350.0
 70
    64
  0
VERTEX
  5
21D4
  8
0
 10
40.0
 20
28.0
 30
350.0
 70
    64
  0
VERTEX
  5
21D5
  8
0
 10
40.0
 20
40.0
 30
350.0
 70
    64
  0
VERTEX
  5
21D6
  8
0
 10
40.0
 20
40.0
 30
350.0
 70
    64
  0
VERTEX
  5
21D7
  8
0
 10
40.0
 20
40.0
 30
350.0
 70
    64
  0
VERTEX
  5
21D8
  8
0
 10
40.0
 20
40.0
 30
350.0
 70
    64
  0
VERTEX
  5
21D9
  8
0
 10
40.0
 20
40.0
 30
350.0
 70
    64
  0
VERTEX
  5
21DA
  8
0
 10
40.0
 20
40.0
 30
350.0
 70
    64
  0
VERTEX
  5
21DB
  8
0
 10
40.0
 20
40.0
 30
350.0
 70
    64
  0
SEQEND
  5
21DC
  8
0
  0
POLYLINE
  5
21DD
  8
0
 66
     1
 10
0.0
 20
0.0
 30
0.0
 70
    16
 71
     6
 72
     7
  0
VERTEX
  5
21DE
  8
0
 10
50.0
 20
40.0
 30
346.0
 70
    64
  0
VERTEX
  5
21DF
  8
0
 10
49.6
 20
42.6
 30
346.0
 70
    64
  0
VERTEX
  5
21E0
  8
0
 10
48.7
 20
45.0
 30
346.0
 70
    64
  0
VERTEX
  5
21E1
  8
0
 10
47.1
 20
47.1
 30
346.0
 70
    64
  0
VERTEX
  5
21E2
  8
0
 10
45.0
 20
48.7
 30
346.0
 70
    64
  0
VERTEX
  5
21E3
  8
0
 10
42.6
 20
49.6
 30
346.0
 70
    64
  0
VERTEX
  5
21E4
  8
0
 10
40.0
 20
50.0
 30
346.0
 70
    64
  0
VERTEX
  5
21E5
  8
0
 10
52.0
 20
40.0
 30
346.0
 70
    64
  0
VERTEX
  5
21E6
  8
0
 10
51.6
 20
43.1
 30
346.0
 70
    64
  0
VERTEX
  5
21E7
  8
0
 10
50.4
 20
46.0
 30
346.0
 70
    64
  0
VERTEX
  5
21E8
  8
0
 10
48.5
 20
48.5
 30
346.0
 70
    64
  0
VERTEX
  5
21E9
  8
0
 10
46.0
 20
50.4
 30
346.0
 70
    64
  0
VERTEX
  5
21EA
  8
0
 10
43.1
 20
51.6
 30
346.0
 70
    64
  0
VERTEX
  5
21EB
  8
0
 10
40.0
 20
52.0
 30
346.0
 70
    64
  0
VERTEX
  5
21EC
  8
0
 10
53.0
 20
40.0
 30
347.0
 70
    64
  0
VERTEX
  5
21ED
  8
0
 10
52.5
 20
43.4
 30
347.0
 70
    64
  0
VERTEX
  5
21EE
  8
0
 10
51.3
 20
46.5
 30
347.0
 70
    64
  0
VERTEX
  5
21EF
  8
0
 10
49.2
 20
49.2
 30
347.0
 70
    64
  0
VERTEX
  5
21F0
  8
0
 10
46.5
 20
51.3
 30
347.0
 70
    64
  0
VERTEX
  5
21F1
  8
0
 10
43.4
 20
52.5
 30
347.0
 70
    64
  0
VERTEX
  5
21F2
  8
0
 10
40.0
 20
53.0
 30
347.0
 70
    64
  0
VERTEX
  5
21F3
  8
0
 10
53.0
 20
40.0
 30
349.0
 70
    64
  0
VERTEX
  5
21F4
  8
0
 10
52.5
 20
43.4
 30
349.0
 70
    64
  0
VERTEX
  5
21F5
  8
0
 10
51.3
 20
46.5
 30
349.0
 70
    64
  0
VERTEX
  5
21F6
  8
0
 10
49.2
 20
49.2
 30
349.0
 70
    64
  0
VERTEX
  5
21F7
  8
0
 10
46.5
 20
51.3
 30
349.0
 70
    64
  0
VERTEX
  5
21F8
  8
0
 10
43.4
 20
52.5
 30
349.0
 70
    64
  0
VERTEX
  5
21F9
  8
0
 10
40.0
 20
53.0
 30
349.0
 70
    64
  0
VERTEX
  5
21FA
  8
0
 10
52.0
 20
40.0
 30
350.0
 70
    64
  0
VERTEX
  5
21FB
  8
0
 10
51.6
 20
43.1
 30
350.0
 70
    64
  0
VERTEX
  5
21FC
  8
0
 10
50.4
 20
46.0
 30
350.0
 70
    64
  0
VERTEX
  5
21FD
  8
0
 10
48.5
 20
48.5
 30
350.0
 70
    64
  0
VERTEX
  5
21FE
  8
0
 10
46.0
 20
50.4
 30
350.0
 70
    64
  0
VERTEX
  5
21FF
  8
0
 10
43.1
 20
51.6
 30
350.0
 70
    64
  0
VERTEX
  5
2200
  8
0
 10
40.0
 20
52.0
 30
350.0
 70
    64
  0
VERTEX
  5
2201
  8
0
 10
40.0
 20
40.0
 30
350.0
 70
    64
  0
VERTEX
  5
2202
  8
0
 10
40.0
 20
40.0
 30
350.0
 70
    64
  0
VERTEX
  5
2203
  8
0
 10
40.0
 20
40.0
 30
350.0
 70
    64
  0
VERTEX
  5
2204
  8
0
 10
40.0
 20
40.0
 30
350.0
 70
    64
  0
VERTEX
  5
2205
  8
0
 10
40.0
 20
40.0
 30
350.0
 70
    64
  0
VERTEX
  5
2206
  8
0
 10
40.0
 20
40.0
 30
350.0
 70
    64
  0
VERTEX
  5
2207
  8
0
 10
40.0
 20
40.0
 30
350.0
 70
    64
  0
SEQEND
  5
2208
  8
0
  0
POLYLINE
  5
2219
  8
0
 66
     1
 10
0.0
 20
0.0
 30
0.0
 70
    16
 71
     2
 72
     7
  0
VERTEX
  5
221A
  8
0
 10
30.0
 20
40.0
 30
135.0
 70
    64
  0
VERTEX
  5
221B
  8
0
 10
30.4
 20
42.6
 30
135.0
 70
    64
  0
VERTEX
  5
221C
  8
0
 10
31.3
 20
45.0
 30
135.0
 70
    64
  0
VERTEX
  5
221D
  8
0
 10
32.9
 20
47.1
 30
135.0
 70
    64
  0
VERTEX
  5
221E
  8
0
 10
35.0
 20
48.7
 30
135.0
 70
    64
  0
VERTEX
  5
221F
  8
0
 10
37.4
 20
49.6
 30
135.0
 70
    64
  0
VERTEX
  5
2220
  8
0
 10
40.0
 20
50.0
 30
135.0
 70
    64
  0
VERTEX
  5
2221
  8
0
 10
30.0
 20
40.0
 30
346.0
 70
    64
  0
VERTEX
  5
2222
  8
0
 10
30.4
 20
42.6
 30
346.0
 70
    64
  0
VERTEX
  5
2223
  8
0
 10
31.3
 20
45.0
 30
346.0
 70
    64
  0
VERTEX
  5
2224
  8
0
 10
32.9
 20
47.1
 30
346.0
 70
    64
  0
VERTEX
  5
2225
  8
0
 10
35.0
 20
48.7
 30
346.0
 70
    64
  0
VERTEX
  5
2226
  8
0
 10
37.4
 20
49.6
 30
346.0
 70
    64
  0
VERTEX
  5
2227
  8
0
 10
40.0
 20
50.0
 30
346.0
 70
    64
  0
SEQEND
  5
2228
  8
0
  0
POLYLINE
  5
2229
  8
0
 66
     1
 10
0.0
 20
0.0
 30
0.0
 70
    16
 71
     6
 72
     7
  0
VERTEX
  5
222A
  8
0
 10
30.0
 20
40.0
 30
346.0
 70
    64
  0
VERTEX
  5
222B
  8
0
 10
30.4
 20
42.6
 30
346.0
 70
    64
  0
VERTEX
  5
222C
  8
0
 10
31.3
 20
45.0
 30
346.0
 70
    64
  0
VERTEX
  5
222D
  8
0
 10
32.9
 20
47.1
 30
346.0
 70
    64
  0
VERTEX
  5
222E
  8
0
 10
35.0
 20
48.7
 30
346.0
 70
    64
  0
VERTEX
  5
222F
  8
0
 10
37.4
 20
49.6
 30
346.0
 70
    64
  0
VERTEX
  5
2230
  8
0
 10
40.0
 20
50.0
 30
346.0
 70
    64
  0
VERTEX
  5
2231
  8
0
 10
28.0
 20
40.0
 30
346.0
 70
    64
  0
VERTEX
  5
2232
  8
0
 10
28.4
 20
43.1
 30
346.0
 70
    64
  0
VERTEX
  5
2233
  8
0
 10
29.6
 20
46.0
 30
346.0
 70
    64
  0
VERTEX
  5
2234
  8
0
 10
31.5
 20
48.5
 30
346.0
 70
    64
  0
VERTEX
  5
2235
  8
0
 10
34.0
 20
50.4
 30
346.0
 70
    64
  0
VERTEX
  5
2236
  8
0
 10
36.9
 20
51.6
 30
346.0
 70
    64
  0
VERTEX
  5
2237
  8
0
 10
40.0
 20
52.0
 30
346.0
 70
    64
  0
VERTEX
  5
2238
  8
0
 10
27.0
 20
40.0
 30
347.0
 70
    64
  0
VERTEX
  5
2239
  8
0
 10
27.5
 20
43.4
 30
347.0
 70
    64
  0
VERTEX
  5
223A
  8
0
 10
28.7
 20
46.5
 30
347.0
 70
    64
  0
VERTEX
  5
223B
  8
0
 10
30.8
 20
49.2
 30
347.0
 70
    64
  0
VERTEX
  5
223C
  8
0
 10
33.5
 20
51.3
 30
347.0
 70
    64
  0
VERTEX
  5
223D
  8
0
 10
36.6
 20
52.5
 30
347.0
 70
    64
  0
VERTEX
  5
223E
  8
0
 10
40.0
 20
53.0
 30
347.0
 70
    64
  0
VERTEX
  5
223F
  8
0
 10
27.0
 20
40.0
 30
349.0
 70
    64
  0
VERTEX
  5
2240
  8
0
 10
27.5
 20
43.4
 30
349.0
 70
    64
  0
VERTEX
  5
2241
  8
0
 10
28.7
 20
46.5
 30
349.0
 70
    64
  0
VERTEX
  5
2242
  8
0
 10
30.8
 20
49.2
 30
349.0
 70
    64
  0
VERTEX
  5
2243
  8
0
 10
33.5
 20
51.3
 30
349.0
 70
    64
  0
VERTEX
  5
2244
  8
0
 10
36.6
 20
52.5
 30
349.0
 70
    64
  0
VERTEX
  5
2245
  8
0
 10
40.0
 20
53.0
 30
349.0
 70
    64
  0
VERTEX
  5
2246
  8
0
 10
28.0
 20
40.0
 30
350.0
 70
    64
  0
VERTEX
  5
2247
  8
0
 10
28.4
 20
43.1
 30
350.0
 70
    64
  0
VERTEX
  5
2248
  8
0
 10
29.6
 20
46.0
 30
350.0
 70
    64
  0
VERTEX
  5
2249
  8
0
 10
31.5
 20
48.5
 30
350.0
 70
    64
  0
VERTEX
  5
224A
  8
0
 10
34.0
 20
50.4
 30
350.0
 70
    64
  0
VERTEX
  5
224B
  8
0
 10
36.9
 20
51.6
 30
350.0
 70
    64
  0
VERTEX
  5
224C
  8
0
 10
40.0
 20
52.0
 30
350.0
 70
    64
  0
VERTEX
  5
224D
  8
0
 10
40.0
 20
40.0
 30
350.0
 70
    64
  0
VERTEX
  5
224E
  8
0
 10
40.0
 20
40.0
 30
350.0
 70
    64
  0
VERTEX
  5
224F
  8
0
 10
40.0
 20
40.0
 30
350.0
 70
    64
  0
VERTEX
  5
2250
  8
0
 10
40.0
 20
40.0
 30
350.0
 70
    64
  0
VERTEX
  5
2251
  8
0
 10
40.0
 20
40.0
 30
350.0
 70
    64
  0
VERTEX
  5
2252
  8
0
 10
40.0
 20
40.0
 30
350.0
 70
    64
  0
VERTEX
  5
2253
  8
0
 10
40.0
 20
40.0
 30
350.0
 70
    64
  0
SEQEND
  5
2254
  8
0
  0
POLYLINE
  5
2255
  8
0
 66
     1
 10
0.0
 20
0.0
 30
0.0
 70
    16
 71
     2
 72
     7
  0
VERTEX
  5
2256
  8
0
 10
50.0
 20
40.0
 30
135.0
 70
    64
  0
VERTEX
  5
2257
  8
0
 10
49.6
 20
42.6
 30
135.0
 70
    64
  0
VERTEX
  5
2258
  8
0
 10
48.7
 20
45.0
 30
135.0
 70
    64
  0
VERTEX
  5
2259
  8
0
 10
47.1
 20
47.1
 30
135.0
 70
    64
  0
VERTEX
  5
225A
  8
0
 10
45.0
 20
48.7
 30
135.0
 70
    64
  0
VERTEX
  5
225B
  8
0
 10
42.6
 20
49.6
 30
135.0
 70
    64
  0
VERTEX
  5
225C
  8
0
 10
40.0
 20
50.0
 30
135.0
 70
    64
  0
VERTEX
  5
225D
  8
0
 10
50.0
 20
40.0
 30
346.0
 70
    64
  0
VERTEX
  5
225E
  8
0
 10
49.6
 20
42.6
 30
346.0
 70
    64
  0
VERTEX
  5
225F
  8
0
 10
48.7
 20
45.0
 30
346.0
 70
    64
  0
VERTEX
  5
2260
  8
0
 10
47.1
 20
47.1
 30
346.0
 70
    64
  0
VERTEX
  5
2261
  8
0
 10
45.0
 20
48.7
 30
346.0
 70
    64
  0
VERTEX
  5
2262
  8
0
 10
42.6
 20
49.6
 30
346.0
 70
    64
  0
VERTEX
  5
2263
  8
0
 10
40.0
 20
50.0
 30
346.0
 70
    64
  0
SEQEND
  5
2264
  8
0
  0
POLYLINE
  5
2265
  8
0
 66
     1
 10
0.0
 20
0.0
 30
0.0
 70
    16
 71
     2
 72
     7
  0
VERTEX
  5
2266
  8
0
 10
30.0
 20
40.0
 30
135.0
 70
    64
  0
VERTEX
  5
2267
  8
0
 10
30.4
 20
37.4
 30
135.0
 70
    64
  0
VERTEX
  5
2268
  8
0
 10
31.3
 20
35.0
 30
135.0
 70
    64
  0
VERTEX
  5
2269
  8
0
 10
32.9
 20
32.9
 30
135.0
 70
    64
  0
VERTEX
  5
226A
  8
0
 10
35.0
 20
31.3
 30
135.0
 70
    64
  0
VERTEX
  5
226B
  8
0
 10
37.4
 20
30.4
 30
135.0
 70
    64
  0
VERTEX
  5
226C
  8
0
 10
40.0
 20
30.0
 30
135.0
 70
    64
  0
VERTEX
  5
226D
  8
0
 10
30.0
 20
40.0
 30
346.0
 70
    64
  0
VERTEX
  5
226E
  8
0
 10
30.4
 20
37.4
 30
346.0
 70
    64
  0
VERTEX
  5
226F
  8
0
 10
31.3
 20
35.0
 30
346.0
 70
    64
  0
VERTEX
  5
2270
  8
0
 10
32.9
 20
32.9
 30
346.0
 70
    64
  0
VERTEX
  5
2271
  8
0
 10
35.0
 20
31.3
 30
346.0
 70
    64
  0
VERTEX
  5
2272
  8
0
 10
37.4
 20
30.4
 30
346.0
 70
    64
  0
VERTEX
  5
2273
  8
0
 10
40.0
 20
30.0
 30
346.0
 70
    64
  0
SEQEND
  5
2274
  8
0
  0
POLYLINE
  5
2275
  8
0
 66
     1
 10
0.0
 20
0.0
 30
0.0
 70
    16
 71
     2
 72
     7
  0
VERTEX
  5
2276
  8
0
 10
50.0
 20
40.0
 30
135.0
 70
    64
  0
VERTEX
  5
2277
  8
0
 10
49.6
 20
37.4
 30
135.0
 70
    64
  0
VERTEX
  5
2278
  8
0
 10
48.7
 20
35.0
 30
135.0
 70
    64
  0
VERTEX
  5
2279
  8
0
 10
47.1
 20
32.9
 30
135.0
 70
    64
  0
VERTEX
  5
227A
  8
0
 10
45.0
 20
31.3
 30
135.0
 70
    64
  0
VERTEX
  5
227B
  8
0
 10
42.6
 20
30.4
 30
135.0
 70
    64
  0
VERTEX
  5
227C
  8
0
 10
40.0
 20
30.0
 30
135.0
 70
    64
  0
VERTEX
  5
227D
  8
0
 10
50.0
 20
40.0
 30
346.0
 70
    64
  0
VERTEX
  5
227E
  8
0
 10
49.6
 20
37.4
 30
346.0
 70
    64
  0
VERTEX
  5
227F
  8
0
 10
48.7
 20
35.0
 30
346.0
 70
    64
  0
VERTEX
  5
2280
  8
0
 10
47.1
 20
32.9
 30
346.0
 70
    64
  0
VERTEX
  5
2281
  8
0
 10
45.0
 20
31.3
 30
346.0
 70
    64
  0
VERTEX
  5
2282
  8
0
 10
42.6
 20
30.4
 30
346.0
 70
    64
  0
VERTEX
  5
2283
  8
0
 10
40.0
 20
30.0
 30
346.0
 70
    64
  0
SEQEND
  5
2284
  8
0
  0
INSERT
  5
228B
  8
ASHADE
 62
     1
  2
AVE_RENDER
 10
0.0
 20
0.0
 30
0.0
1001
AVE_RENDER
1002
{
1070
     7
1000
Pref
1070
    30
1070
    20
1070
     1
1070
     0
1000

1070
    10
1070
     1
1070
    10
1040
1.0
1070
     1
1040
0.3
1040
0.7
1040
0.0
1040
10.0
1010
-1.0
1020
-1.0
1030
-1.0
1040
0.3
1070
    49
1070
     0
1070
     0
1010
1.0
1020
1.0
1030
1.0
1040
45.0
1070
     1
1070
     0
1000
WCS
1040
0.0
1070
     0
1040
10.0
1002
}
  0
INSERT
  5
228C
  8
ASHADE
 62
     3
  2
AVE_RENDER
 10
0.0
 20
0.0
 30
0.0
1001
AVE_RENDER
1002
{
1070
     0
1000
Full Opt
1070
     0
1070
     1
1070
     1
1070
     1
1070
     0
1070
     0
1070
     0
1070
     1
1070
     1
1040
0.0001
1040
0.0001
1002
}
  0
INSERT
  5
228D
  8
ASHADE
 62
     4
  2
AVE_RENDER
 10
0.0
 20
0.0
 30
0.0
1001
AVE_RENDER
1002
{
1070
     0
1000
Quick Opt
1070
     0
1070
     1
1070
     1
1070
     1
1070
     0
1070
     0
1070
     1
1002
}
  0
INSERT
  5
228E
  8
ASHADE
 62
     5
  2
AVE_RENDER
 10
0.0
 20
0.0
 30
0.0
1001
AVE_RENDER
1002
{
1070
     1
1000
Scanl Opt
1070
     2
1070
     0
1070
     2
1040
2.0
1040
4.0
1070
     0
1070
     1
1070
     0
1040
0.03
1002
}
  0
INSERT
  5
228F
  8
ASHADE
 62
     6
  2
AVE_RENDER
 10
0.0
 20
0.0
 30
0.0
1001
AVE_RENDER
1002
{
1070
     2
1000
Raytr Opt
1070
     2
1070
     0
1070
     2
1040
2.0
1040
4.0
1070
     0
1070
     1
1070
     1
1040
0.03
1070
     3
1040
0.03
1002
}
  0
INSERT
  5
2290
  8
ASHADE
 62
     7
  2
AVE_RENDER
 10
0.0
 20
0.0
 30
0.0
1001
AVE_RENDER
1002
{
1070
     0
1000
RFile Opt
1070
     1
1070
   640
1070
   480
1070
 10000
1070
     1
1070
     8
1070
     8
1070
     0
1070
     0
1070
     0
1070
     0
1070
     0
1070
     0
1070
     0
1002
}
  0
INSERT
  5
2291
  8
ASHADE
 62
     8
  2
AVE_RENDER
 10
0.0
 20
0.0
 30
0.0
1001
AVE_RENDER
1002
{
1070
     0
1000
Fog Opt
1070
     0
1070
     0
1040
0.0
1040
1.0
1040
0.0
1040
1.0
1010
0.5
1020
0.5
1030
0.5
1002
}
  0
INSERT
  5
2292
  8
ASHADE
 62
     9
  2
AVE_RENDER
 10
0.0
 20
0.0
 30
0.0
1001
AVE_RENDER
1002
{
1070
     0
1000
BG Opt
1070
     0
1070
     1
1010
0.0
1020
0.0
1030
0.0
1010
1.0
1020
0.0
1030
0.0
1010
0.0
1020
1.0
1030
0.0
1010
0.0
1020
0.0
1030
1.0
1040
0.5
1040
0.33
1040
0.0
1000

1070
     1
1000

1070
     1
1070
     1
1040
1.0
1040
1.0
1040
0.0
1040
0.0
1070
     0
1002
}
  0
INSERT
  5
2293
  8
ASHADE
 62
     1
  2
AVE_GLOBAL
 10
0.0
 20
0.0
 30
0.0
1001
AVE_MATERIAL
1002
{
1000
*GLOBAL*
1000
1
1000
Global finish.
1002
{
1002
}
1002
{
1070
    63
1002
{
1002
{
1010
-1.0
1020
-1.0
1030
-1.0
1002
}
1040
0.1
1000

1040
0.0
1002
{
1002
}
1040
0.0
1002
{
1002
}
1040
0.0
1002
}
1002
{
1002
{
1010
-1.0
1020
-1.0
1030
-1.0
1002
}
1040
0.7
1000

1040
0.0
1002
{
1002
}
1040
0.0
1002
{
1002
}
1040
0.0
1002
}
1002
{
1002
{
1010
-1.0
1020
-1.0
1030
-1.0
1002
}
1040
0.2
1000

1040
0.0
1002
{
1002
}
1040
0.0
1002
{
1002
}
1040
0.0
1002
}
1002
{
1070
     0
1002
{
1070
     1
1002
{
1040
1.0
1040
1.0
1000

1040
0.0
1002
{
1002
}
1040
0.0
1002
{
1002
}
1040
0.0
1002
}
1002
}
1040
1.0
1040
0.0
1040
0.0
1002
}
1002
{
1040
1.0
1040
1.0
1000

1040
0.0
1002
{
1002
}
1040
0.0
1002
{
1002
}
1040
0.0
1002
}
1002
{
1040
0.5
1040
1.0
1000

1040
0.0
1002
{
1002
}
1040
0.0
1002
{
1002
}
1040
0.0
1002
}
1002
{
1070
     0
1040
0.0
1002
{
1002
}
1040
1.0
1002
{
1002
}
1040
0.0
1002
}
1002
{
1040
0.0
1002
{
1002
{
1010
0.0
1020
0.0
1030
0.0
1002
}
1040
1.0
1000

1040
0.0
1002
{
1002
}
1040
0.0
1002
{
1002
}
1040
0.0
1002
}
1002
}
1002
{
1002
{
1070
     1
1002
{
1040
0.0
1040
1.0
1000

1040
0.0
1002
{
1002
}
1040
0.0
1002
{
1002
}
1040
0.0
1002
}
1002
}
1040
0.0
1002
{
1002
}
1010
1.0
1020
0.0
1030
0.0
1010
0.0
1020
1.0
1030
0.0
1010
0.0
1020
0.0
1030
1.0
1070
     0
1002
}
1002
{
1002
{
1040
1.0
1040
1.0
1002
{
1070
     1
1002
{
1040
1.0
1040
1.0
1000

1040
0.0
1002
{
1002
}
1040
0.0
1002
{
1002
}
1040
0.0
1002
}
1002
}
1002
}
1070
     0
1040
0.0
1002
{
1002
}
1002
}
1002
{
1002
}
1002
}
1002
{
1071
        3
1070
     3
1070
     0
1002
{
1070
     2
1070
     0
1070
     0
1040
0.0
1002
}
1070
     0
1070
     2
1002
{
1002
}
1002
}
1002
{
1040
8030.0
1040
190.300003
1040
0.305
1040
228.0
1040
545.0
1040
14.0
1040
17.4
1040
0.456
1002
}
1002
}
  0
INSERT
  5
2294
  8
ASHADE
 62
     1
  2
AVE_GLOBAL
 10
0.0
 20
0.0
 30
0.0
1001
AVE_MATERIAL
1002
{
1000
*GLOBAL*
1000
1
1000
Global finish.
1002
{
1002
}
1002
{
1070
    63
1002
{
1002
{
1010
-1.0
1020
-1.0
1030
-1.0
1002
}
1040
0.1
1000

1040
0.0
1002
{
1002
}
1040
0.0
1002
{
1002
}
1040
0.0
1002
}
1002
{
1002
{
1010
-1.0
1020
-1.0
1030
-1.0
1002
}
1040
0.7
1000

1040
0.0
1002
{
1002
}
1040
0.0
1002
{
1002
}
1040
0.0
1002
}
1002
{
1002
{
1010
-1.0
1020
-1.0
1030
-1.0
1002
}
1040
0.2
1000

1040
0.0
1002
{
1002
}
1040
0.0
1002
{
1002
}
1040
0.0
1002
}
1002
{
1070
     0
1002
{
1070
     1
1002
{
1040
1.0
1040
1.0
1000

1040
0.0
1002
{
1002
}
1040
0.0
1002
{
1002
}
1040
0.0
1002
}
1002
}
1040
1.0
1040
0.0
1040
0.0
1002
}
1002
{
1040
1.0
1040
1.0
1000

1040
0.0
1002
{
1002
}
1040
0.0
1002
{
1002
}
1040
0.0
1002
}
1002
{
1040
0.5
1040
1.0
1000

1040
0.0
1002
{
1002
}
1040
0.0
1002
{
1002
}
1040
0.0
1002
}
1002
{
1070
     0
1040
0.0
1002
{
1002
}
1040
1.0
1002
{
1002
}
1040
0.0
1002
}
1002
{
1040
0.0
1002
{
1002
{
1010
0.0
1020
0.0
1030
0.0
1002
}
1040
1.0
1000

1040
0.0
1002
{
1002
}
1040
0.0
1002
{
1002
}
1040
0.0
1002
}
1002
}
1002
{
1002
{
1070
     1
1002
{
1040
0.0
1040
1.0
1000

1040
0.0
1002
{
1002
}
1040
0.0
1002
{
1002
}
1040
0.0
1002
}
1002
}
1040
0.0
1002
{
1002
}
1010
1.0
1020
0.0
1030
0.0
1010
0.0
1020
1.0
1030
0.0
1010
0.0
1020
0.0
1030
1.0
1070
     0
1002
}
1002
{
1002
{
1040
1.0
1040
1.0
1002
{
1070
     1
1002
{
1040
1.0
1040
1.0
1000

1040
0.0
1002
{
1002
}
1040
0.0
1002
{
1002
}
1040
0.0
1002
}
1002
}
1002
}
1070
     0
1040
0.0
1002
{
1002
}
1002
}
1002
{
1002
}
1002
}
1002
{
1071
        3
1070
     3
1070
     0
1002
{
1070
     2
1070
     0
1070
     0
1040
0.0
1002
}
1070
     0
1070
     2
1002
{
1002
}
1002
}
1002
{
1040
8030.0
1040
190.300003
1040
0.305
1040
228.0
1040
545.0
1040
14.0
1040
17.4
1040
0.456
1002
}
1002
}
  0
INSERT
  5
2295
  8
ASHADE
 62
     1
  2
AVE_GLOBAL
 10
0.0
 20
0.0
 30
0.0
1001
AVE_MATERIAL
1002
{
1000
*GLOBAL*
1000
1
1000
Global finish.
1002
{
1002
}
1002
{
1070
    63
1002
{
1002
{
1010
-1.0
1020
-1.0
1030
-1.0
1002
}
1040
0.1
1000

1040
0.0
1002
{
1002
}
1040
0.0
1002
{
1002
}
1040
0.0
1002
}
1002
{
1002
{
1010
-1.0
1020
-1.0
1030
-1.0
1002
}
1040
0.7
1000

1040
0.0
1002
{
1002
}
1040
0.0
1002
{
1002
}
1040
0.0
1002
}
1002
{
1002
{
1010
-1.0
1020
-1.0
1030
-1.0
1002
}
1040
0.2
1000

1040
0.0
1002
{
1002
}
1040
0.0
1002
{
1002
}
1040
0.0
1002
}
1002
{
1070
     0
1002
{
1070
     1
1002
{
1040
1.0
1040
1.0
1000

1040
0.0
1002
{
1002
}
1040
0.0
1002
{
1002
}
1040
0.0
1002
}
1002
}
1040
1.0
1040
0.0
1040
0.0
1002
}
1002
{
1040
1.0
1040
1.0
1000

1040
0.0
1002
{
1002
}
1040
0.0
1002
{
1002
}
1040
0.0
1002
}
1002
{
1040
0.5
1040
1.0
1000

1040
0.0
1002
{
1002
}
1040
0.0
1002
{
1002
}
1040
0.0
1002
}
1002
{
1070
     0
1040
0.0
1002
{
1002
}
1040
1.0
1002
{
1002
}
1040
0.0
1002
}
1002
{
1040
0.0
1002
{
1002
{
1010
0.0
1020
0.0
1030
0.0
1002
}
1040
1.0
1000

1040
0.0
1002
{
1002
}
1040
0.0
1002
{
1002
}
1040
0.0
1002
}
1002
}
1002
{
1002
{
1070
     1
1002
{
1040
0.0
1040
1.0
1000

1040
0.0
1002
{
1002
}
1040
0.0
1002
{
1002
}
1040
0.0
1002
}
1002
}
1040
0.0
1002
{
1002
}
1010
1.0
1020
0.0
1030
0.0
1010
0.0
1020
1.0
1030
0.0
1010
0.0
1020
0.0
1030
1.0
1070
     0
1002
}
1002
{
1002
{
1040
1.0
1040
1.0
1002
{
1070
     1
1002
{
1040
1.0
1040
1.0
1000

1040
0.0
1002
{
1002
}
1040
0.0
1002
{
1002
}
1040
0.0
1002
}
1002
}
1002
}
1070
     0
1040
0.0
1002
{
1002
}
1002
}
1002
{
1002
}
1002
}
1002
{
1071
        3
1070
     3
1070
     0
1002
{
1070
     2
1070
     0
1070
     0
1040
0.0
1002
}
1070
     0
1070
     2
1002
{
1002
}
1002
}
1002
{
1040
8030.0
1040
190.300003
1040
0.305
1040
228.0
1040
545.0
1040
14.0
1040
17.4
1040
0.456
1002
}
1002
}
  0
INSERT
  5
2296
  8
ASHADE
 62
     1
  2
AVE_GLOBAL
 10
0.0
 20
0.0
 30
0.0
1001
AVE_MATERIAL
1002
{
1000
*GLOBAL*
1000
1
1000
Global finish.
1002
{
1002
}
1002
{
1070
    63
1002
{
1002
{
1010
-1.0
1020
-1.0
1030
-1.0
1002
}
1040
0.1
1000

1040
0.0
1002
{
1002
}
1040
0.0
1002
{
1002
}
1040
0.0
1002
}
1002
{
1002
{
1010
-1.0
1020
-1.0
1030
-1.0
1002
}
1040
0.7
1000

1040
0.0
1002
{
1002
}
1040
0.0
1002
{
1002
}
1040
0.0
1002
}
1002
{
1002
{
1010
-1.0
1020
-1.0
1030
-1.0
1002
}
1040
0.2
1000

1040
0.0
1002
{
1002
}
1040
0.0
1002
{
1002
}
1040
0.0
1002
}
1002
{
1070
     0
1002
{
1070
     1
1002
{
1040
1.0
1040
1.0
1000

1040
0.0
1002
{
1002
}
1040
0.0
1002
{
1002
}
1040
0.0
1002
}
1002
}
1040
1.0
1040
0.0
1040
0.0
1002
}
1002
{
1040
1.0
1040
1.0
1000

1040
0.0
1002
{
1002
}
1040
0.0
1002
{
1002
}
1040
0.0
1002
}
1002
{
1040
0.5
1040
1.0
1000

1040
0.0
1002
{
1002
}
1040
0.0
1002
{
1002
}
1040
0.0
1002
}
1002
{
1070
     0
1040
0.0
1002
{
1002
}
1040
1.0
1002
{
1002
}
1040
0.0
1002
}
1002
{
1040
0.0
1002
{
1002
{
1010
0.0
1020
0.0
1030
0.0
1002
}
1040
1.0
1000

1040
0.0
1002
{
1002
}
1040
0.0
1002
{
1002
}
1040
0.0
1002
}
1002
}
1002
{
1002
{
1070
     1
1002
{
1040
0.0
1040
1.0
1000

1040
0.0
1002
{
1002
}
1040
0.0
1002
{
1002
}
1040
0.0
1002
}
1002
}
1040
0.0
1002
{
1002
}
1010
1.0
1020
0.0
1030
0.0
1010
0.0
1020
1.0
1030
0.0
1010
0.0
1020
0.0
1030
1.0
1070
     0
1002
}
1002
{
1002
{
1040
1.0
1040
1.0
1002
{
1070
     1
1002
{
1040
1.0
1040
1.0
1000

1040
0.0
1002
{
1002
}
1040
0.0
1002
{
1002
}
1040
0.0
1002
}
1002
}
1002
}
1070
     0
1040
0.0
1002
{
1002
}
1002
}
1002
{
1002
}
1002
}
1002
{
1071
        3
1070
     3
1070
     0
1002
{
1070
     2
1070
     0
1070
     0
1040
0.0
1002
}
1070
     0
1070
     2
1002
{
1002
}
1002
}
1002
{
1040
8030.0
1040
190.300003
1040
0.305
1040
228.0
1040
545.0
1040
14.0
1040
17.4
1040
0.456
1002
}
1002
}
  0
INSERT
  5
2297
  8
ASHADE
 62
     1
  2
AVE_GLOBAL
 10
0.0
 20
0.0
 30
0.0
1001
AVE_MATERIAL
1002
{
1000
*GLOBAL*
1000
1
1000
Global finish.
1002
{
1002
}
1002
{
1070
    63
1002
{
1002
{
1010
-1.0
1020
-1.0
1030
-1.0
1002
}
1040
0.1
1000

1040
0.0
1002
{
1002
}
1040
0.0
1002
{
1002
}
1040
0.0
1002
}
1002
{
1002
{
1010
-1.0
1020
-1.0
1030
-1.0
1002
}
1040
0.7
1000

1040
0.0
1002
{
1002
}
1040
0.0
1002
{
1002
}
1040
0.0
1002
}
1002
{
1002
{
1010
-1.0
1020
-1.0
1030
-1.0
1002
}
1040
0.2
1000

1040
0.0
1002
{
1002
}
1040
0.0
1002
{
1002
}
1040
0.0
1002
}
1002
{
1070
     0
1002
{
1070
     1
1002
{
1040
1.0
1040
1.0
1000

1040
0.0
1002
{
1002
}
1040
0.0
1002
{
1002
}
1040
0.0
1002
}
1002
}
1040
1.0
1040
0.0
1040
0.0
1002
}
1002
{
1040
1.0
1040
1.0
1000

1040
0.0
1002
{
1002
}
1040
0.0
1002
{
1002
}
1040
0.0
1002
}
1002
{
1040
0.5
1040
1.0
1000

1040
0.0
1002
{
1002
}
1040
0.0
1002
{
1002
}
1040
0.0
1002
}
1002
{
1070
     0
1040
0.0
1002
{
1002
}
1040
1.0
1002
{
1002
}
1040
0.0
1002
}
1002
{
1040
0.0
1002
{
1002
{
1010
0.0
1020
0.0
1030
0.0
1002
}
1040
1.0
1000

1040
0.0
1002
{
1002
}
1040
0.0
1002
{
1002
}
1040
0.0
1002
}
1002
}
1002
{
1002
{
1070
     1
1002
{
1040
0.0
1040
1.0
1000

1040
0.0
1002
{
1002
}
1040
0.0
1002
{
1002
}
1040
0.0
1002
}
1002
}
1040
0.0
1002
{
1002
}
1010
1.0
1020
0.0
1030
0.0
1010
0.0
1020
1.0
1030
0.0
1010
0.0
1020
0.0
1030
1.0
1070
     0
1002
}
1002
{
1002
{
1040
1.0
1040
1.0
1002
{
1070
     1
1002
{
1040
1.0
1040
1.0
1000

1040
0.0
1002
{
1002
}
1040
0.0
1002
{
1002
}
1040
0.0
1002
}
1002
}
1002
}
1070
     0
1040
0.0
1002
{
1002
}
1002
}
1002
{
1002
}
1002
}
1002
{
1071
        3
1070
     3
1070
     0
1002
{
1070
     2
1070
     0
1070
     0
1040
0.0
1002
}
1070
     0
1070
     2
1002
{
1002
}
1002
}
1002
{
1040
8030.0
1040
190.300003
1040
0.305
1040
228.0
1040
545.0
1040
14.0
1040
17.4
1040
0.456
1002
}
1002
}
  0
INSERT
  5
2298
  8
ASHADE
 62
     1
  2
AVE_RENDER
 10
0.0
 20
0.0
 30
0.0
1001
AVE_RENDER
1002
{
1070
     7
1000
Pref
1070
    30
1070
    20
1070
     1
1070
     0
1000

1070
    10
1070
     1
1070
    10
1040
1.0
1070
     1
1040
0.3
1040
0.7
1040
0.0
1040
10.0
1010
-1.0
1020
-1.0
1030
-1.0
1040
0.3
1070
    49
1070
     0
1070
     0
1010
1.0
1020
1.0
1030
1.0
1040
45.0
1070
     1
1070
     0
1000
WCS
1040
0.0
1070
     0
1040
10.0
1002
}
  0
INSERT
  5
2299
  8
ASHADE
 62
     3
  2
AVE_RENDER
 10
0.0
 20
0.0
 30
0.0
1001
AVE_RENDER
1002
{
1070
     0
1000
Full Opt
1070
     0
1070
     1
1070
     1
1070
     1
1070
     0
1070
     0
1070
     0
1070
     1
1070
     1
1040
0.0001
1040
0.0001
1002
}
  0
INSERT
  5
229A
  8
ASHADE
 62
     4
  2
AVE_RENDER
 10
0.0
 20
0.0
 30
0.0
1001
AVE_RENDER
1002
{
1070
     0
1000
Quick Opt
1070
     0
1070
     1
1070
     1
1070
     1
1070
     0
1070
     0
1070
     1
1002
}
  0
INSERT
  5
229B
  8
ASHADE
 62
     5
  2
AVE_RENDER
 10
0.0
 20
0.0
 30
0.0
1001
AVE_RENDER
1002
{
1070
     1
1000
Scanl Opt
1070
     2
1070
     0
1070
     2
1040
2.0
1040
4.0
1070
     0
1070
     1
1070
     0
1040
0.03
1002
}
  0
INSERT
  5
229C
  8
ASHADE
 62
     6
  2
AVE_RENDER
 10
0.0
 20
0.0
 30
0.0
1001
AVE_RENDER
1002
{
1070
     2
1000
Raytr Opt
1070
     2
1070
     0
1070
     2
1040
2.0
1040
4.0
1070
     0
1070
     1
1070
     1
1040
0.03
1070
     3
1040
0.03
1002
}
  0
INSERT
  5
229D
  8
ASHADE
 62
     7
  2
AVE_RENDER
 10
0.0
 20
0.0
 30
0.0
1001
AVE_RENDER
1002
{
1070
     0
1000
RFile Opt
1070
     1
1070
   640
1070
   480
1070
 10000
1070
     1
1070
     8
1070
     8
1070
     0
1070
     0
1070
     0
1070
     0
1070
     0
1070
     0
1070
     0
1002
}
  0
INSERT
  5
229E
  8
ASHADE
 62
     8
  2
AVE_RENDER
 10
0.0
 20
0.0
 30
0.0
1001
AVE_RENDER
1002
{
1070
     0
1000
Fog Opt
1070
     0
1070
     0
1040
0.0
1040
1.0
1040
0.0
1040
1.0
1010
0.5
1020
0.5
1030
0.5
1002
}
  0
INSERT
  5
229F
  8
ASHADE
 62
     9
  2
AVE_RENDER
 10
0.0
 20
0.0
 30
0.0
1001
AVE_RENDER
1002
{
1070
     0
1000
BG Opt
1070
     0
1070
     1
1010
0.0
1020
0.0
1030
0.0
1010
1.0
1020
0.0
1030
0.0
1010
0.0
1020
1.0
1030
0.0
1010
0.0
1020
0.0
1030
1.0
1040
0.5
1040
0.33
1040
0.0
1000

1070
     1
1000

1070
     1
1070
     1
1040
1.0
1040
1.0
1040
0.0
1040
0.0
1070
     0
1002
}
  0
INSERT
  5
22A0
  8
ASHADE
 62
     1
  2
AVE_GLOBAL
 10
0.0
 20
0.0
 30
0.0
1001
AVE_MATERIAL
1002
{
1000
*GLOBAL*
1000
1
1000
Global finish.
1002
{
1002
}
1002
{
1070
    63
1002
{
1002
{
1010
-1.0
1020
-1.0
1030
-1.0
1002
}
1040
0.1
1000

1040
0.0
1002
{
1002
}
1040
0.0
1002
{
1002
}
1040
0.0
1002
}
1002
{
1002
{
1010
-1.0
1020
-1.0
1030
-1.0
1002
}
1040
0.7
1000

1040
0.0
1002
{
1002
}
1040
0.0
1002
{
1002
}
1040
0.0
1002
}
1002
{
1002
{
1010
-1.0
1020
-1.0
1030
-1.0
1002
}
1040
0.2
1000

1040
0.0
1002
{
1002
}
1040
0.0
1002
{
1002
}
1040
0.0
1002
}
1002
{
1070
     0
1002
{
1070
     1
1002
{
1040
1.0
1040
1.0
1000

1040
0.0
1002
{
1002
}
1040
0.0
1002
{
1002
}
1040
0.0
1002
}
1002
}
1040
1.0
1040
0.0
1040
0.0
1002
}
1002
{
1040
1.0
1040
1.0
1000

1040
0.0
1002
{
1002
}
1040
0.0
1002
{
1002
}
1040
0.0
1002
}
1002
{
1040
0.5
1040
1.0
1000

1040
0.0
1002
{
1002
}
1040
0.0
1002
{
1002
}
1040
0.0
1002
}
1002
{
1070
     0
1040
0.0
1002
{
1002
}
1040
1.0
1002
{
1002
}
1040
0.0
1002
}
1002
{
1040
0.0
1002
{
1002
{
1010
0.0
1020
0.0
1030
0.0
1002
}
1040
1.0
1000

1040
0.0
1002
{
1002
}
1040
0.0
1002
{
1002
}
1040
0.0
1002
}
1002
}
1002
{
1002
{
1070
     1
1002
{
1040
0.0
1040
1.0
1000

1040
0.0
1002
{
1002
}
1040
0.0
1002
{
1002
}
1040
0.0
1002
}
1002
}
1040
0.0
1002
{
1002
}
1010
1.0
1020
0.0
1030
0.0
1010
0.0
1020
1.0
1030
0.0
1010
0.0
1020
0.0
1030
1.0
1070
     0
1002
}
1002
{
1002
{
1040
1.0
1040
1.0
1002
{
1070
     1
1002
{
1040
1.0
1040
1.0
1000

1040
0.0
1002
{
1002
}
1040
0.0
1002
{
1002
}
1040
0.0
1002
}
1002
}
1002
}
1070
     0
1040
0.0
1002
{
1002
}
1002
}
1002
{
1002
}
1002
}
1002
{
1071
        3
1070
     3
1070
     0
1002
{
1070
     2
1070
     0
1070
     0
1040
0.0
1002
}
1070
     0
1070
     2
1002
{
1002
}
1002
}
1002
{
1040
8030.0
1040
190.300003
1040
0.305
1040
228.0
1040
545.0
1040
14.0
1040
17.4
1040
0.456
1002
}
1002
}
  0
POLYLINE
  5
22A1
  8
0
 66
     1
 10
0.0
 20
0.0
 30
0.0
 70
    16
 71
     5
 72
     7
  0
VERTEX
  5
22A2
  8
0
 10
40.0
 20
128.0
 30
91.0
 70
    64
  0
VERTEX
  5
22A3
  8
0
 10
40.0
 20
128.0
 30
91.0
 70
    64
  0
VERTEX
  5
22A4
  8
0
 10
40.0
 20
128.0
 30
91.0
 70
    64
  0
VERTEX
  5
22A5
  8
0
 10
40.0
 20
128.0
 30
91.0
 70
    64
  0
VERTEX
  5
22A6
  8
0
 10
40.0
 20
128.0
 30
91.0
 70
    64
  0
VERTEX
  5
22A7
  8
0
 10
40.0
 20
128.0
 30
91.0
 70
    64
  0
VERTEX
  5
22A8
  8
0
 10
40.0
 20
128.0
 30
91.0
 70
    64
  0
VERTEX
  5
22A9
  8
0
 10
3.5
 20
128.0
 30
91.0
 70
    64
  0
VERTEX
  5
22AA
  8
0
 10
4.9
 20
128.0
 30
81.6
 70
    64
  0
VERTEX
  5
22AB
  8
0
 10
8.4
 20
128.0
 30
72.9
 70
    64
  0
VERTEX
  5
22AC
  8
0
 10
14.3
 20
128.0
 30
65.3
 70
    64
  0
VERTEX
  5
22AD
  8
0
 10
21.9
 20
128.0
 30
59.4
 70
    64
  0
VERTEX
  5
22AE
  8
0
 10
30.6
 20
128.0
 30
55.9
 70
    64
  0
VERTEX
  5
22AF
  8
0
 10
40.0
 20
128.0
 30
54.5
 70
    64
  0
VERTEX
  5
22B0
  8
0
 10
2.5
 20
127.0
 30
91.0
 70
    64
  0
VERTEX
  5
22B1
  8
0
 10
3.8
 20
127.0
 30
81.4
 70
    64
  0
VERTEX
  5
22B2
  8
0
 10
7.5
 20
127.0
 30
72.4
 70
    64
  0
VERTEX
  5
22B3
  8
0
 10
13.5
 20
127.0
 30
64.5
 70
    64
  0
VERTEX
  5
22B4
  8
0
 10
21.4
 20
127.0
 30
58.5
 70
    64
  0
VERTEX
  5
22B5
  8
0
 10
30.4
 20
127.0
 30
54.8
 70
    64
  0
VERTEX
  5
22B6
  8
0
 10
40.0
 20
127.0
 30
53.5
 70
    64
  0
VERTEX
  5
22B7
  8
0
 10
2.5
 20
126.0
 30
91.0
 70
    64
  0
VERTEX
  5
22B8
  8
0
 10
3.8
 20
126.0
 30
81.4
 70
    64
  0
VERTEX
  5
22B9
  8
0
 10
7.5
 20
126.0
 30
72.4
 70
    64
  0
VERTEX
  5
22BA
  8
0
 10
13.5
 20
126.0
 30
64.5
 70
    64
  0
VERTEX
  5
22BB
  8
0
 10
21.4
 20
126.0
 30
58.5
 70
    64
  0
VERTEX
  5
22BC
  8
0
 10
30.4
 20
126.0
 30
54.8
 70
    64
  0
VERTEX
  5
22BD
  8
0
 10
40.0
 20
126.0
 30
53.5
 70
    64
  0
VERTEX
  5
22BE
  8
0
 10
3.5
 20
125.0
 30
91.0
 70
    64
  0
VERTEX
  5
22BF
  8
0
 10
4.9
 20
125.0
 30
81.6
 70
    64
  0
VERTEX
  5
22C0
  8
0
 10
8.4
 20
125.0
 30
72.9
 70
    64
  0
VERTEX
  5
22C1
  8
0
 10
14.3
 20
125.0
 30
65.3
 70
    64
  0
VERTEX
  5
22C2
  8
0
 10
21.9
 20
125.0
 30
59.4
 70
    64
  0
VERTEX
  5
22C3
  8
0
 10
30.6
 20
125.0
 30
55.9
 70
    64
  0
VERTEX
  5
22C4
  8
0
 10
40.0
 20
125.0
 30
54.5
 70
    64
  0
SEQEND
  5
22C5
  8
0
  0
POLYLINE
  5
22C6
  8
0
 66
     1
 10
0.0
 20
0.0
 30
0.0
 70
    16
 71
     5
 72
     7
  0
VERTEX
  5
22C7
  8
0
 10
40.0
 20
128.0
 30
91.0
 70
    64
  0
VERTEX
  5
22C8
  8
0
 10
40.0
 20
128.0
 30
91.0
 70
    64
  0
VERTEX
  5
22C9
  8
0
 10
40.0
 20
128.0
 30
91.0
 70
    64
  0
VERTEX
  5
22CA
  8
0
 10
40.0
 20
128.0
 30
91.0
 70
    64
  0
VERTEX
  5
22CB
  8
0
 10
40.0
 20
128.0
 30
91.0
 70
    64
  0
VERTEX
  5
22CC
  8
0
 10
40.0
 20
128.0
 30
91.0
 70
    64
  0
VERTEX
  5
22CD
  8
0
 10
40.0
 20
128.0
 30
91.0
 70
    64
  0
VERTEX
  5
22CE
  8
0
 10
3.5
 20
128.0
 30
91.0
 70
    64
  0
VERTEX
  5
22CF
  8
0
 10
4.9
 20
128.0
 30
81.6
 70
    64
  0
VERTEX
  5
22D0
  8
0
 10
8.4
 20
128.0
 30
72.9
 70
    64
  0
VERTEX
  5
22D1
  8
0
 10
14.3
 20
128.0
 30
65.3
 70
    64
  0
VERTEX
  5
22D2
  8
0
 10
21.9
 20
128.0
 30
59.4
 70
    64
  0
VERTEX
  5
22D3
  8
0
 10
30.6
 20
128.0
 30
55.9
 70
    64
  0
VERTEX
  5
22D4
  8
0
 10
40.0
 20
128.0
 30
54.5
 70
    64
  0
VERTEX
  5
22D5
  8
0
 10
2.5
 20
127.0
 30
91.0
 70
    64
  0
VERTEX
  5
22D6
  8
0
 10
3.8
 20
127.0
 30
81.4
 70
    64
  0
VERTEX
  5
22D7
  8
0
 10
7.5
 20
127.0
 30
72.4
 70
    64
  0
VERTEX
  5
22D8
  8
0
 10
13.5
 20
127.0
 30
64.5
 70
    64
  0
VERTEX
  5
22D9
  8
0
 10
21.4
 20
127.0
 30
58.5
 70
    64
  0
VERTEX
  5
22DA
  8
0
 10
30.4
 20
127.0
 30
54.8
 70
    64
  0
VERTEX
  5
22DB
  8
0
 10
40.0
 20
127.0
 30
53.5
 70
    64
  0
VERTEX
  5
22DC
  8
0
 10
2.5
 20
126.0
 30
91.0
 70
    64
  0
VERTEX
  5
22DD
  8
0
 10
3.8
 20
126.0
 30
81.4
 70
    64
  0
VERTEX
  5
22DE
  8
0
 10
7.5
 20
126.0
 30
72.4
 70
    64
  0
VERTEX
  5
22DF
  8
0
 10
13.5
 20
126.0
 30
64.5
 70
    64
  0
VERTEX
  5
22E0
  8
0
 10
21.4
 20
126.0
 30
58.5
 70
    64
  0
VERTEX
  5
22E1
  8
0
 10
30.4
 20
126.0
 30
54.8
 70
    64
  0
VERTEX
  5
22E2
  8
0
 10
40.0
 20
126.0
 30
53.5
 70
    64
  0
VERTEX
  5
22E3
  8
0
 10
3.5
 20
125.0
 30
91.0
 70
    64
  0
VERTEX
  5
22E4
  8
0
 10
4.9
 20
125.0
 30
81.6
 70
    64
  0
VERTEX
  5
22E5
  8
0
 10
8.4
 20
125.0
 30
72.9
 70
    64
  0
VERTEX
  5
22E6
  8
0
 10
14.3
 20
125.0
 30
65.3
 70
    64
  0
VERTEX
  5
22E7
  8
0
 10
21.9
 20
125.0
 30
59.4
 70
    64
  0
VERTEX
  5
22E8
  8
0
 10
30.6
 20
125.0
 30
55.9
 70
    64
  0
VERTEX
  5
22E9
  8
0
 10
40.0
 20
125.0
 30
54.5
 70
    64
  0
SEQEND
  5
22EA
  8
0
  0
POLYLINE
  5
22EB
  8
0
 66
     1
 10
0.0
 20
0.0
 30
0.0
 70
    16
 71
     5
 72
     7
  0
VERTEX
  5
22EC
  8
0
 10
3.5
 20
125.0
 30
91.0
 70
    64
  0
VERTEX
  5
22ED
  8
0
 10
4.9
 20
125.0
 30
81.6
 70
    64
  0
VERTEX
  5
22EE
  8
0
 10
8.4
 20
125.0
 30
72.9
 70
    64
  0
VERTEX
  5
22EF
  8
0
 10
14.3
 20
125.0
 30
65.3
 70
    64
  0
VERTEX
  5
22F0
  8
0
 10
21.9
 20
125.0
 30
59.4
 70
    64
  0
VERTEX
  5
22F1
  8
0
 10
30.6
 20
125.0
 30
55.9
 70
    64
  0
VERTEX
  5
22F2
  8
0
 10
40.0
 20
125.0
 30
54.5
 70
    64
  0
VERTEX
  5
22F3
  8
0
 10
2.5
 20
124.0
 30
91.0
 70
    64
  0
VERTEX
  5
22F4
  8
0
 10
3.8
 20
124.0
 30
81.4
 70
    64
  0
VERTEX
  5
22F5
  8
0
 10
7.5
 20
124.0
 30
72.4
 70
    64
  0
VERTEX
  5
22F6
  8
0
 10
13.5
 20
124.0
 30
64.5
 70
    64
  0
VERTEX
  5
22F7
  8
0
 10
21.4
 20
124.0
 30
58.5
 70
    64
  0
VERTEX
  5
22F8
  8
0
 10
30.4
 20
124.0
 30
54.8
 70
    64
  0
VERTEX
  5
22F9
  8
0
 10
40.0
 20
124.0
 30
53.5
 70
    64
  0
VERTEX
  5
22FA
  8
0
 10
2.5
 20
123.0
 30
91.0
 70
    64
  0
VERTEX
  5
22FB
  8
0
 10
3.8
 20
123.0
 30
81.4
 70
    64
  0
VERTEX
  5
22FC
  8
0
 10
7.5
 20
123.0
 30
72.4
 70
    64
  0
VERTEX
  5
22FD
  8
0
 10
13.5
 20
123.0
 30
64.5
 70
    64
  0
VERTEX
  5
22FE
  8
0
 10
21.4
 20
123.0
 30
58.5
 70
    64
  0
VERTEX
  5
22FF
  8
0
 10
30.4
 20
123.0
 30
54.8
 70
    64
  0
VERTEX
  5
2300
  8
0
 10
40.0
 20
123.0
 30
53.5
 70
    64
  0
VERTEX
  5
2301
  8
0
 10
3.5
 20
122.0
 30
91.0
 70
    64
  0
VERTEX
  5
2302
  8
0
 10
4.9
 20
122.0
 30
81.6
 70
    64
  0
VERTEX
  5
2303
  8
0
 10
8.4
 20
122.0
 30
72.9
 70
    64
  0
VERTEX
  5
2304
  8
0
 10
14.3
 20
122.0
 30
65.3
 70
    64
  0
VERTEX
  5
2305
  8
0
 10
21.9
 20
122.0
 30
59.4
 70
    64
  0
VERTEX
  5
2306
  8
0
 10
30.6
 20
122.0
 30
55.9
 70
    64
  0
VERTEX
  5
2307
  8
0
 10
40.0
 20
122.0
 30
54.5
 70
    64
  0
VERTEX
  5
2308
  8
0
 10
4.5
 20
122.0
 30
91.0
 70
    64
  0
VERTEX
  5
2309
  8
0
 10
5.8
 20
122.0
 30
81.9
 70
    64
  0
VERTEX
  5
230A
  8
0
 10
9.3
 20
122.0
 30
73.4
 70
    64
  0
VERTEX
  5
230B
  8
0
 10
15.0
 20
122.0
 30
66.0
 70
    64
  0
VERTEX
  5
230C
  8
0
 10
22.4
 20
122.0
 30
60.3
 70
    64
  0
VERTEX
  5
230D
  8
0
 10
30.9
 20
122.0
 30
56.8
 70
    64
  0
VERTEX
  5
230E
  8
0
 10
40.0
 20
122.0
 30
55.5
 70
    64
  0
SEQEND
  5
230F
  8
0
  0
POLYLINE
  5
2310
  8
0
 66
     1
 10
0.0
 20
0.0
 30
0.0
 70
    16
 71
     8
 72
     7
  0
VERTEX
  5
2311
  8
0
 10
4.5
 20
122.0
 30
91.0
 70
    64
  0
VERTEX
  5
2312
  8
0
 10
5.8
 20
122.0
 30
81.9
 70
    64
  0
VERTEX
  5
2313
  8
0
 10
9.3
 20
122.0
 30
73.4
 70
    64
  0
VERTEX
  5
2314
  8
0
 10
15.0
 20
122.0
 30
66.0
 70
    64
  0
VERTEX
  5
2315
  8
0
 10
22.4
 20
122.0
 30
60.3
 70
    64
  0
VERTEX
  5
2316
  8
0
 10
30.9
 20
122.0
 30
56.8
 70
    64
  0
VERTEX
  5
2317
  8
0
 10
40.0
 20
122.0
 30
55.5
 70
    64
  0
VERTEX
  5
2318
  8
0
 10
5.5
 20
115.0
 30
91.0
 70
    64
  0
VERTEX
  5
2319
  8
0
 10
6.8
 20
115.0
 30
82.1
 70
    64
  0
VERTEX
  5
231A
  8
0
 10
10.2
 20
115.0
 30
73.8
 70
    64
  0
VERTEX
  5
231B
  8
0
 10
15.7
 20
115.0
 30
66.7
 70
    64
  0
VERTEX
  5
231C
  8
0
 10
22.8
 20
115.0
 30
61.2
 70
    64
  0
VERTEX
  5
231D
  8
0
 10
31.1
 20
115.0
 30
57.8
 70
    64
  0
VERTEX
  5
231E
  8
0
 10
40.0
 20
115.0
 30
56.5
 70
    64
  0
VERTEX
  5
231F
  8
0
 10
8.5
 20
108.0
 30
91.0
 70
    64
  0
VERTEX
  5
2320
  8
0
 10
9.7
 20
108.0
 30
82.9
 70
    64
  0
VERTEX
  5
2321
  8
0
 10
12.8
 20
108.0
 30
75.3
 70
    64
  0
VERTEX
  5
2322
  8
0
 10
17.8
 20
108.0
 30
68.8
 70
    64
  0
VERTEX
  5
2323
  8
0
 10
24.3
 20
108.0
 30
63.8
 70
    64
  0
VERTEX
  5
2324
  8
0
 10
31.9
 20
108.0
 30
60.7
 70
    64
  0
VERTEX
  5
2325
  8
0
 10
40.0
 20
108.0
 30
59.5
 70
    64
  0
VERTEX
  5
2326
  8
0
 10
13.5
 20
102.0
 30
91.0
 70
    64
  0
VERTEX
  5
2327
  8
0
 10
14.5
 20
102.0
 30
84.2
 70
    64
  0
VERTEX
  5
2328
  8
0
 10
17.1
 20
102.0
 30
77.8
 70
    64
  0
VERTEX
  5
2329
  8
0
 10
21.3
 20
102.0
 30
72.3
 70
    64
  0
VERTEX
  5
232A
  8
0
 10
26.8
 20
102.0
 30
68.1
 70
    64
  0
VERTEX
  5
232B
  8
0
 10
33.2
 20
102.0
 30
65.5
 70
    64
  0
VERTEX
  5
232C
  8
0
 10
40.0
 20
102.0
 30
64.5
 70
    64
  0
VERTEX
  5
232D
  8
0
 10
19.5
 20
97.5
 30
91.0
 70
    64
  0
VERTEX
  5
232E
  8
0
 10
20.3
 20
97.5
 30
85.7
 70
    64
  0
VERTEX
  5
232F
  8
0
 10
22.3
 20
97.5
 30
80.8
 70
    64
  0
VERTEX
  5
2330
  8
0
 10
25.5
 20
97.5
 30
76.5
 70
    64
  0
VERTEX
  5
2331
  8
0
 10
29.8
 20
97.5
 30
73.3
 70
    64
  0
VERTEX
  5
2332
  8
0
 10
34.7
 20
97.5
 30
71.3
 70
    64
  0
VERTEX
  5
2333
  8
0
 10
40.0
 20
97.5
 30
70.5
 70
    64
  0
VERTEX
  5
2334
  8
0
 10
26.0
 20
94.5
 30
91.0
 70
    64
  0
VERTEX
  5
2335
  8
0
 10
26.5
 20
94.5
 30
87.4
 70
    64
  0
VERTEX
  5
2336
  8
0
 10
27.9
 20
94.5
 30
84.0
 70
    64
  0
VERTEX
  5
2337
  8
0
 10
30.1
 20
94.5
 30
81.1
 70
    64
  0
VERTEX
  5
2338
  8
0
 10
33.0
 20
94.5
 30
78.9
 70
    64
  0
VERTEX
  5
2339
  8
0
 10
36.4
 20
94.5
 30
77.5
 70
    64
  0
VERTEX
  5
233A
  8
0
 10
40.0
 20
94.5
 30
77.0
 70
    64
  0
VERTEX
  5
233B
  8
0
 10
32.0
 20
92.7
 30
91.0
 70
    64
  0
VERTEX
  5
233C
  8
0
 10
32.3
 20
92.7
 30
88.9
 70
    64
  0
VERTEX
  5
233D
  8
0
 10
33.1
 20
92.7
 30
87.0
 70
    64
  0
VERTEX
  5
233E
  8
0
 10
34.4
 20
92.7
 30
85.4
 70
    64
  0
VERTEX
  5
233F
  8
0
 10
36.0
 20
92.7
 30
84.1
 70
    64
  0
VERTEX
  5
2340
  8
0
 10
37.9
 20
92.7
 30
83.3
 70
    64
  0
VERTEX
  5
2341
  8
0
 10
40.0
 20
92.7
 30
83.0
 70
    64
  0
VERTEX
  5
2342
  8
0
 10
40.0
 20
92.0
 30
91.0
 70
    64
  0
VERTEX
  5
2343
  8
0
 10
40.0
 20
92.0
 30
91.0
 70
    64
  0
VERTEX
  5
2344
  8
0
 10
40.0
 20
92.0
 30
91.0
 70
    64
  0
VERTEX
  5
2345
  8
0
 10
40.0
 20
92.0
 30
91.0
 70
    64
  0
VERTEX
  5
2346
  8
0
 10
40.0
 20
92.0
 30
91.0
 70
    64
  0
VERTEX
  5
2347
  8
0
 10
40.0
 20
92.0
 30
91.0
 70
    64
  0
VERTEX
  5
2348
  8
0
 10
40.0
 20
92.0
 30
91.0
 70
    64
  0
SEQEND
  5
2349
  8
0
  0
POLYLINE
  5
234A
  8
0
 66
     1
 10
0.0
 20
0.0
 30
0.0
 70
    16
 71
     8
 72
     7
  0
VERTEX
  5
234B
  8
0
 10
75.5
 20
122.0
 30
91.0
 70
    64
  0
VERTEX
  5
234C
  8
0
 10
74.2
 20
122.0
 30
81.9
 70
    64
  0
VERTEX
  5
234D
  8
0
 10
70.7
 20
122.0
 30
73.4
 70
    64
  0
VERTEX
  5
234E
  8
0
 10
65.0
 20
122.0
 30
66.0
 70
    64
  0
VERTEX
  5
234F
  8
0
 10
57.6
 20
122.0
 30
60.3
 70
    64
  0
VERTEX
  5
2350
  8
0
 10
49.1
 20
122.0
 30
56.8
 70
    64
  0
VERTEX
  5
2351
  8
0
 10
40.0
 20
122.0
 30
55.5
 70
    64
  0
VERTEX
  5
2352
  8
0
 10
74.5
 20
115.0
 30
91.0
 70
    64
  0
VERTEX
  5
2353
  8
0
 10
73.2
 20
115.0
 30
82.1
 70
    64
  0
VERTEX
  5
2354
  8
0
 10
69.8
 20
115.0
 30
73.8
 70
    64
  0
VERTEX
  5
2355
  8
0
 10
64.3
 20
115.0
 30
66.7
 70
    64
  0
VERTEX
  5
2356
  8
0
 10
57.2
 20
115.0
 30
61.2
 70
    64
  0
VERTEX
  5
2357
  8
0
 10
48.9
 20
115.0
 30
57.8
 70
    64
  0
VERTEX
  5
2358
  8
0
 10
40.0
 20
115.0
 30
56.5
 70
    64
  0
VERTEX
  5
2359
  8
0
 10
71.5
 20
108.0
 30
91.0
 70
    64
  0
VERTEX
  5
235A
  8
0
 10
70.3
 20
108.0
 30
82.9
 70
    64
  0
VERTEX
  5
235B
  8
0
 10
67.2
 20
108.0
 30
75.3
 70
    64
  0
VERTEX
  5
235C
  8
0
 10
62.2
 20
108.0
 30
68.8
 70
    64
  0
VERTEX
  5
235D
  8
0
 10
55.7
 20
108.0
 30
63.8
 70
    64
  0
VERTEX
  5
235E
  8
0
 10
48.1
 20
108.0
 30
60.7
 70
    64
  0
VERTEX
  5
235F
  8
0
 10
40.0
 20
108.0
 30
59.5
 70
    64
  0
VERTEX
  5
2360
  8
0
 10
66.5
 20
102.0
 30
91.0
 70
    64
  0
VERTEX
  5
2361
  8
0
 10
65.5
 20
102.0
 30
84.2
 70
    64
  0
VERTEX
  5
2362
  8
0
 10
62.9
 20
102.0
 30
77.8
 70
    64
  0
VERTEX
  5
2363
  8
0
 10
58.7
 20
102.0
 30
72.3
 70
    64
  0
VERTEX
  5
2364
  8
0
 10
53.2
 20
102.0
 30
68.1
 70
    64
  0
VERTEX
  5
2365
  8
0
 10
46.8
 20
102.0
 30
65.5
 70
    64
  0
VERTEX
  5
2366
  8
0
 10
40.0
 20
102.0
 30
64.5
 70
    64
  0
VERTEX
  5
2367
  8
0
 10
60.5
 20
97.5
 30
91.0
 70
    64
  0
VERTEX
  5
2368
  8
0
 10
59.7
 20
97.5
 30
85.7
 70
    64
  0
VERTEX
  5
2369
  8
0
 10
57.7
 20
97.5
 30
80.8
 70
    64
  0
VERTEX
  5
236A
  8
0
 10
54.5
 20
97.5
 30
76.5
 70
    64
  0
VERTEX
  5
236B
  8
0
 10
50.2
 20
97.5
 30
73.3
 70
    64
  0
VERTEX
  5
236C
  8
0
 10
45.3
 20
97.5
 30
71.3
 70
    64
  0
VERTEX
  5
236D
  8
0
 10
40.0
 20
97.5
 30
70.5
 70
    64
  0
VERTEX
  5
236E
  8
0
 10
54.0
 20
94.5
 30
91.0
 70
    64
  0
VERTEX
  5
236F
  8
0
 10
53.5
 20
94.5
 30
87.4
 70
    64
  0
VERTEX
  5
2370
  8
0
 10
52.1
 20
94.5
 30
84.0
 70
    64
  0
VERTEX
  5
2371
  8
0
 10
49.9
 20
94.5
 30
81.1
 70
    64
  0
VERTEX
  5
2372
  8
0
 10
47.0
 20
94.5
 30
78.9
 70
    64
  0
VERTEX
  5
2373
  8
0
 10
43.6
 20
94.5
 30
77.5
 70
    64
  0
VERTEX
  5
2374
  8
0
 10
40.0
 20
94.5
 30
77.0
 70
    64
  0
VERTEX
  5
2375
  8
0
 10
48.0
 20
92.7
 30
91.0
 70
    64
  0
VERTEX
  5
2376
  8
0
 10
47.7
 20
92.7
 30
88.9
 70
    64
  0
VERTEX
  5
2377
  8
0
 10
46.9
 20
92.7
 30
87.0
 70
    64
  0
VERTEX
  5
2378
  8
0
 10
45.6
 20
92.7
 30
85.4
 70
    64
  0
VERTEX
  5
2379
  8
0
 10
44.0
 20
92.7
 30
84.1
 70
    64
  0
VERTEX
  5
237A
  8
0
 10
42.1
 20
92.7
 30
83.3
 70
    64
  0
VERTEX
  5
237B
  8
0
 10
40.0
 20
92.7
 30
83.0
 70
    64
  0
VERTEX
  5
237C
  8
0
 10
40.0
 20
92.0
 30
91.0
 70
    64
  0
VERTEX
  5
237D
  8
0
 10
40.0
 20
92.0
 30
91.0
 70
    64
  0
VERTEX
  5
237E
  8
0
 10
40.0
 20
92.0
 30
91.0
 70
    64
  0
VERTEX
  5
237F
  8
0
 10
40.0
 20
92.0
 30
91.0
 70
    64
  0
VERTEX
  5
2380
  8
0
 10
40.0
 20
92.0
 30
91.0
 70
    64
  0
VERTEX
  5
2381
  8
0
 10
40.0
 20
92.0
 30
91.0
 70
    64
  0
VERTEX
  5
2382
  8
0
 10
40.0
 20
92.0
 30
91.0
 70
    64
  0
SEQEND
  5
2383
  8
0
  0
POLYLINE
  5
2384
  8
0
 66
     1
 10
0.0
 20
0.0
 30
0.0
 70
    16
 71
     5
 72
     7
  0
VERTEX
  5
2385
  8
0
 10
76.5
 20
125.0
 30
91.0
 70
    64
  0
VERTEX
  5
2386
  8
0
 10
75.1
 20
125.0
 30
81.6
 70
    64
  0
VERTEX
  5
2387
  8
0
 10
71.6
 20
125.0
 30
72.9
 70
    64
  0
VERTEX
  5
2388
  8
0
 10
65.7
 20
125.0
 30
65.3
 70
    64
  0
VERTEX
  5
2389
  8
0
 10
58.1
 20
125.0
 30
59.4
 70
    64
  0
VERTEX
  5
238A
  8
0
 10
49.4
 20
125.0
 30
55.9
 70
    64
  0
VERTEX
  5
238B
  8
0
 10
40.0
 20
125.0
 30
54.5
 70
    64
  0
VERTEX
  5
238C
  8
0
 10
77.5
 20
124.0
 30
91.0
 70
    64
  0
VERTEX
  5
238D
  8
0
 10
76.2
 20
124.0
 30
81.4
 70
    64
  0
VERTEX
  5
238E
  8
0
 10
72.5
 20
124.0
 30
72.4
 70
    64
  0
VERTEX
  5
238F
  8
0
 10
66.5
 20
124.0
 30
64.5
 70
    64
  0
VERTEX
  5
2390
  8
0
 10
58.6
 20
124.0
 30
58.5
 70
    64
  0
VERTEX
  5
2391
  8
0
 10
49.6
 20
124.0
 30
54.8
 70
    64
  0
VERTEX
  5
2392
  8
0
 10
40.0
 20
124.0
 30
53.5
 70
    64
  0
VERTEX
  5
2393
  8
0
 10
77.5
 20
123.0
 30
91.0
 70
    64
  0
VERTEX
  5
2394
  8
0
 10
76.2
 20
123.0
 30
81.4
 70
    64
  0
VERTEX
  5
2395
  8
0
 10
72.5
 20
123.0
 30
72.4
 70
    64
  0
VERTEX
  5
2396
  8
0
 10
66.5
 20
123.0
 30
64.5
 70
    64
  0
VERTEX
  5
2397
  8
0
 10
58.6
 20
123.0
 30
58.5
 70
    64
  0
VERTEX
  5
2398
  8
0
 10
49.6
 20
123.0
 30
54.8
 70
    64
  0
VERTEX
  5
2399
  8
0
 10
40.0
 20
123.0
 30
53.5
 70
    64
  0
VERTEX
  5
239A
  8
0
 10
76.5
 20
122.0
 30
91.0
 70
    64
  0
VERTEX
  5
239B
  8
0
 10
75.1
 20
122.0
 30
81.6
 70
    64
  0
VERTEX
  5
239C
  8
0
 10
71.6
 20
122.0
 30
72.9
 70
    64
  0
VERTEX
  5
239D
  8
0
 10
65.7
 20
122.0
 30
65.3
 70
    64
  0
VERTEX
  5
239E
  8
0
 10
58.1
 20
122.0
 30
59.4
 70
    64
  0
VERTEX
  5
239F
  8
0
 10
49.4
 20
122.0
 30
55.9
 70
    64
  0
VERTEX
  5
23A0
  8
0
 10
40.0
 20
122.0
 30
54.5
 70
    64
  0
VERTEX
  5
23A1
  8
0
 10
75.5
 20
122.0
 30
91.0
 70
    64
  0
VERTEX
  5
23A2
  8
0
 10
74.2
 20
122.0
 30
81.9
 70
    64
  0
VERTEX
  5
23A3
  8
0
 10
70.7
 20
122.0
 30
73.4
 70
    64
  0
VERTEX
  5
23A4
  8
0
 10
65.0
 20
122.0
 30
66.0
 70
    64
  0
VERTEX
  5
23A5
  8
0
 10
57.6
 20
122.0
 30
60.3
 70
    64
  0
VERTEX
  5
23A6
  8
0
 10
49.1
 20
122.0
 30
56.8
 70
    64
  0
VERTEX
  5
23A7
  8
0
 10
40.0
 20
122.0
 30
55.5
 70
    64
  0
SEQEND
  5
23A8
  8
0
  0
POLYLINE
  5
23A9
  8
0
 66
     1
 10
0.0
 20
0.0
 30
0.0
 70
    16
 71
     5
 72
     7
  0
VERTEX
  5
23AA
  8
0
 10
40.0
 20
128.0
 30
91.0
 70
    64
  0
VERTEX
  5
23AB
  8
0
 10
40.0
 20
128.0
 30
91.0
 70
    64
  0
VERTEX
  5
23AC
  8
0
 10
40.0
 20
128.0
 30
91.0
 70
    64
  0
VERTEX
  5
23AD
  8
0
 10
40.0
 20
128.0
 30
91.0
 70
    64
  0
VERTEX
  5
23AE
  8
0
 10
40.0
 20
128.0
 30
91.0
 70
    64
  0
VERTEX
  5
23AF
  8
0
 10
40.0
 20
128.0
 30
91.0
 70
    64
  0
VERTEX
  5
23B0
  8
0
 10
40.0
 20
128.0
 30
91.0
 70
    64
  0
VERTEX
  5
23B1
  8
0
 10
76.5
 20
128.0
 30
91.0
 70
    64
  0
VERTEX
  5
23B2
  8
0
 10
75.1
 20
128.0
 30
81.6
 70
    64
  0
VERTEX
  5
23B3
  8
0
 10
71.6
 20
128.0
 30
72.9
 70
    64
  0
VERTEX
  5
23B4
  8
0
 10
65.7
 20
128.0
 30
65.3
 70
    64
  0
VERTEX
  5
23B5
  8
0
 10
58.1
 20
128.0
 30
59.4
 70
    64
  0
VERTEX
  5
23B6
  8
0
 10
49.4
 20
128.0
 30
55.9
 70
    64
  0
VERTEX
  5
23B7
  8
0
 10
40.0
 20
128.0
 30
54.5
 70
    64
  0
VERTEX
  5
23B8
  8
0
 10
77.5
 20
127.0
 30
91.0
 70
    64
  0
VERTEX
  5
23B9
  8
0
 10
76.2
 20
127.0
 30
81.4
 70
    64
  0
VERTEX
  5
23BA
  8
0
 10
72.5
 20
127.0
 30
72.4
 70
    64
  0
VERTEX
  5
23BB
  8
0
 10
66.5
 20
127.0
 30
64.5
 70
    64
  0
VERTEX
  5
23BC
  8
0
 10
58.6
 20
127.0
 30
58.5
 70
    64
  0
VERTEX
  5
23BD
  8
0
 10
49.6
 20
127.0
 30
54.8
 70
    64
  0
VERTEX
  5
23BE
  8
0
 10
40.0
 20
127.0
 30
53.5
 70
    64
  0
VERTEX
  5
23BF
  8
0
 10
77.5
 20
126.0
 30
91.0
 70
    64
  0
VERTEX
  5
23C0
  8
0
 10
76.2
 20
126.0
 30
81.4
 70
    64
  0
VERTEX
  5
23C1
  8
0
 10
72.5
 20
126.0
 30
72.4
 70
    64
  0
VERTEX
  5
23C2
  8
0
 10
66.5
 20
126.0
 30
64.5
 70
    64
  0
VERTEX
  5
23C3
  8
0
 10
58.6
 20
126.0
 30
58.5
 70
    64
  0
VERTEX
  5
23C4
  8
0
 10
49.6
 20
126.0
 30
54.8
 70
    64
  0
VERTEX
  5
23C5
  8
0
 10
40.0
 20
126.0
 30
53.5
 70
    64
  0
VERTEX
  5
23C6
  8
0
 10
76.5
 20
125.0
 30
91.0
 70
    64
  0
VERTEX
  5
23C7
  8
0
 10
75.1
 20
125.0
 30
81.6
 70
    64
  0
VERTEX
  5
23C8
  8
0
 10
71.6
 20
125.0
 30
72.9
 70
    64
  0
VERTEX
  5
23C9
  8
0
 10
65.7
 20
125.0
 30
65.3
 70
    64
  0
VERTEX
  5
23CA
  8
0
 10
58.1
 20
125.0
 30
59.4
 70
    64
  0
VERTEX
  5
23CB
  8
0
 10
49.4
 20
125.0
 30
55.9
 70
    64
  0
VERTEX
  5
23CC
  8
0
 10
40.0
 20
125.0
 30
54.5
 70
    64
  0
SEQEND
  5
23CD
  8
0
  0
POLYLINE
  5
23CE
  8
0
 66
     1
 10
0.0
 20
0.0
 30
0.0
 70
    16
 71
     5
 72
     7
  0
VERTEX
  5
23CF
  8
0
 10
40.0
 20
128.0
 30
91.0
 70
    64
  0
VERTEX
  5
23D0
  8
0
 10
40.0
 20
128.0
 30
91.0
 70
    64
  0
VERTEX
  5
23D1
  8
0
 10
40.0
 20
128.0
 30
91.0
 70
    64
  0
VERTEX
  5
23D2
  8
0
 10
40.0
 20
128.0
 30
91.0
 70
    64
  0
VERTEX
  5
23D3
  8
0
 10
40.0
 20
128.0
 30
91.0
 70
    64
  0
VERTEX
  5
23D4
  8
0
 10
40.0
 20
128.0
 30
91.0
 70
    64
  0
VERTEX
  5
23D5
  8
0
 10
40.0
 20
128.0
 30
91.0
 70
    64
  0
VERTEX
  5
23D6
  8
0
 10
76.5
 20
128.0
 30
91.0
 70
    64
  0
VERTEX
  5
23D7
  8
0
 10
75.1
 20
128.0
 30
81.6
 70
    64
  0
VERTEX
  5
23D8
  8
0
 10
71.6
 20
128.0
 30
72.9
 70
    64
  0
VERTEX
  5
23D9
  8
0
 10
65.7
 20
128.0
 30
65.3
 70
    64
  0
VERTEX
  5
23DA
  8
0
 10
58.1
 20
128.0
 30
59.4
 70
    64
  0
VERTEX
  5
23DB
  8
0
 10
49.4
 20
128.0
 30
55.9
 70
    64
  0
VERTEX
  5
23DC
  8
0
 10
40.0
 20
128.0
 30
54.5
 70
    64
  0
VERTEX
  5
23DD
  8
0
 10
77.5
 20
127.0
 30
91.0
 70
    64
  0
VERTEX
  5
23DE
  8
0
 10
76.2
 20
127.0
 30
81.4
 70
    64
  0
VERTEX
  5
23DF
  8
0
 10
72.5
 20
127.0
 30
72.4
 70
    64
  0
VERTEX
  5
23E0
  8
0
 10
66.5
 20
127.0
 30
64.5
 70
    64
  0
VERTEX
  5
23E1
  8
0
 10
58.6
 20
127.0
 30
58.5
 70
    64
  0
VERTEX
  5
23E2
  8
0
 10
49.6
 20
127.0
 30
54.8
 70
    64
  0
VERTEX
  5
23E3
  8
0
 10
40.0
 20
127.0
 30
53.5
 70
    64
  0
VERTEX
  5
23E4
  8
0
 10
77.5
 20
126.0
 30
91.0
 70
    64
  0
VERTEX
  5
23E5
  8
0
 10
76.2
 20
126.0
 30
81.4
 70
    64
  0
VERTEX
  5
23E6
  8
0
 10
72.5
 20
126.0
 30
72.4
 70
    64
  0
VERTEX
  5
23E7
  8
0
 10
66.5
 20
126.0
 30
64.5
 70
    64
  0
VERTEX
  5
23E8
  8
0
 10
58.6
 20
126.0
 30
58.5
 70
    64
  0
VERTEX
  5
23E9
  8
0
 10
49.6
 20
126.0
 30
54.8
 70
    64
  0
VERTEX
  5
23EA
  8
0
 10
40.0
 20
126.0
 30
53.5
 70
    64
  0
VERTEX
  5
23EB
  8
0
 10
76.5
 20
125.0
 30
91.0
 70
    64
  0
VERTEX
  5
23EC
  8
0
 10
75.1
 20
125.0
 30
81.6
 70
    64
  0
VERTEX
  5
23ED
  8
0
 10
71.6
 20
125.0
 30
72.9
 70
    64
  0
VERTEX
  5
23EE
  8
0
 10
65.7
 20
125.0
 30
65.3
 70
    64
  0
VERTEX
  5
23EF
  8
0
 10
58.1
 20
125.0
 30
59.4
 70
    64
  0
VERTEX
  5
23F0
  8
0
 10
49.4
 20
125.0
 30
55.9
 70
    64
  0
VERTEX
  5
23F1
  8
0
 10
40.0
 20
125.0
 30
54.5
 70
    64
  0
SEQEND
  5
23F2
  8
0
  0
POLYLINE
  5
23F3
  8
0
 66
     1
 10
0.0
 20
0.0
 30
0.0
 70
    16
 71
     8
 72
     7
  0
VERTEX
  5
23F4
  8
0
 10
4.5
 20
122.0
 30
91.0
 70
    64
  0
VERTEX
  5
23F5
  8
0
 10
5.8
 20
122.0
 30
100.1
 70
    64
  0
VERTEX
  5
23F6
  8
0
 10
9.3
 20
122.0
 30
108.6
 70
    64
  0
VERTEX
  5
23F7
  8
0
 10
15.0
 20
122.0
 30
116.0
 70
    64
  0
VERTEX
  5
23F8
  8
0
 10
22.4
 20
122.0
 30
121.7
 70
    64
  0
VERTEX
  5
23F9
  8
0
 10
30.9
 20
122.0
 30
125.2
 70
    64
  0
VERTEX
  5
23FA
  8
0
 10
40.0
 20
122.0
 30
126.5
 70
    64
  0
VERTEX
  5
23FB
  8
0
 10
5.5
 20
115.0
 30
91.0
 70
    64
  0
VERTEX
  5
23FC
  8
0
 10
6.8
 20
115.0
 30
99.9
 70
    64
  0
VERTEX
  5
23FD
  8
0
 10
10.2
 20
115.0
 30
108.2
 70
    64
  0
VERTEX
  5
23FE
  8
0
 10
15.7
 20
115.0
 30
115.3
 70
    64
  0
VERTEX
  5
23FF
  8
0
 10
22.8
 20
115.0
 30
120.8
 70
    64
  0
VERTEX
  5
2400
  8
0
 10
31.1
 20
115.0
 30
124.2
 70
    64
  0
VERTEX
  5
2401
  8
0
 10
40.0
 20
115.0
 30
125.5
 70
    64
  0
VERTEX
  5
2402
  8
0
 10
8.5
 20
108.0
 30
91.0
 70
    64
  0
VERTEX
  5
2403
  8
0
 10
9.7
 20
108.0
 30
99.1
 70
    64
  0
VERTEX
  5
2404
  8
0
 10
12.8
 20
108.0
 30
106.7
 70
    64
  0
VERTEX
  5
2405
  8
0
 10
17.8
 20
108.0
 30
113.2
 70
    64
  0
VERTEX
  5
2406
  8
0
 10
24.3
 20
108.0
 30
118.2
 70
    64
  0
VERTEX
  5
2407
  8
0
 10
31.9
 20
108.0
 30
121.3
 70
    64
  0
VERTEX
  5
2408
  8
0
 10
40.0
 20
108.0
 30
122.5
 70
    64
  0
VERTEX
  5
2409
  8
0
 10
13.5
 20
102.0
 30
91.0
 70
    64
  0
VERTEX
  5
240A
  8
0
 10
14.5
 20
102.0
 30
97.8
 70
    64
  0
VERTEX
  5
240B
  8
0
 10
17.1
 20
102.0
 30
104.2
 70
    64
  0
VERTEX
  5
240C
  8
0
 10
21.3
 20
102.0
 30
109.7
 70
    64
  0
VERTEX
  5
240D
  8
0
 10
26.8
 20
102.0
 30
113.9
 70
    64
  0
VERTEX
  5
240E
  8
0
 10
33.2
 20
102.0
 30
116.5
 70
    64
  0
VERTEX
  5
240F
  8
0
 10
40.0
 20
102.0
 30
117.5
 70
    64
  0
VERTEX
  5
2410
  8
0
 10
19.5
 20
97.5
 30
91.0
 70
    64
  0
VERTEX
  5
2411
  8
0
 10
20.3
 20
97.5
 30
96.3
 70
    64
  0
VERTEX
  5
2412
  8
0
 10
22.3
 20
97.5
 30
101.2
 70
    64
  0
VERTEX
  5
2413
  8
0
 10
25.5
 20
97.5
 30
105.5
 70
    64
  0
VERTEX
  5
2414
  8
0
 10
29.8
 20
97.5
 30
108.7
 70
    64
  0
VERTEX
  5
2415
  8
0
 10
34.7
 20
97.5
 30
110.7
 70
    64
  0
VERTEX
  5
2416
  8
0
 10
40.0
 20
97.5
 30
111.5
 70
    64
  0
VERTEX
  5
2417
  8
0
 10
26.0
 20
94.5
 30
91.0
 70
    64
  0
VERTEX
  5
2418
  8
0
 10
26.5
 20
94.5
 30
94.6
 70
    64
  0
VERTEX
  5
2419
  8
0
 10
27.9
 20
94.5
 30
98.0
 70
    64
  0
VERTEX
  5
241A
  8
0
 10
30.1
 20
94.5
 30
100.9
 70
    64
  0
VERTEX
  5
241B
  8
0
 10
33.0
 20
94.5
 30
103.1
 70
    64
  0
VERTEX
  5
241C
  8
0
 10
36.4
 20
94.5
 30
104.5
 70
    64
  0
VERTEX
  5
241D
  8
0
 10
40.0
 20
94.5
 30
105.0
 70
    64
  0
VERTEX
  5
241E
  8
0
 10
32.0
 20
92.7
 30
91.0
 70
    64
  0
VERTEX
  5
241F
  8
0
 10
32.3
 20
92.7
 30
93.1
 70
    64
  0
VERTEX
  5
2420
  8
0
 10
33.1
 20
92.7
 30
95.0
 70
    64
  0
VERTEX
  5
2421
  8
0
 10
34.4
 20
92.7
 30
96.6
 70
    64
  0
VERTEX
  5
2422
  8
0
 10
36.0
 20
92.7
 30
97.9
 70
    64
  0
VERTEX
  5
2423
  8
0
 10
37.9
 20
92.7
 30
98.7
 70
    64
  0
VERTEX
  5
2424
  8
0
 10
40.0
 20
92.7
 30
99.0
 70
    64
  0
VERTEX
  5
2425
  8
0
 10
40.0
 20
92.0
 30
91.0
 70
    64
  0
VERTEX
  5
2426
  8
0
 10
40.0
 20
92.0
 30
91.0
 70
    64
  0
VERTEX
  5
2427
  8
0
 10
40.0
 20
92.0
 30
91.0
 70
    64
  0
VERTEX
  5
2428
  8
0
 10
40.0
 20
92.0
 30
91.0
 70
    64
  0
VERTEX
  5
2429
  8
0
 10
40.0
 20
92.0
 30
91.0
 70
    64
  0
VERTEX
  5
242A
  8
0
 10
40.0
 20
92.0
 30
91.0
 70
    64
  0
VERTEX
  5
242B
  8
0
 10
40.0
 20
92.0
 30
91.0
 70
    64
  0
SEQEND
  5
242C
  8
0
  0
POLYLINE
  5
242D
  8
0
 66
     1
 10
0.0
 20
0.0
 30
0.0
 70
    16
 71
     5
 72
     7
  0
VERTEX
  5
242E
  8
0
 10
3.5
 20
125.0
 30
91.0
 70
    64
  0
VERTEX
  5
242F
  8
0
 10
4.9
 20
125.0
 30
100.4
 70
    64
  0
VERTEX
  5
2430
  8
0
 10
8.4
 20
125.0
 30
109.1
 70
    64
  0
VERTEX
  5
2431
  8
0
 10
14.3
 20
125.0
 30
116.7
 70
    64
  0
VERTEX
  5
2432
  8
0
 10
21.9
 20
125.0
 30
122.6
 70
    64
  0
VERTEX
  5
2433
  8
0
 10
30.6
 20
125.0
 30
126.1
 70
    64
  0
VERTEX
  5
2434
  8
0
 10
40.0
 20
125.0
 30
127.5
 70
    64
  0
VERTEX
  5
2435
  8
0
 10
2.5
 20
124.0
 30
91.0
 70
    64
  0
VERTEX
  5
2436
  8
0
 10
3.8
 20
124.0
 30
100.6
 70
    64
  0
VERTEX
  5
2437
  8
0
 10
7.5
 20
124.0
 30
109.6
 70
    64
  0
VERTEX
  5
2438
  8
0
 10
13.5
 20
124.0
 30
117.5
 70
    64
  0
VERTEX
  5
2439
  8
0
 10
21.4
 20
124.0
 30
123.5
 70
    64
  0
VERTEX
  5
243A
  8
0
 10
30.4
 20
124.0
 30
127.2
 70
    64
  0
VERTEX
  5
243B
  8
0
 10
40.0
 20
124.0
 30
128.5
 70
    64
  0
VERTEX
  5
243C
  8
0
 10
2.5
 20
123.0
 30
91.0
 70
    64
  0
VERTEX
  5
243D
  8
0
 10
3.8
 20
123.0
 30
100.6
 70
    64
  0
VERTEX
  5
243E
  8
0
 10
7.5
 20
123.0
 30
109.6
 70
    64
  0
VERTEX
  5
243F
  8
0
 10
13.5
 20
123.0
 30
117.5
 70
    64
  0
VERTEX
  5
2440
  8
0
 10
21.4
 20
123.0
 30
123.5
 70
    64
  0
VERTEX
  5
2441
  8
0
 10
30.4
 20
123.0
 30
127.2
 70
    64
  0
VERTEX
  5
2442
  8
0
 10
40.0
 20
123.0
 30
128.5
 70
    64
  0
VERTEX
  5
2443
  8
0
 10
3.5
 20
122.0
 30
91.0
 70
    64
  0
VERTEX
  5
2444
  8
0
 10
4.9
 20
122.0
 30
100.4
 70
    64
  0
VERTEX
  5
2445
  8
0
 10
8.4
 20
122.0
 30
109.1
 70
    64
  0
VERTEX
  5
2446
  8
0
 10
14.3
 20
122.0
 30
116.7
 70
    64
  0
VERTEX
  5
2447
  8
0
 10
21.9
 20
122.0
 30
122.6
 70
    64
  0
VERTEX
  5
2448
  8
0
 10
30.6
 20
122.0
 30
126.1
 70
    64
  0
VERTEX
  5
2449
  8
0
 10
40.0
 20
122.0
 30
127.5
 70
    64
  0
VERTEX
  5
244A
  8
0
 10
4.5
 20
122.0
 30
91.0
 70
    64
  0
VERTEX
  5
244B
  8
0
 10
5.8
 20
122.0
 30
100.1
 70
    64
  0
VERTEX
  5
244C
  8
0
 10
9.3
 20
122.0
 30
108.6
 70
    64
  0
VERTEX
  5
244D
  8
0
 10
15.0
 20
122.0
 30
116.0
 70
    64
  0
VERTEX
  5
244E
  8
0
 10
22.4
 20
122.0
 30
121.7
 70
    64
  0
VERTEX
  5
244F
  8
0
 10
30.9
 20
122.0
 30
125.2
 70
    64
  0
VERTEX
  5
2450
  8
0
 10
40.0
 20
122.0
 30
126.5
 70
    64
  0
SEQEND
  5
2451
  8
0
  0
POLYLINE
  5
2452
  8
0
 66
     1
 10
0.0
 20
0.0
 30
0.0
 70
    16
 71
     5
 72
     7
  0
VERTEX
  5
2453
  8
0
 10
40.0
 20
128.0
 30
91.0
 70
    64
  0
VERTEX
  5
2454
  8
0
 10
40.0
 20
128.0
 30
91.0
 70
    64
  0
VERTEX
  5
2455
  8
0
 10
40.0
 20
128.0
 30
91.0
 70
    64
  0
VERTEX
  5
2456
  8
0
 10
40.0
 20
128.0
 30
91.0
 70
    64
  0
VERTEX
  5
2457
  8
0
 10
40.0
 20
128.0
 30
91.0
 70
    64
  0
VERTEX
  5
2458
  8
0
 10
40.0
 20
128.0
 30
91.0
 70
    64
  0
VERTEX
  5
2459
  8
0
 10
40.0
 20
128.0
 30
91.0
 70
    64
  0
VERTEX
  5
245A
  8
0
 10
3.5
 20
128.0
 30
91.0
 70
    64
  0
VERTEX
  5
245B
  8
0
 10
4.9
 20
128.0
 30
100.4
 70
    64
  0
VERTEX
  5
245C
  8
0
 10
8.4
 20
128.0
 30
109.1
 70
    64
  0
VERTEX
  5
245D
  8
0
 10
14.3
 20
128.0
 30
116.7
 70
    64
  0
VERTEX
  5
245E
  8
0
 10
21.9
 20
128.0
 30
122.6
 70
    64
  0
VERTEX
  5
245F
  8
0
 10
30.6
 20
128.0
 30
126.1
 70
    64
  0
VERTEX
  5
2460
  8
0
 10
40.0
 20
128.0
 30
127.5
 70
    64
  0
VERTEX
  5
2461
  8
0
 10
2.5
 20
127.0
 30
91.0
 70
    64
  0
VERTEX
  5
2462
  8
0
 10
3.8
 20
127.0
 30
100.6
 70
    64
  0
VERTEX
  5
2463
  8
0
 10
7.5
 20
127.0
 30
109.6
 70
    64
  0
VERTEX
  5
2464
  8
0
 10
13.5
 20
127.0
 30
117.5
 70
    64
  0
VERTEX
  5
2465
  8
0
 10
21.4
 20
127.0
 30
123.5
 70
    64
  0
VERTEX
  5
2466
  8
0
 10
30.4
 20
127.0
 30
127.2
 70
    64
  0
VERTEX
  5
2467
  8
0
 10
40.0
 20
127.0
 30
128.5
 70
    64
  0
VERTEX
  5
2468
  8
0
 10
2.5
 20
126.0
 30
91.0
 70
    64
  0
VERTEX
  5
2469
  8
0
 10
3.8
 20
126.0
 30
100.6
 70
    64
  0
VERTEX
  5
246A
  8
0
 10
7.5
 20
126.0
 30
109.6
 70
    64
  0
VERTEX
  5
246B
  8
0
 10
13.5
 20
126.0
 30
117.5
 70
    64
  0
VERTEX
  5
246C
  8
0
 10
21.4
 20
126.0
 30
123.5
 70
    64
  0
VERTEX
  5
246D
  8
0
 10
30.4
 20
126.0
 30
127.2
 70
    64
  0
VERTEX
  5
246E
  8
0
 10
40.0
 20
126.0
 30
128.5
 70
    64
  0
VERTEX
  5
246F
  8
0
 10
3.5
 20
125.0
 30
91.0
 70
    64
  0
VERTEX
  5
2470
  8
0
 10
4.9
 20
125.0
 30
100.4
 70
    64
  0
VERTEX
  5
2471
  8
0
 10
8.4
 20
125.0
 30
109.1
 70
    64
  0
VERTEX
  5
2472
  8
0
 10
14.3
 20
125.0
 30
116.7
 70
    64
  0
VERTEX
  5
2473
  8
0
 10
21.9
 20
125.0
 30
122.6
 70
    64
  0
VERTEX
  5
2474
  8
0
 10
30.6
 20
125.0
 30
126.1
 70
    64
  0
VERTEX
  5
2475
  8
0
 10
40.0
 20
125.0
 30
127.5
 70
    64
  0
SEQEND
  5
2476
  8
0
  0
POLYLINE
  5
2477
  8
0
 66
     1
 10
0.0
 20
0.0
 30
0.0
 70
    16
 71
     5
 72
     7
  0
VERTEX
  5
2478
  8
0
 10
40.0
 20
128.0
 30
91.0
 70
    64
  0
VERTEX
  5
2479
  8
0
 10
40.0
 20
128.0
 30
91.0
 70
    64
  0
VERTEX
  5
247A
  8
0
 10
40.0
 20
128.0
 30
91.0
 70
    64
  0
VERTEX
  5
247B
  8
0
 10
40.0
 20
128.0
 30
91.0
 70
    64
  0
VERTEX
  5
247C
  8
0
 10
40.0
 20
128.0
 30
91.0
 70
    64
  0
VERTEX
  5
247D
  8
0
 10
40.0
 20
128.0
 30
91.0
 70
    64
  0
VERTEX
  5
247E
  8
0
 10
40.0
 20
128.0
 30
91.0
 70
    64
  0
VERTEX
  5
247F
  8
0
 10
3.5
 20
128.0
 30
91.0
 70
    64
  0
VERTEX
  5
2480
  8
0
 10
4.9
 20
128.0
 30
100.4
 70
    64
  0
VERTEX
  5
2481
  8
0
 10
8.4
 20
128.0
 30
109.1
 70
    64
  0
VERTEX
  5
2482
  8
0
 10
14.3
 20
128.0
 30
116.7
 70
    64
  0
VERTEX
  5
2483
  8
0
 10
21.9
 20
128.0
 30
122.6
 70
    64
  0
VERTEX
  5
2484
  8
0
 10
30.6
 20
128.0
 30
126.1
 70
    64
  0
VERTEX
  5
2485
  8
0
 10
40.0
 20
128.0
 30
127.5
 70
    64
  0
VERTEX
  5
2486
  8
0
 10
2.5
 20
127.0
 30
91.0
 70
    64
  0
VERTEX
  5
2487
  8
0
 10
3.8
 20
127.0
 30
100.6
 70
    64
  0
VERTEX
  5
2488
  8
0
 10
7.5
 20
127.0
 30
109.6
 70
    64
  0
VERTEX
  5
2489
  8
0
 10
13.5
 20
127.0
 30
117.5
 70
    64
  0
VERTEX
  5
248A
  8
0
 10
21.4
 20
127.0
 30
123.5
 70
    64
  0
VERTEX
  5
248B
  8
0
 10
30.4
 20
127.0
 30
127.2
 70
    64
  0
VERTEX
  5
248C
  8
0
 10
40.0
 20
127.0
 30
128.5
 70
    64
  0
VERTEX
  5
248D
  8
0
 10
2.5
 20
126.0
 30
91.0
 70
    64
  0
VERTEX
  5
248E
  8
0
 10
3.8
 20
126.0
 30
100.6
 70
    64
  0
VERTEX
  5
248F
  8
0
 10
7.5
 20
126.0
 30
109.6
 70
    64
  0
VERTEX
  5
2490
  8
0
 10
13.5
 20
126.0
 30
117.5
 70
    64
  0
VERTEX
  5
2491
  8
0
 10
21.4
 20
126.0
 30
123.5
 70
    64
  0
VERTEX
  5
2492
  8
0
 10
30.4
 20
126.0
 30
127.2
 70
    64
  0
VERTEX
  5
2493
  8
0
 10
40.0
 20
126.0
 30
128.5
 70
    64
  0
VERTEX
  5
2494
  8
0
 10
3.5
 20
125.0
 30
91.0
 70
    64
  0
VERTEX
  5
2495
  8
0
 10
4.9
 20
125.0
 30
100.4
 70
    64
  0
VERTEX
  5
2496
  8
0
 10
8.4
 20
125.0
 30
109.1
 70
    64
  0
VERTEX
  5
2497
  8
0
 10
14.3
 20
125.0
 30
116.7
 70
    64
  0
VERTEX
  5
2498
  8
0
 10
21.9
 20
125.0
 30
122.6
 70
    64
  0
VERTEX
  5
2499
  8
0
 10
30.6
 20
125.0
 30
126.1
 70
    64
  0
VERTEX
  5
249A
  8
0
 10
40.0
 20
125.0
 30
127.5
 70
    64
  0
SEQEND
  5
249B
  8
0
  0
POLYLINE
  5
249C
  8
0
 66
     1
 10
0.0
 20
0.0
 30
0.0
 70
    16
 71
     5
 72
     7
  0
VERTEX
  5
249D
  8
0
 10
40.0
 20
128.0
 30
91.0
 70
    64
  0
VERTEX
  5
249E
  8
0
 10
40.0
 20
128.0
 30
91.0
 70
    64
  0
VERTEX
  5
249F
  8
0
 10
40.0
 20
128.0
 30
91.0
 70
    64
  0
VERTEX
  5
24A0
  8
0
 10
40.0
 20
128.0
 30
91.0
 70
    64
  0
VERTEX
  5
24A1
  8
0
 10
40.0
 20
128.0
 30
91.0
 70
    64
  0
VERTEX
  5
24A2
  8
0
 10
40.0
 20
128.0
 30
91.0
 70
    64
  0
VERTEX
  5
24A3
  8
0
 10
40.0
 20
128.0
 30
91.0
 70
    64
  0
VERTEX
  5
24A4
  8
0
 10
76.5
 20
128.0
 30
91.0
 70
    64
  0
VERTEX
  5
24A5
  8
0
 10
75.1
 20
128.0
 30
100.4
 70
    64
  0
VERTEX
  5
24A6
  8
0
 10
71.6
 20
128.0
 30
109.1
 70
    64
  0
VERTEX
  5
24A7
  8
0
 10
65.7
 20
128.0
 30
116.7
 70
    64
  0
VERTEX
  5
24A8
  8
0
 10
58.1
 20
128.0
 30
122.6
 70
    64
  0
VERTEX
  5
24A9
  8
0
 10
49.4
 20
128.0
 30
126.1
 70
    64
  0
VERTEX
  5
24AA
  8
0
 10
40.0
 20
128.0
 30
127.5
 70
    64
  0
VERTEX
  5
24AB
  8
0
 10
77.5
 20
127.0
 30
91.0
 70
    64
  0
VERTEX
  5
24AC
  8
0
 10
76.2
 20
127.0
 30
100.6
 70
    64
  0
VERTEX
  5
24AD
  8
0
 10
72.5
 20
127.0
 30
109.6
 70
    64
  0
VERTEX
  5
24AE
  8
0
 10
66.5
 20
127.0
 30
117.5
 70
    64
  0
VERTEX
  5
24AF
  8
0
 10
58.6
 20
127.0
 30
123.5
 70
    64
  0
VERTEX
  5
24B0
  8
0
 10
49.6
 20
127.0
 30
127.2
 70
    64
  0
VERTEX
  5
24B1
  8
0
 10
40.0
 20
127.0
 30
128.5
 70
    64
  0
VERTEX
  5
24B2
  8
0
 10
77.5
 20
126.0
 30
91.0
 70
    64
  0
VERTEX
  5
24B3
  8
0
 10
76.2
 20
126.0
 30
100.6
 70
    64
  0
VERTEX
  5
24B4
  8
0
 10
72.5
 20
126.0
 30
109.6
 70
    64
  0
VERTEX
  5
24B5
  8
0
 10
66.5
 20
126.0
 30
117.5
 70
    64
  0
VERTEX
  5
24B6
  8
0
 10
58.6
 20
126.0
 30
123.5
 70
    64
  0
VERTEX
  5
24B7
  8
0
 10
49.6
 20
126.0
 30
127.2
 70
    64
  0
VERTEX
  5
24B8
  8
0
 10
40.0
 20
126.0
 30
128.5
 70
    64
  0
VERTEX
  5
24B9
  8
0
 10
76.5
 20
125.0
 30
91.0
 70
    64
  0
VERTEX
  5
24BA
  8
0
 10
75.1
 20
125.0
 30
100.4
 70
    64
  0
VERTEX
  5
24BB
  8
0
 10
71.6
 20
125.0
 30
109.1
 70
    64
  0
VERTEX
  5
24BC
  8
0
 10
65.7
 20
125.0
 30
116.7
 70
    64
  0
VERTEX
  5
24BD
  8
0
 10
58.1
 20
125.0
 30
122.6
 70
    64
  0
VERTEX
  5
24BE
  8
0
 10
49.4
 20
125.0
 30
126.1
 70
    64
  0
VERTEX
  5
24BF
  8
0
 10
40.0
 20
125.0
 30
127.5
 70
    64
  0
SEQEND
  5
24C0
  8
0
  0
POLYLINE
  5
24C1
  8
0
 66
     1
 10
0.0
 20
0.0
 30
0.0
 70
    16
 71
     5
 72
     7
  0
VERTEX
  5
24C2
  8
0
 10
40.0
 20
128.0
 30
91.0
 70
    64
  0
VERTEX
  5
24C3
  8
0
 10
40.0
 20
128.0
 30
91.0
 70
    64
  0
VERTEX
  5
24C4
  8
0
 10
40.0
 20
128.0
 30
91.0
 70
    64
  0
VERTEX
  5
24C5
  8
0
 10
40.0
 20
128.0
 30
91.0
 70
    64
  0
VERTEX
  5
24C6
  8
0
 10
40.0
 20
128.0
 30
91.0
 70
    64
  0
VERTEX
  5
24C7
  8
0
 10
40.0
 20
128.0
 30
91.0
 70
    64
  0
VERTEX
  5
24C8
  8
0
 10
40.0
 20
128.0
 30
91.0
 70
    64
  0
VERTEX
  5
24C9
  8
0
 10
76.5
 20
128.0
 30
91.0
 70
    64
  0
VERTEX
  5
24CA
  8
0
 10
75.1
 20
128.0
 30
100.4
 70
    64
  0
VERTEX
  5
24CB
  8
0
 10
71.6
 20
128.0
 30
109.1
 70
    64
  0
VERTEX
  5
24CC
  8
0
 10
65.7
 20
128.0
 30
116.7
 70
    64
  0
VERTEX
  5
24CD
  8
0
 10
58.1
 20
128.0
 30
122.6
 70
    64
  0
VERTEX
  5
24CE
  8
0
 10
49.4
 20
128.0
 30
126.1
 70
    64
  0
VERTEX
  5
24CF
  8
0
 10
40.0
 20
128.0
 30
127.5
 70
    64
  0
VERTEX
  5
24D0
  8
0
 10
77.5
 20
127.0
 30
91.0
 70
    64
  0
VERTEX
  5
24D1
  8
0
 10
76.2
 20
127.0
 30
100.6
 70
    64
  0
VERTEX
  5
24D2
  8
0
 10
72.5
 20
127.0
 30
109.6
 70
    64
  0
VERTEX
  5
24D3
  8
0
 10
66.5
 20
127.0
 30
117.5
 70
    64
  0
VERTEX
  5
24D4
  8
0
 10
58.6
 20
127.0
 30
123.5
 70
    64
  0
VERTEX
  5
24D5
  8
0
 10
49.6
 20
127.0
 30
127.2
 70
    64
  0
VERTEX
  5
24D6
  8
0
 10
40.0
 20
127.0
 30
128.5
 70
    64
  0
VERTEX
  5
24D7
  8
0
 10
77.5
 20
126.0
 30
91.0
 70
    64
  0
VERTEX
  5
24D8
  8
0
 10
76.2
 20
126.0
 30
100.6
 70
    64
  0
VERTEX
  5
24D9
  8
0
 10
72.5
 20
126.0
 30
109.6
 70
    64
  0
VERTEX
  5
24DA
  8
0
 10
66.5
 20
126.0
 30
117.5
 70
    64
  0
VERTEX
  5
24DB
  8
0
 10
58.6
 20
126.0
 30
123.5
 70
    64
  0
VERTEX
  5
24DC
  8
0
 10
49.6
 20
126.0
 30
127.2
 70
    64
  0
VERTEX
  5
24DD
  8
0
 10
40.0
 20
126.0
 30
128.5
 70
    64
  0
VERTEX
  5
24DE
  8
0
 10
76.5
 20
125.0
 30
91.0
 70
    64
  0
VERTEX
  5
24DF
  8
0
 10
75.1
 20
125.0
 30
100.4
 70
    64
  0
VERTEX
  5
24E0
  8
0
 10
71.6
 20
125.0
 30
109.1
 70
    64
  0
VERTEX
  5
24E1
  8
0
 10
65.7
 20
125.0
 30
116.7
 70
    64
  0
VERTEX
  5
24E2
  8
0
 10
58.1
 20
125.0
 30
122.6
 70
    64
  0
VERTEX
  5
24E3
  8
0
 10
49.4
 20
125.0
 30
126.1
 70
    64
  0
VERTEX
  5
24E4
  8
0
 10
40.0
 20
125.0
 30
127.5
 70
    64
  0
SEQEND
  5
24E5
  8
0
  0
POLYLINE
  5
24E6
  8
0
 66
     1
 10
0.0
 20
0.0
 30
0.0
 70
    16
 71
     5
 72
     7
  0
VERTEX
  5
24E7
  8
0
 10
76.5
 20
125.0
 30
91.0
 70
    64
  0
VERTEX
  5
24E8
  8
0
 10
75.1
 20
125.0
 30
100.4
 70
    64
  0
VERTEX
  5
24E9
  8
0
 10
71.6
 20
125.0
 30
109.1
 70
    64
  0
VERTEX
  5
24EA
  8
0
 10
65.7
 20
125.0
 30
116.7
 70
    64
  0
VERTEX
  5
24EB
  8
0
 10
58.1
 20
125.0
 30
122.6
 70
    64
  0
VERTEX
  5
24EC
  8
0
 10
49.4
 20
125.0
 30
126.1
 70
    64
  0
VERTEX
  5
24ED
  8
0
 10
40.0
 20
125.0
 30
127.5
 70
    64
  0
VERTEX
  5
24EE
  8
0
 10
77.5
 20
124.0
 30
91.0
 70
    64
  0
VERTEX
  5
24EF
  8
0
 10
76.2
 20
124.0
 30
100.6
 70
    64
  0
VERTEX
  5
24F0
  8
0
 10
72.5
 20
124.0
 30
109.6
 70
    64
  0
VERTEX
  5
24F1
  8
0
 10
66.5
 20
124.0
 30
117.5
 70
    64
  0
VERTEX
  5
24F2
  8
0
 10
58.6
 20
124.0
 30
123.5
 70
    64
  0
VERTEX
  5
24F3
  8
0
 10
49.6
 20
124.0
 30
127.2
 70
    64
  0
VERTEX
  5
24F4
  8
0
 10
40.0
 20
124.0
 30
128.5
 70
    64
  0
VERTEX
  5
24F5
  8
0
 10
77.5
 20
123.0
 30
91.0
 70
    64
  0
VERTEX
  5
24F6
  8
0
 10
76.2
 20
123.0
 30
100.6
 70
    64
  0
VERTEX
  5
24F7
  8
0
 10
72.5
 20
123.0
 30
109.6
 70
    64
  0
VERTEX
  5
24F8
  8
0
 10
66.5
 20
123.0
 30
117.5
 70
    64
  0
VERTEX
  5
24F9
  8
0
 10
58.6
 20
123.0
 30
123.5
 70
    64
  0
VERTEX
  5
24FA
  8
0
 10
49.6
 20
123.0
 30
127.2
 70
    64
  0
VERTEX
  5
24FB
  8
0
 10
40.0
 20
123.0
 30
128.5
 70
    64
  0
VERTEX
  5
24FC
  8
0
 10
76.5
 20
122.0
 30
91.0
 70
    64
  0
VERTEX
  5
24FD
  8
0
 10
75.1
 20
122.0
 30
100.4
 70
    64
  0
VERTEX
  5
24FE
  8
0
 10
71.6
 20
122.0
 30
109.1
 70
    64
  0
VERTEX
  5
24FF
  8
0
 10
65.7
 20
122.0
 30
116.7
 70
    64
  0
VERTEX
  5
2500
  8
0
 10
58.1
 20
122.0
 30
122.6
 70
    64
  0
VERTEX
  5
2501
  8
0
 10
49.4
 20
122.0
 30
126.1
 70
    64
  0
VERTEX
  5
2502
  8
0
 10
40.0
 20
122.0
 30
127.5
 70
    64
  0
VERTEX
  5
2503
  8
0
 10
75.5
 20
122.0
 30
91.0
 70
    64
  0
VERTEX
  5
2504
  8
0
 10
74.2
 20
122.0
 30
100.1
 70
    64
  0
VERTEX
  5
2505
  8
0
 10
70.7
 20
122.0
 30
108.6
 70
    64
  0
VERTEX
  5
2506
  8
0
 10
65.0
 20
122.0
 30
116.0
 70
    64
  0
VERTEX
  5
2507
  8
0
 10
57.6
 20
122.0
 30
121.7
 70
    64
  0
VERTEX
  5
2508
  8
0
 10
49.1
 20
122.0
 30
125.2
 70
    64
  0
VERTEX
  5
2509
  8
0
 10
40.0
 20
122.0
 30
126.5
 70
    64
  0
SEQEND
  5
250A
  8
0
  0
POLYLINE
  5
250B
  8
0
 66
     1
 10
0.0
 20
0.0
 30
0.0
 70
    16
 71
     8
 72
     7
  0
VERTEX
  5
250C
  8
0
 10
75.5
 20
122.0
 30
91.0
 70
    64
  0
VERTEX
  5
250D
  8
0
 10
74.2
 20
122.0
 30
100.1
 70
    64
  0
VERTEX
  5
250E
  8
0
 10
70.7
 20
122.0
 30
108.6
 70
    64
  0
VERTEX
  5
250F
  8
0
 10
65.0
 20
122.0
 30
116.0
 70
    64
  0
VERTEX
  5
2510
  8
0
 10
57.6
 20
122.0
 30
121.7
 70
    64
  0
VERTEX
  5
2511
  8
0
 10
49.1
 20
122.0
 30
125.2
 70
    64
  0
VERTEX
  5
2512
  8
0
 10
40.0
 20
122.0
 30
126.5
 70
    64
  0
VERTEX
  5
2513
  8
0
 10
74.5
 20
115.0
 30
91.0
 70
    64
  0
VERTEX
  5
2514
  8
0
 10
73.2
 20
115.0
 30
99.9
 70
    64
  0
VERTEX
  5
2515
  8
0
 10
69.8
 20
115.0
 30
108.2
 70
    64
  0
VERTEX
  5
2516
  8
0
 10
64.3
 20
115.0
 30
115.3
 70
    64
  0
VERTEX
  5
2517
  8
0
 10
57.2
 20
115.0
 30
120.8
 70
    64
  0
VERTEX
  5
2518
  8
0
 10
48.9
 20
115.0
 30
124.2
 70
    64
  0
VERTEX
  5
2519
  8
0
 10
40.0
 20
115.0
 30
125.5
 70
    64
  0
VERTEX
  5
251A
  8
0
 10
71.5
 20
108.0
 30
91.0
 70
    64
  0
VERTEX
  5
251B
  8
0
 10
70.3
 20
108.0
 30
99.1
 70
    64
  0
VERTEX
  5
251C
  8
0
 10
67.2
 20
108.0
 30
106.7
 70
    64
  0
VERTEX
  5
251D
  8
0
 10
62.2
 20
108.0
 30
113.2
 70
    64
  0
VERTEX
  5
251E
  8
0
 10
55.7
 20
108.0
 30
118.2
 70
    64
  0
VERTEX
  5
251F
  8
0
 10
48.1
 20
108.0
 30
121.3
 70
    64
  0
VERTEX
  5
2520
  8
0
 10
40.0
 20
108.0
 30
122.5
 70
    64
  0
VERTEX
  5
2521
  8
0
 10
66.5
 20
102.0
 30
91.0
 70
    64
  0
VERTEX
  5
2522
  8
0
 10
65.5
 20
102.0
 30
97.8
 70
    64
  0
VERTEX
  5
2523
  8
0
 10
62.9
 20
102.0
 30
104.2
 70
    64
  0
VERTEX
  5
2524
  8
0
 10
58.7
 20
102.0
 30
109.7
 70
    64
  0
VERTEX
  5
2525
  8
0
 10
53.2
 20
102.0
 30
113.9
 70
    64
  0
VERTEX
  5
2526
  8
0
 10
46.8
 20
102.0
 30
116.5
 70
    64
  0
VERTEX
  5
2527
  8
0
 10
40.0
 20
102.0
 30
117.5
 70
    64
  0
VERTEX
  5
2528
  8
0
 10
60.5
 20
97.5
 30
91.0
 70
    64
  0
VERTEX
  5
2529
  8
0
 10
59.7
 20
97.5
 30
96.3
 70
    64
  0
VERTEX
  5
252A
  8
0
 10
57.7
 20
97.5
 30
101.2
 70
    64
  0
VERTEX
  5
252B
  8
0
 10
54.5
 20
97.5
 30
105.5
 70
    64
  0
VERTEX
  5
252C
  8
0
 10
50.2
 20
97.5
 30
108.7
 70
    64
  0
VERTEX
  5
252D
  8
0
 10
45.3
 20
97.5
 30
110.7
 70
    64
  0
VERTEX
  5
252E
  8
0
 10
40.0
 20
97.5
 30
111.5
 70
    64
  0
VERTEX
  5
252F
  8
0
 10
54.0
 20
94.5
 30
91.0
 70
    64
  0
VERTEX
  5
2530
  8
0
 10
53.5
 20
94.5
 30
94.6
 70
    64
  0
VERTEX
  5
2531
  8
0
 10
52.1
 20
94.5
 30
98.0
 70
    64
  0
VERTEX
  5
2532
  8
0
 10
49.9
 20
94.5
 30
100.9
 70
    64
  0
VERTEX
  5
2533
  8
0
 10
47.0
 20
94.5
 30
103.1
 70
    64
  0
VERTEX
  5
2534
  8
0
 10
43.6
 20
94.5
 30
104.5
 70
    64
  0
VERTEX
  5
2535
  8
0
 10
40.0
 20
94.5
 30
105.0
 70
    64
  0
VERTEX
  5
2536
  8
0
 10
48.0
 20
92.7
 30
91.0
 70
    64
  0
VERTEX
  5
2537
  8
0
 10
47.7
 20
92.7
 30
93.1
 70
    64
  0
VERTEX
  5
2538
  8
0
 10
46.9
 20
92.7
 30
95.0
 70
    64
  0
VERTEX
  5
2539
  8
0
 10
45.6
 20
92.7
 30
96.6
 70
    64
  0
VERTEX
  5
253A
  8
0
 10
44.0
 20
92.7
 30
97.9
 70
    64
  0
VERTEX
  5
253B
  8
0
 10
42.1
 20
92.7
 30
98.7
 70
    64
  0
VERTEX
  5
253C
  8
0
 10
40.0
 20
92.7
 30
99.0
 70
    64
  0
VERTEX
  5
253D
  8
0
 10
40.0
 20
92.0
 30
91.0
 70
    64
  0
VERTEX
  5
253E
  8
0
 10
40.0
 20
92.0
 30
91.0
 70
    64
  0
VERTEX
  5
253F
  8
0
 10
40.0
 20
92.0
 30
91.0
 70
    64
  0
VERTEX
  5
2540
  8
0
 10
40.0
 20
92.0
 30
91.0
 70
    64
  0
VERTEX
  5
2541
  8
0
 10
40.0
 20
92.0
 30
91.0
 70
    64
  0
VERTEX
  5
2542
  8
0
 10
40.0
 20
92.0
 30
91.0
 70
    64
  0
VERTEX
  5
2543
  8
0
 10
40.0
 20
92.0
 30
91.0
 70
    64
  0
SEQEND
  5
2544
  8
0
  0
POLYLINE
  5
2545
  8
0
 66
     1
 10
0.0
 20
0.0
 30
0.0
 70
    16
 71
     2
 72
     4
  0
VERTEX
  5
2546
  8
0
 10
40.0
 20
77.7
 30
100.0
 70
    64
  0
VERTEX
  5
2547
  8
0
 10
40.0
 20
77.7
 30
100.0
 70
    64
  0
VERTEX
  5
2548
  8
0
 10
31.0
 20
77.7
 30
100.0
 70
    64
  0
VERTEX
  5
2549
  8
0
 10
31.0
 20
77.7
 30
91.0
 70
    64
  0
VERTEX
  5
254A
  8
0
 10
40.0
 20
94.0
 30
100.0
 70
    64
  0
VERTEX
  5
254B
  8
0
 10
40.0
 20
94.0
 30
100.0
 70
    64
  0
VERTEX
  5
254C
  8
0
 10
31.0
 20
96.0
 30
100.0
 70
    64
  0
VERTEX
  5
254D
  8
0
 10
31.0
 20
96.0
 30
91.0
 70
    64
  0
SEQEND
  5
254E
  8
0
  0
POLYLINE
  5
254F
  8
0
 66
     1
 10
0.0
 20
0.0
 30
0.0
 70
    16
 71
     2
 72
     4
  0
VERTEX
  5
2550
  8
0
 10
40.0
 20
77.7
 30
82.0
 70
    64
  0
VERTEX
  5
2551
  8
0
 10
40.0
 20
77.7
 30
82.0
 70
    64
  0
VERTEX
  5
2552
  8
0
 10
31.0
 20
77.7
 30
82.0
 70
    64
  0
VERTEX
  5
2553
  8
0
 10
31.0
 20
77.7
 30
91.0
 70
    64
  0
VERTEX
  5
2554
  8
0
 10
40.0
 20
94.0
 30
82.0
 70
    64
  0
VERTEX
  5
2555
  8
0
 10
40.0
 20
94.0
 30
82.0
 70
    64
  0
VERTEX
  5
2556
  8
0
 10
31.0
 20
96.0
 30
82.0
 70
    64
  0
VERTEX
  5
2557
  8
0
 10
31.0
 20
96.0
 30
91.0
 70
    64
  0
SEQEND
  5
2558
  8
0
  0
ENDSEC
  0
EOF
