  0
SECTION
  2
HEADER
  9
$ACADVER
  1
AC1009
  9
$INSBASE
 10
0.0
 20
0.0
 30
0.0
  9
$EXTMIN
 10
0.0
 20
0.0
 30
0.0
  9
$EXTMAX
 10
78.0
 20
87.5
 30
228.0
  9
$LIMMIN
 10
0.0
 20
0.0
  9
$LIMMAX
 10
12.0
 20
9.0
  9
$ORTHOMODE
 70
     0
  9
$REGENMODE
 70
     1
  9
$FILLMODE
 70
     1
  9
$QTEXTMODE
 70
     0
  9
$MIRRTEXT
 70
     1
  9
$DRAGMODE
 70
     2
  9
$LTSCALE
 40
1.0
  9
$OSMODE
 70
     0
  9
$ATTMODE
 70
     1
  9
$TEXTSIZE
 40
0.2
  9
$TRACEWID
 40
0.05
  9
$TEXTSTYLE
  7
STANDARD
  9
$CLAYER
  8
0
  9
$CELTYPE
  6
BYLAYER
  9
$CECOLOR
 62
   256
  9
$DIMSCALE
 40
1.0
  9
$DIMASZ
 40
0.18
  9
$DIMEXO
 40
0.0625
  9
$DIMDLI
 40
0.38
  9
$DIMRND
 40
0.0
  9
$DIMDLE
 40
0.0
  9
$DIMEXE
 40
0.18
  9
$DIMTP
 40
0.0
  9
$DIMTM
 40
0.0
  9
$DIMTXT
 40
0.18
  9
$DIMCEN
 40
0.09
  9
$DIMTSZ
 40
0.0
  9
$DIMTOL
 70
     0
  9
$DIMLIM
 70
     0
  9
$DIMTIH
 70
     1
  9
$DIMTOH
 70
     1
  9
$DIMSE1
 70
     0
  9
$DIMSE2
 70
     0
  9
$DIMTAD
 70
     0
  9
$DIMZIN
 70
     0
  9
$DIMBLK
  1

  9
$DIMASO
 70
     1
  9
$DIMSHO
 70
     1
  9
$DIMPOST
  1

  9
$DIMAPOST
  1

  9
$DIMALT
 70
     0
  9
$DIMALTD
 70
     2
  9
$DIMALTF
 40
25.4
  9
$DIMLFAC
 40
1.0
  9
$DIMTOFL
 70
     0
  9
$DIMTVP
 40
0.0
  9
$DIMTIX
 70
     0
  9
$DIMSOXD
 70
     0
  9
$DIMSAH
 70
     0
  9
$DIMBLK1
  1

  9
$DIMBLK2
  1

  9
$DIMSTYLE
  2
STANDARD
  9
$DIMCLRD
 70
     0
  9
$DIMCLRE
 70
     0
  9
$DIMCLRT
 70
     0
  9
$DIMTFAC
 40
1.0
  9
$DIMGAP
 40
0.09
  9
$LUNITS
 70
     2
  9
$LUPREC
 70
     4
  9
$SKETCHINC
 40
0.1
  9
$FILLETRAD
 40
0.5
  9
$AUNITS
 70
     0
  9
$AUPREC
 70
     0
  9
$MENU
  1
.
  9
$ELEVATION
 40
0.0
  9
$PELEVATION
 40
0.0
  9
$THICKNESS
 40
0.0
  9
$LIMCHECK
 70
     0
  9
$BLIPMODE
 70
     0
  9
$CHAMFERA
 40
0.5
  9
$CHAMFERB
 40
0.5
  9
$SKPOLY
 70
     1
  9
$TDCREATE
 40
2451432.822028
  9
$TDUPDATE
 40
2451665.425341
  9
$TDINDWG
 40
0.388577
  9
$TDUSRTIMER
 40
0.388577
  9
$USRTIMER
 70
     1
  9
$ANGBASE
 50
0.0
  9
$ANGDIR
 70
     0
  9
$PDMODE
 70
     0
  9
$PDSIZE
 40
0.0
  9
$PLINEWID
 40
0.0
  9
$COORDS
 70
     1
  9
$SPLFRAME
 70
     0
  9
$SPLINETYPE
 70
     6
  9
$SPLINESEGS
 70
     8
  9
$ATTDIA
 70
     0
  9
$ATTREQ
 70
     1
  9
$HANDLING
 70
     1
  9
$HANDSEED
  5
3110
  9
$SURFTAB1
 70
     6
  9
$SURFTAB2
 70
     6
  9
$SURFTYPE
 70
     6
  9
$SURFU
 70
     6
  9
$SURFV
 70
     6
  9
$UCSNAME
  2

  9
$UCSORG
 10
0.0
 20
0.0
 30
0.0
  9
$UCSXDIR
 10
1.0
 20
0.0
 30
0.0
  9
$UCSYDIR
 10
0.0
 20
1.0
 30
0.0
  9
$PUCSNAME
  2

  9
$PUCSORG
 10
0.0
 20
0.0
 30
0.0
  9
$PUCSXDIR
 10
1.0
 20
0.0
 30
0.0
  9
$PUCSYDIR
 10
0.0
 20
1.0
 30
0.0
  9
$USERI1
 70
     0
  9
$USERI2
 70
     0
  9
$USERI3
 70
     0
  9
$USERI4
 70
     0
  9
$USERI5
 70
     0
  9
$USERR1
 40
0.0
  9
$USERR2
 40
0.0
  9
$USERR3
 40
0.0
  9
$USERR4
 40
0.0
  9
$USERR5
 40
0.0
  9
$WORLDVIEW
 70
     1
  9
$SHADEDGE
 70
     3
  9
$SHADEDIF
 70
    70
  9
$TILEMODE
 70
     1
  9
$MAXACTVP
 70
    48
  9
$PLIMCHECK
 70
     0
  9
$PEXTMIN
 10
1.000000E+020
 20
1.000000E+020
 30
1.000000E+020
  9
$PEXTMAX
 10
-1.000000E+020
 20
-1.000000E+020
 30
-1.000000E+020
  9
$PLIMMIN
 10
0.0
 20
0.0
  9
$PLIMMAX
 10
12.0
 20
9.0
  9
$UNITMODE
 70
     0
  9
$VISRETAIN
 70
     1
  9
$PLINEGEN
 70
     0
  9
$PSLTSCALE
 70
     1
  0
ENDSEC
  0
SECTION
  2
TABLES
  0
TABLE
  2
VPORT
 70
     7
  0
VPORT
  2
*ACTIVE
 70
     0
 10
0.0
 20
0.0
 11
1.0
 21
1.0
 12
-3.358757
 22
126.863156
 13
0.0
 23
0.0
 14
0.5
 24
0.5
 15
0.5
 25
0.5
 16
-1.0
 26
-1.0
 36
1.0
 17
0.0
 27
0.0
 37
0.0
 40
256.878192
 41
1.991701
 42
50.0
 43
0.0
 44
0.0
 50
0.0
 51
0.0
 71
     0
 72
   100
 73
     1
 74
     1
 75
     0
 76
     0
 77
     0
 78
     0
  0
ENDTAB
  0
TABLE
  2
LTYPE
 70
     1
  0
LTYPE
  2
CONTINUOUS
 70
     0
  3
Solid line
 72
    65
 73
     0
 40
0.0
  0
ENDTAB
  0
TABLE
  2
LAYER
 70
     2
  0
LAYER
  2
0
 70
     0
 62
     7
  6
CONTINUOUS
  0
LAYER
  2
ASHADE
 70
     4
 62
     7
  6
CONTINUOUS
  0
ENDTAB
  0
TABLE
  2
STYLE
 70
     2
  0
STYLE
  2
STANDARD
 70
     0
 40
0.0
 41
1.0
 50
0.0
 71
     0
 42
0.2
  3
txt
  4

  0
STYLE
  2
ASHADE
 70
     0
 40
0.2
 41
1.0
 50
0.0
 71
     0
 42
0.2
  3
simplex.shx
  4

  0
ENDTAB
  0
TABLE
  2
VIEW
 70
     0
  0
ENDTAB
  0
TABLE
  2
UCS
 70
     0
  0
ENDTAB
  0
TABLE
  2
APPID
 70
     6
  0
APPID
  2
ACAD
 70
     0
  0
APPID
  2
AVE_RENDER
 70
     0
  0
APPID
  2
AVE_ENTITY_MATERIAL
 70
     0
  0
APPID
  2
AVE_FINISH
 70
     0
  0
APPID
  2
AVE_MATERIAL
 70
     0
  0
APPID
  2
AVE_GLOBAL
 70
     0
  0
ENDTAB
  0
TABLE
  2
DIMSTYLE
 70
     1
  0
DIMSTYLE
  2
STANDARD
 70
     0
  3

  4

  5

  6

  7

 40
1.0
 41
0.18
 42
0.0625
 43
0.38
 44
0.18
 45
0.0
 46
0.0
 47
0.0
 48
0.0
140
0.18
141
0.09
142
0.0
143
25.4
144
1.0
145
0.0
146
1.0
147
0.09
 71
     0
 72
     0
 73
     1
 74
     1
 75
     0
 76
     0
 77
     0
 78
     0
170
     0
171
     2
172
     0
173
     0
174
     0
175
     0
176
     0
177
     0
178
     0
  0
ENDTAB
  0
ENDSEC
  0
SECTION
  2
BLOCKS
  0
BLOCK
  8
0
  2
$MODEL_SPACE
 70
     0
 10
0.0
 20
0.0
 30
0.0
  3
$MODEL_SPACE
  1

  0
ENDBLK
  5
1B
  8
0
  0
BLOCK
 67
     1
  8
0
  2
$PAPER_SPACE
 70
     0
 10
0.0
 20
0.0
 30
0.0
  3
$PAPER_SPACE
  1

  0
ENDBLK
  5
18
 67
     1
  8
0
  0
BLOCK
  8
ASHADE
  2
AVE_RENDER
 70
     0
 10
0.0
 20
0.0
 30
0.0
  3
AVE_RENDER
  1
AVE_RENDER
  0
ENDBLK
  5
22C
  8
0
  0
BLOCK
  8
ASHADE
  2
AVE_GLOBAL
 70
     0
 10
0.0
 20
0.0
 30
0.0
  3
AVE_GLOBAL
  1
AVE_GLOBAL
  0
ENDBLK
  5
23A
  8
0
  0
ENDSEC
  0
SECTION
  2
ENTITIES
  0
INSERT
  5
22D
  8
ASHADE
 62
     1
  2
AVE_RENDER
 10
0.0
 20
0.0
 30
0.0
1001
AVE_RENDER
1002
{
1070
     7
1000
Pref
1070
    30
1070
    20
1070
     1
1070
     0
1000

1070
    10
1070
     1
1070
    10
1040
1.0
1070
     1
1040
0.3
1040
0.7
1040
0.0
1040
10.0
1010
-1.0
1020
-1.0
1030
-1.0
1040
0.3
1070
    49
1070
     0
1070
     0
1010
1.0
1020
1.0
1030
1.0
1040
45.0
1070
     1
1070
     0
1000
WCS
1040
0.0
1070
     0
1040
10.0
1002
}
  0
INSERT
  5
22E
  8
ASHADE
 62
     3
  2
AVE_RENDER
 10
0.0
 20
0.0
 30
0.0
1001
AVE_RENDER
1002
{
1070
     0
1000
Full Opt
1070
     0
1070
     1
1070
     1
1070
     1
1070
     0
1070
     0
1070
     0
1070
     1
1070
     1
1040
0.0001
1040
0.0001
1002
}
  0
INSERT
  5
22F
  8
ASHADE
 62
     4
  2
AVE_RENDER
 10
0.0
 20
0.0
 30
0.0
1001
AVE_RENDER
1002
{
1070
     0
1000
Quick Opt
1070
     0
1070
     1
1070
     1
1070
     1
1070
     0
1070
     0
1070
     1
1002
}
  0
INSERT
  5
230
  8
ASHADE
 62
     5
  2
AVE_RENDER
 10
0.0
 20
0.0
 30
0.0
1001
AVE_RENDER
1002
{
1070
     1
1000
Scanl Opt
1070
     2
1070
     0
1070
     2
1040
2.0
1040
4.0
1070
     0
1070
     1
1070
     0
1040
0.03
1002
}
  0
INSERT
  5
231
  8
ASHADE
 62
     6
  2
AVE_RENDER
 10
0.0
 20
0.0
 30
0.0
1001
AVE_RENDER
1002
{
1070
     2
1000
Raytr Opt
1070
     2
1070
     0
1070
     2
1040
2.0
1040
4.0
1070
     0
1070
     1
1070
     1
1040
0.03
1070
     3
1040
0.03
1002
}
  0
INSERT
  5
232
  8
ASHADE
 62
     7
  2
AVE_RENDER
 10
0.0
 20
0.0
 30
0.0
1001
AVE_RENDER
1002
{
1070
     0
1000
RFile Opt
1070
     1
1070
   640
1070
   480
1070
 10000
1070
     1
1070
     8
1070
     8
1070
     0
1070
     0
1070
     0
1070
     0
1070
     0
1070
     0
1070
     0
1002
}
  0
INSERT
  5
233
  8
ASHADE
 62
     8
  2
AVE_RENDER
 10
0.0
 20
0.0
 30
0.0
1001
AVE_RENDER
1002
{
1070
     0
1000
Fog Opt
1070
     0
1070
     0
1040
0.0
1040
1.0
1040
0.0
1040
1.0
1010
0.5
1020
0.5
1030
0.5
1002
}
  0
INSERT
  5
234
  8
ASHADE
 62
     9
  2
AVE_RENDER
 10
0.0
 20
0.0
 30
0.0
1001
AVE_RENDER
1002
{
1070
     0
1000
BG Opt
1070
     0
1070
     1
1010
0.0
1020
0.0
1030
0.0
1010
1.0
1020
0.0
1030
0.0
1010
0.0
1020
1.0
1030
0.0
1010
0.0
1020
0.0
1030
1.0
1040
0.5
1040
0.33
1040
0.0
1000

1070
     1
1000

1070
     1
1070
     1
1040
1.0
1040
1.0
1040
0.0
1040
0.0
1070
     0
1002
}
  0
INSERT
  5
23B
  8
ASHADE
 62
     1
  2
AVE_GLOBAL
 10
0.0
 20
0.0
 30
0.0
1001
AVE_MATERIAL
1002
{
1000
*GLOBAL*
1000
1
1000
Global finish.
1002
{
1002
}
1002
{
1070
    63
1002
{
1002
{
1010
-1.0
1020
-1.0
1030
-1.0
1002
}
1040
0.1
1000

1040
0.0
1002
{
1002
}
1040
0.0
1002
{
1002
}
1040
0.0
1002
}
1002
{
1002
{
1010
-1.0
1020
-1.0
1030
-1.0
1002
}
1040
0.7
1000

1040
0.0
1002
{
1002
}
1040
0.0
1002
{
1002
}
1040
0.0
1002
}
1002
{
1002
{
1010
-1.0
1020
-1.0
1030
-1.0
1002
}
1040
0.2
1000

1040
0.0
1002
{
1002
}
1040
0.0
1002
{
1002
}
1040
0.0
1002
}
1002
{
1070
     0
1002
{
1070
     1
1002
{
1040
1.0
1040
1.0
1000

1040
0.0
1002
{
1002
}
1040
0.0
1002
{
1002
}
1040
0.0
1002
}
1002
}
1040
1.0
1040
0.0
1040
0.0
1002
}
1002
{
1040
1.0
1040
1.0
1000

1040
0.0
1002
{
1002
}
1040
0.0
1002
{
1002
}
1040
0.0
1002
}
1002
{
1040
0.5
1040
1.0
1000

1040
0.0
1002
{
1002
}
1040
0.0
1002
{
1002
}
1040
0.0
1002
}
1002
{
1070
     0
1040
0.0
1002
{
1002
}
1040
1.0
1002
{
1002
}
1040
0.0
1002
}
1002
{
1040
0.0
1002
{
1002
{
1010
0.0
1020
0.0
1030
0.0
1002
}
1040
1.0
1000

1040
0.0
1002
{
1002
}
1040
0.0
1002
{
1002
}
1040
0.0
1002
}
1002
}
1002
{
1002
{
1070
     1
1002
{
1040
0.0
1040
1.0
1000

1040
0.0
1002
{
1002
}
1040
0.0
1002
{
1002
}
1040
0.0
1002
}
1002
}
1040
0.0
1002
{
1002
}
1010
1.0
1020
0.0
1030
0.0
1010
0.0
1020
1.0
1030
0.0
1010
0.0
1020
0.0
1030
1.0
1070
     0
1002
}
1002
{
1002
{
1040
1.0
1040
1.0
1002
{
1070
     1
1002
{
1040
1.0
1040
1.0
1000

1040
0.0
1002
{
1002
}
1040
0.0
1002
{
1002
}
1040
0.0
1002
}
1002
}
1002
}
1070
     0
1040
0.0
1002
{
1002
}
1002
}
1002
{
1002
}
1002
}
1002
{
1071
        3
1070
     3
1070
     0
1002
{
1070
     2
1070
     0
1070
     0
1040
0.0
1002
}
1070
     0
1070
     2
1002
{
1002
}
1002
}
1002
{
1040
8030.0
1040
190.300003
1040
0.305
1040
228.0
1040
545.0
1040
14.0
1040
17.4
1040
0.456
1002
}
1002
}
  0
POLYLINE
  5
2CE8
  8
0
 66
     1
 10
0.0
 20
0.0
 30
0.0
 70
    16
 71
     9
 72
     7
  0
VERTEX
  5
2CE9
  8
0
 10
39.0
 20
37.5
 30
203.0
 70
    64
  0
VERTEX
  5
2CEA
  8
0
 10
36.2
 20
37.9
 30
203.0
 70
    64
  0
VERTEX
  5
2CEB
  8
0
 10
33.5
 20
39.0
 30
203.0
 70
    64
  0
VERTEX
  5
2CEC
  8
0
 10
31.2
 20
40.7
 30
203.0
 70
    64
  0
VERTEX
  5
2CED
  8
0
 10
29.5
 20
43.0
 30
203.0
 70
    64
  0
VERTEX
  5
2CEE
  8
0
 10
28.4
 20
45.7
 30
203.0
 70
    64
  0
VERTEX
  5
2CEF
  8
0
 10
28.0
 20
48.5
 30
203.0
 70
    64
  0
VERTEX
  5
2CF0
  8
0
 10
39.0
 20
37.5
 30
203.0
 70
    64
  0
VERTEX
  5
2CF1
  8
0
 10
36.2
 20
37.9
 30
203.0
 70
    64
  0
VERTEX
  5
2CF2
  8
0
 10
33.5
 20
39.0
 30
203.0
 70
    64
  0
VERTEX
  5
2CF3
  8
0
 10
31.2
 20
40.7
 30
203.0
 70
    64
  0
VERTEX
  5
2CF4
  8
0
 10
29.5
 20
43.0
 30
203.0
 70
    64
  0
VERTEX
  5
2CF5
  8
0
 10
28.4
 20
45.7
 30
203.0
 70
    64
  0
VERTEX
  5
2CF6
  8
0
 10
28.0
 20
48.5
 30
203.0
 70
    64
  0
VERTEX
  5
2CF7
  8
0
 10
39.0
 20
37.5
 30
203.0
 70
    64
  0
VERTEX
  5
2CF8
  8
0
 10
36.2
 20
37.9
 30
203.0
 70
    64
  0
VERTEX
  5
2CF9
  8
0
 10
33.5
 20
39.0
 30
203.0
 70
    64
  0
VERTEX
  5
2CFA
  8
0
 10
31.2
 20
40.7
 30
203.0
 70
    64
  0
VERTEX
  5
2CFB
  8
0
 10
29.5
 20
43.0
 30
203.0
 70
    64
  0
VERTEX
  5
2CFC
  8
0
 10
28.4
 20
45.7
 30
203.0
 70
    64
  0
VERTEX
  5
2CFD
  8
0
 10
28.0
 20
48.5
 30
203.0
 70
    64
  0
VERTEX
  5
2CFE
  8
0
 10
39.0
 20
37.5
 30
203.0
 70
    64
  0
VERTEX
  5
2CFF
  8
0
 10
36.2
 20
37.9
 30
203.0
 70
    64
  0
VERTEX
  5
2D00
  8
0
 10
33.5
 20
39.0
 30
203.0
 70
    64
  0
VERTEX
  5
2D01
  8
0
 10
31.2
 20
40.7
 30
203.0
 70
    64
  0
VERTEX
  5
2D02
  8
0
 10
29.5
 20
43.0
 30
203.0
 70
    64
  0
VERTEX
  5
2D03
  8
0
 10
28.4
 20
45.7
 30
203.0
 70
    64
  0
VERTEX
  5
2D04
  8
0
 10
28.0
 20
48.5
 30
203.0
 70
    64
  0
VERTEX
  5
2D05
  8
0
 10
39.0
 20
37.5
 30
203.0
 70
    64
  0
VERTEX
  5
2D06
  8
0
 10
36.2
 20
37.9
 30
203.0
 70
    64
  0
VERTEX
  5
2D07
  8
0
 10
33.5
 20
39.0
 30
203.0
 70
    64
  0
VERTEX
  5
2D08
  8
0
 10
31.2
 20
40.7
 30
203.0
 70
    64
  0
VERTEX
  5
2D09
  8
0
 10
29.5
 20
43.0
 30
203.0
 70
    64
  0
VERTEX
  5
2D0A
  8
0
 10
28.4
 20
45.7
 30
203.0
 70
    64
  0
VERTEX
  5
2D0B
  8
0
 10
28.0
 20
48.5
 30
203.0
 70
    64
  0
VERTEX
  5
2D0C
  8
0
 10
35.6
 20
35.9
 30
222.0
 70
    64
  0
VERTEX
  5
2D0D
  8
0
 10
35.6
 20
35.9
 30
222.0
 70
    64
  0
VERTEX
  5
2D0E
  8
0
 10
32.5
 20
37.2
 30
222.0
 70
    64
  0
VERTEX
  5
2D0F
  8
0
 10
29.8
 20
39.3
 30
222.0
 70
    64
  0
VERTEX
  5
2D10
  8
0
 10
27.7
 20
42.0
 30
222.0
 70
    64
  0
VERTEX
  5
2D11
  8
0
 10
26.4
 20
45.1
 30
222.0
 70
    64
  0
VERTEX
  5
2D12
  8
0
 10
26.0
 20
48.5
 30
222.0
 70
    64
  0
VERTEX
  5
2D13
  8
0
 10
35.6
 20
35.9
 30
226.0
 70
    64
  0
VERTEX
  5
2D14
  8
0
 10
35.6
 20
35.9
 30
226.0
 70
    64
  0
VERTEX
  5
2D15
  8
0
 10
32.5
 20
37.2
 30
226.0
 70
    64
  0
VERTEX
  5
2D16
  8
0
 10
29.8
 20
39.3
 30
226.0
 70
    64
  0
VERTEX
  5
2D17
  8
0
 10
27.7
 20
42.0
 30
226.0
 70
    64
  0
VERTEX
  5
2D18
  8
0
 10
26.4
 20
45.1
 30
226.0
 70
    64
  0
VERTEX
  5
2D19
  8
0
 10
26.0
 20
48.5
 30
226.0
 70
    64
  0
VERTEX
  5
2D1A
  8
0
 10
39.0
 20
37.5
 30
227.5
 70
    64
  0
VERTEX
  5
2D1B
  8
0
 10
36.2
 20
37.9
 30
227.5
 70
    64
  0
VERTEX
  5
2D1C
  8
0
 10
33.5
 20
39.0
 30
227.5
 70
    64
  0
VERTEX
  5
2D1D
  8
0
 10
31.2
 20
40.7
 30
227.5
 70
    64
  0
VERTEX
  5
2D1E
  8
0
 10
29.5
 20
43.0
 30
227.5
 70
    64
  0
VERTEX
  5
2D1F
  8
0
 10
28.4
 20
45.7
 30
227.5
 70
    64
  0
VERTEX
  5
2D20
  8
0
 10
28.0
 20
48.5
 30
227.5
 70
    64
  0
VERTEX
  5
2D21
  8
0
 10
39.0
 20
48.5
 30
228.0
 70
    64
  0
VERTEX
  5
2D22
  8
0
 10
39.0
 20
48.5
 30
228.0
 70
    64
  0
VERTEX
  5
2D23
  8
0
 10
39.0
 20
48.5
 30
228.0
 70
    64
  0
VERTEX
  5
2D24
  8
0
 10
39.0
 20
48.5
 30
228.0
 70
    64
  0
VERTEX
  5
2D25
  8
0
 10
39.0
 20
48.5
 30
228.0
 70
    64
  0
VERTEX
  5
2D26
  8
0
 10
39.0
 20
48.5
 30
228.0
 70
    64
  0
VERTEX
  5
2D27
  8
0
 10
39.0
 20
48.5
 30
228.0
 70
    64
  0
SEQEND
  5
2D28
  8
0
  0
POLYLINE
  5
2D29
  8
0
 66
     1
 10
0.0
 20
0.0
 30
0.0
 70
    16
 71
     9
 72
     7
  0
VERTEX
  5
2D2A
  8
0
 10
39.0
 20
59.5
 30
203.0
 70
    64
  0
VERTEX
  5
2D2B
  8
0
 10
36.2
 20
59.1
 30
203.0
 70
    64
  0
VERTEX
  5
2D2C
  8
0
 10
33.5
 20
58.0
 30
203.0
 70
    64
  0
VERTEX
  5
2D2D
  8
0
 10
31.2
 20
56.3
 30
203.0
 70
    64
  0
VERTEX
  5
2D2E
  8
0
 10
29.5
 20
54.0
 30
203.0
 70
    64
  0
VERTEX
  5
2D2F
  8
0
 10
28.4
 20
51.3
 30
203.0
 70
    64
  0
VERTEX
  5
2D30
  8
0
 10
28.0
 20
48.5
 30
203.0
 70
    64
  0
VERTEX
  5
2D31
  8
0
 10
39.0
 20
59.5
 30
203.0
 70
    64
  0
VERTEX
  5
2D32
  8
0
 10
36.2
 20
59.1
 30
203.0
 70
    64
  0
VERTEX
  5
2D33
  8
0
 10
33.5
 20
58.0
 30
203.0
 70
    64
  0
VERTEX
  5
2D34
  8
0
 10
31.2
 20
56.3
 30
203.0
 70
    64
  0
VERTEX
  5
2D35
  8
0
 10
29.5
 20
54.0
 30
203.0
 70
    64
  0
VERTEX
  5
2D36
  8
0
 10
28.4
 20
51.3
 30
203.0
 70
    64
  0
VERTEX
  5
2D37
  8
0
 10
28.0
 20
48.5
 30
203.0
 70
    64
  0
VERTEX
  5
2D38
  8
0
 10
39.0
 20
59.5
 30
203.0
 70
    64
  0
VERTEX
  5
2D39
  8
0
 10
36.2
 20
59.1
 30
203.0
 70
    64
  0
VERTEX
  5
2D3A
  8
0
 10
33.5
 20
58.0
 30
203.0
 70
    64
  0
VERTEX
  5
2D3B
  8
0
 10
31.2
 20
56.3
 30
203.0
 70
    64
  0
VERTEX
  5
2D3C
  8
0
 10
29.5
 20
54.0
 30
203.0
 70
    64
  0
VERTEX
  5
2D3D
  8
0
 10
28.4
 20
51.3
 30
203.0
 70
    64
  0
VERTEX
  5
2D3E
  8
0
 10
28.0
 20
48.5
 30
203.0
 70
    64
  0
VERTEX
  5
2D3F
  8
0
 10
39.0
 20
59.5
 30
203.0
 70
    64
  0
VERTEX
  5
2D40
  8
0
 10
36.2
 20
59.1
 30
203.0
 70
    64
  0
VERTEX
  5
2D41
  8
0
 10
33.5
 20
58.0
 30
203.0
 70
    64
  0
VERTEX
  5
2D42
  8
0
 10
31.2
 20
56.3
 30
203.0
 70
    64
  0
VERTEX
  5
2D43
  8
0
 10
29.5
 20
54.0
 30
203.0
 70
    64
  0
VERTEX
  5
2D44
  8
0
 10
28.4
 20
51.3
 30
203.0
 70
    64
  0
VERTEX
  5
2D45
  8
0
 10
28.0
 20
48.5
 30
203.0
 70
    64
  0
VERTEX
  5
2D46
  8
0
 10
39.0
 20
59.5
 30
203.0
 70
    64
  0
VERTEX
  5
2D47
  8
0
 10
36.2
 20
59.1
 30
203.0
 70
    64
  0
VERTEX
  5
2D48
  8
0
 10
33.5
 20
58.0
 30
203.0
 70
    64
  0
VERTEX
  5
2D49
  8
0
 10
31.2
 20
56.3
 30
203.0
 70
    64
  0
VERTEX
  5
2D4A
  8
0
 10
29.5
 20
54.0
 30
203.0
 70
    64
  0
VERTEX
  5
2D4B
  8
0
 10
28.4
 20
51.3
 30
203.0
 70
    64
  0
VERTEX
  5
2D4C
  8
0
 10
28.0
 20
48.5
 30
203.0
 70
    64
  0
VERTEX
  5
2D4D
  8
0
 10
39.0
 20
61.5
 30
222.0
 70
    64
  0
VERTEX
  5
2D4E
  8
0
 10
35.6
 20
61.1
 30
222.0
 70
    64
  0
VERTEX
  5
2D4F
  8
0
 10
32.5
 20
59.8
 30
222.0
 70
    64
  0
VERTEX
  5
2D50
  8
0
 10
29.8
 20
57.7
 30
222.0
 70
    64
  0
VERTEX
  5
2D51
  8
0
 10
27.7
 20
55.0
 30
222.0
 70
    64
  0
VERTEX
  5
2D52
  8
0
 10
26.4
 20
51.9
 30
222.0
 70
    64
  0
VERTEX
  5
2D53
  8
0
 10
26.0
 20
48.5
 30
222.0
 70
    64
  0
VERTEX
  5
2D54
  8
0
 10
39.0
 20
61.5
 30
226.0
 70
    64
  0
VERTEX
  5
2D55
  8
0
 10
35.6
 20
61.1
 30
226.0
 70
    64
  0
VERTEX
  5
2D56
  8
0
 10
32.5
 20
59.8
 30
226.0
 70
    64
  0
VERTEX
  5
2D57
  8
0
 10
29.8
 20
57.7
 30
226.0
 70
    64
  0
VERTEX
  5
2D58
  8
0
 10
27.7
 20
55.0
 30
226.0
 70
    64
  0
VERTEX
  5
2D59
  8
0
 10
26.4
 20
51.9
 30
226.0
 70
    64
  0
VERTEX
  5
2D5A
  8
0
 10
26.0
 20
48.5
 30
226.0
 70
    64
  0
VERTEX
  5
2D5B
  8
0
 10
39.0
 20
59.5
 30
227.5
 70
    64
  0
VERTEX
  5
2D5C
  8
0
 10
36.2
 20
59.1
 30
227.5
 70
    64
  0
VERTEX
  5
2D5D
  8
0
 10
33.5
 20
58.0
 30
227.5
 70
    64
  0
VERTEX
  5
2D5E
  8
0
 10
31.2
 20
56.3
 30
227.5
 70
    64
  0
VERTEX
  5
2D5F
  8
0
 10
29.5
 20
54.0
 30
227.5
 70
    64
  0
VERTEX
  5
2D60
  8
0
 10
28.4
 20
51.3
 30
227.5
 70
    64
  0
VERTEX
  5
2D61
  8
0
 10
28.0
 20
48.5
 30
227.5
 70
    64
  0
VERTEX
  5
2D62
  8
0
 10
39.0
 20
48.5
 30
228.0
 70
    64
  0
VERTEX
  5
2D63
  8
0
 10
39.0
 20
48.5
 30
228.0
 70
    64
  0
VERTEX
  5
2D64
  8
0
 10
39.0
 20
48.5
 30
228.0
 70
    64
  0
VERTEX
  5
2D65
  8
0
 10
39.0
 20
48.5
 30
228.0
 70
    64
  0
VERTEX
  5
2D66
  8
0
 10
39.0
 20
48.5
 30
228.0
 70
    64
  0
VERTEX
  5
2D67
  8
0
 10
39.0
 20
48.5
 30
228.0
 70
    64
  0
VERTEX
  5
2D68
  8
0
 10
39.0
 20
48.5
 30
228.0
 70
    64
  0
SEQEND
  5
2D69
  8
0
  0
POLYLINE
  5
2D6A
  8
0
 66
     1
 10
0.0
 20
0.0
 30
0.0
 70
    16
 71
     3
 72
     7
  0
VERTEX
  5
2D6B
  8
0
 10
39.0
 20
35.5
 30
226.0
 70
    64
  0
VERTEX
  5
2D6C
  8
0
 10
37.5
 20
35.5
 30
225.4
 70
    64
  0
VERTEX
  5
2D6D
  8
0
 10
36.4
 20
35.5
 30
224.3
 70
    64
  0
VERTEX
  5
2D6E
  8
0
 10
36.0
 20
35.5
 30
222.9
 70
    64
  0
VERTEX
  5
2D6F
  8
0
 10
36.4
 20
35.6
 30
221.3
 70
    64
  0
VERTEX
  5
2D70
  8
0
 10
37.5
 20
35.7
 30
220.3
 70
    64
  0
VERTEX
  5
2D71
  8
0
 10
39.0
 20
35.7
 30
219.8
 70
    64
  0
VERTEX
  5
2D72
  8
0
 10
39.0
 20
0.0
 30
228.0
 70
    64
  0
VERTEX
  5
2D73
  8
0
 10
37.5
 20
0.4
 30
227.6
 70
    64
  0
VERTEX
  5
2D74
  8
0
 10
36.4
 20
1.4
 30
226.4
 70
    64
  0
VERTEX
  5
2D75
  8
0
 10
36.0
 20
2.7
 30
224.7
 70
    64
  0
VERTEX
  5
2D76
  8
0
 10
36.4
 20
4.0
 30
223.1
 70
    64
  0
VERTEX
  5
2D77
  8
0
 10
37.5
 20
5.0
 30
221.9
 70
    64
  0
VERTEX
  5
2D78
  8
0
 10
39.0
 20
5.4
 30
221.4
 70
    64
  0
VERTEX
  5
2D79
  8
0
 10
39.0
 20
2.7
 30
224.7
 70
    64
  0
VERTEX
  5
2D7A
  8
0
 10
39.0
 20
2.7
 30
224.7
 70
    64
  0
VERTEX
  5
2D7B
  8
0
 10
39.0
 20
2.7
 30
224.7
 70
    64
  0
VERTEX
  5
2D7C
  8
0
 10
39.0
 20
2.7
 30
224.7
 70
    64
  0
VERTEX
  5
2D7D
  8
0
 10
39.0
 20
2.7
 30
224.7
 70
    64
  0
VERTEX
  5
2D7E
  8
0
 10
39.0
 20
2.7
 30
224.7
 70
    64
  0
VERTEX
  5
2D7F
  8
0
 10
39.0
 20
2.7
 30
224.7
 70
    64
  0
SEQEND
  5
2D80
  8
0
  0
POLYLINE
  5
2D81
  8
0
 66
     1
 10
0.0
 20
0.0
 30
0.0
 70
    16
 71
     2
 72
     7
  0
VERTEX
  5
2D82
  8
0
 10
39.0
 20
35.5
 30
226.0
 70
    64
  0
VERTEX
  5
2D83
  8
0
 10
37.5
 20
35.5
 30
225.4
 70
    64
  0
VERTEX
  5
2D84
  8
0
 10
36.4
 20
35.5
 30
224.3
 70
    64
  0
VERTEX
  5
2D85
  8
0
 10
36.0
 20
35.5
 30
222.9
 70
    64
  0
VERTEX
  5
2D86
  8
0
 10
36.4
 20
35.6
 30
221.3
 70
    64
  0
VERTEX
  5
2D87
  8
0
 10
37.5
 20
35.7
 30
220.3
 70
    64
  0
VERTEX
  5
2D88
  8
0
 10
39.0
 20
35.7
 30
219.8
 70
    64
  0
VERTEX
  5
2D89
  8
0
 10
39.0
 20
35.5
 30
226.0
 70
    64
  0
VERTEX
  5
2D8A
  8
0
 10
35.6
 20
35.9
 30
226.0
 70
    64
  0
VERTEX
  5
2D8B
  8
0
 10
35.6
 20
35.9
 30
226.0
 70
    64
  0
VERTEX
  5
2D8C
  8
0
 10
35.6
 20
35.9
 30
222.0
 70
    64
  0
VERTEX
  5
2D8D
  8
0
 10
35.6
 20
35.9
 30
222.0
 70
    64
  0
VERTEX
  5
2D8E
  8
0
 10
39.0
 20
37.5
 30
203.0
 70
    64
  0
VERTEX
  5
2D8F
  8
0
 10
39.0
 20
37.5
 30
203.0
 70
    64
  0
SEQEND
  5
2D90
  8
0
  0
POLYLINE
  5
2D91
  8
0
 66
     1
 10
0.0
 20
0.0
 30
0.0
 70
    16
 71
     2
 72
     2
  0
VERTEX
  5
2D92
  8
0
 10
35.6
 20
35.9
 30
226.0
 70
    64
  0
VERTEX
  5
2D93
  8
0
 10
39.0
 20
35.5
 30
226.0
 70
    64
  0
VERTEX
  5
2D94
  8
0
 10
39.0
 20
37.5
 30
227.5
 70
    64
  0
VERTEX
  5
2D95
  8
0
 10
39.0
 20
37.5
 30
227.5
 70
    64
  0
SEQEND
  5
2D96
  8
0
  0
POLYLINE
  5
2E4F
  8
0
 66
     1
 10
0.0
 20
0.0
 30
0.0
 70
    16
 71
     2
 72
     7
  0
VERTEX
  5
2E50
  8
0
 10
21.5
 20
48.5
 30
190.0
 70
    64
  0
VERTEX
  5
2E51
  8
0
 10
22.1
 20
43.9
 30
190.0
 70
    64
  0
VERTEX
  5
2E52
  8
0
 10
23.8
 20
39.7
 30
190.0
 70
    64
  0
VERTEX
  5
2E53
  8
0
 10
26.6
 20
36.1
 30
190.0
 70
    64
  0
VERTEX
  5
2E54
  8
0
 10
30.2
 20
33.3
 30
190.0
 70
    64
  0
VERTEX
  5
2E55
  8
0
 10
34.4
 20
31.6
 30
190.0
 70
    64
  0
VERTEX
  5
2E56
  8
0
 10
39.0
 20
31.0
 30
190.0
 70
    64
  0
VERTEX
  5
2E57
  8
0
 10
22.0
 20
48.5
 30
203.0
 70
    64
  0
VERTEX
  5
2E58
  8
0
 10
22.6
 20
44.1
 30
203.0
 70
    64
  0
VERTEX
  5
2E59
  8
0
 10
24.3
 20
40.0
 30
203.0
 70
    64
  0
VERTEX
  5
2E5A
  8
0
 10
27.0
 20
36.5
 30
203.0
 70
    64
  0
VERTEX
  5
2E5B
  8
0
 10
30.5
 20
33.8
 30
203.0
 70
    64
  0
VERTEX
  5
2E5C
  8
0
 10
34.6
 20
32.1
 30
203.0
 70
    64
  0
VERTEX
  5
2E5D
  8
0
 10
39.0
 20
31.5
 30
203.0
 70
    64
  0
SEQEND
  5
2E5E
  8
0
  0
POLYLINE
  5
2E5F
  8
0
 66
     1
 10
0.0
 20
0.0
 30
0.0
 70
    16
 71
     2
 72
     7
  0
VERTEX
  5
2E60
  8
0
 10
22.0
 20
48.5
 30
203.0
 70
    64
  0
VERTEX
  5
2E61
  8
0
 10
22.6
 20
44.1
 30
203.0
 70
    64
  0
VERTEX
  5
2E62
  8
0
 10
24.3
 20
40.0
 30
203.0
 70
    64
  0
VERTEX
  5
2E63
  8
0
 10
27.0
 20
36.5
 30
203.0
 70
    64
  0
VERTEX
  5
2E64
  8
0
 10
30.5
 20
33.8
 30
203.0
 70
    64
  0
VERTEX
  5
2E65
  8
0
 10
34.6
 20
32.1
 30
203.0
 70
    64
  0
VERTEX
  5
2E66
  8
0
 10
39.0
 20
31.5
 30
203.0
 70
    64
  0
VERTEX
  5
2E67
  8
0
 10
28.0
 20
48.5
 30
203.0
 70
    64
  0
VERTEX
  5
2E68
  8
0
 10
28.4
 20
45.7
 30
203.0
 70
    64
  0
VERTEX
  5
2E69
  8
0
 10
29.5
 20
43.0
 30
203.0
 70
    64
  0
VERTEX
  5
2E6A
  8
0
 10
31.2
 20
40.7
 30
203.0
 70
    64
  0
VERTEX
  5
2E6B
  8
0
 10
33.5
 20
39.0
 30
203.0
 70
    64
  0
VERTEX
  5
2E6C
  8
0
 10
36.2
 20
37.9
 30
203.0
 70
    64
  0
VERTEX
  5
2E6D
  8
0
 10
39.0
 20
37.5
 30
203.0
 70
    64
  0
SEQEND
  5
2E6E
  8
0
  0
POLYLINE
  5
2E6F
  8
0
 66
     1
 10
0.0
 20
0.0
 30
0.0
 70
    16
 71
    14
 72
     7
  0
VERTEX
  5
2E70
  8
0
 10
39.0
 20
48.5
 30
0.0
 70
    64
  0
VERTEX
  5
2E71
  8
0
 10
39.0
 20
48.5
 30
0.0
 70
    64
  0
VERTEX
  5
2E72
  8
0
 10
39.0
 20
48.5
 30
0.0
 70
    64
  0
VERTEX
  5
2E73
  8
0
 10
39.0
 20
48.5
 30
0.0
 70
    64
  0
VERTEX
  5
2E74
  8
0
 10
39.0
 20
48.5
 30
0.0
 70
    64
  0
VERTEX
  5
2E75
  8
0
 10
39.0
 20
48.5
 30
0.0
 70
    64
  0
VERTEX
  5
2E76
  8
0
 10
39.0
 20
48.5
 30
0.0
 70
    64
  0
VERTEX
  5
2E77
  8
0
 10
3.0
 20
48.5
 30
0.0
 70
    64
  0
VERTEX
  5
2E78
  8
0
 10
4.3
 20
39.2
 30
0.0
 70
    64
  0
VERTEX
  5
2E79
  8
0
 10
7.8
 20
31.6
 30
0.0
 70
    64
  0
VERTEX
  5
2E7A
  8
0
 10
13.6
 20
23.1
 30
0.0
 70
    64
  0
VERTEX
  5
2E7B
  8
0
 10
22.1
 20
17.3
 30
0.0
 70
    64
  0
VERTEX
  5
2E7C
  8
0
 10
29.7
 20
13.8
 30
0.0
 70
    64
  0
VERTEX
  5
2E7D
  8
0
 10
39.0
 20
12.5
 30
0.0
 70
    64
  0
VERTEX
  5
2E7E
  8
0
 10
3.0
 20
48.5
 30
35.0
 70
    64
  0
VERTEX
  5
2E7F
  8
0
 10
4.3
 20
39.2
 30
35.0
 70
    64
  0
VERTEX
  5
2E80
  8
0
 10
7.8
 20
31.6
 30
35.0
 70
    64
  0
VERTEX
  5
2E81
  8
0
 10
13.6
 20
23.1
 30
35.0
 70
    64
  0
VERTEX
  5
2E82
  8
0
 10
22.1
 20
17.3
 30
35.0
 70
    64
  0
VERTEX
  5
2E83
  8
0
 10
29.7
 20
13.8
 30
35.0
 70
    64
  0
VERTEX
  5
2E84
  8
0
 10
39.0
 20
12.5
 30
35.0
 70
    64
  0
VERTEX
  5
2E85
  8
0
 10
0.0
 20
48.5
 30
35.0
 70
    64
  0
VERTEX
  5
2E86
  8
0
 10
1.4
 20
38.4
 30
35.0
 70
    64
  0
VERTEX
  5
2E87
  8
0
 10
5.2
 20
29.1
 30
35.0
 70
    64
  0
VERTEX
  5
2E88
  8
0
 10
11.5
 20
21.0
 30
35.0
 70
    64
  0
VERTEX
  5
2E89
  8
0
 10
19.6
 20
14.7
 30
35.0
 70
    64
  0
VERTEX
  5
2E8A
  8
0
 10
28.9
 20
10.9
 30
35.0
 70
    64
  0
VERTEX
  5
2E8B
  8
0
 10
39.0
 20
9.5
 30
35.0
 70
    64
  0
VERTEX
  5
2E8C
  8
0
 10
0.0
 20
48.5
 30
110.0
 70
    64
  0
VERTEX
  5
2E8D
  8
0
 10
1.4
 20
38.4
 30
110.0
 70
    64
  0
VERTEX
  5
2E8E
  8
0
 10
5.2
 20
29.1
 30
110.0
 70
    64
  0
VERTEX
  5
2E8F
  8
0
 10
11.5
 20
21.0
 30
110.0
 70
    64
  0
VERTEX
  5
2E90
  8
0
 10
19.6
 20
14.7
 30
110.0
 70
    64
  0
VERTEX
  5
2E91
  8
0
 10
28.9
 20
10.9
 30
110.0
 70
    64
  0
VERTEX
  5
2E92
  8
0
 10
39.0
 20
9.5
 30
110.0
 70
    64
  0
VERTEX
  5
2E93
  8
0
 10
1.3
 20
48.5
 30
122.0
 70
    64
  0
VERTEX
  5
2E94
  8
0
 10
2.6
 20
38.7
 30
122.0
 70
    64
  0
VERTEX
  5
2E95
  8
0
 10
6.3
 20
29.7
 30
122.0
 70
    64
  0
VERTEX
  5
2E96
  8
0
 10
12.3
 20
21.8
 30
122.0
 70
    64
  0
VERTEX
  5
2E97
  8
0
 10
20.2
 20
15.8
 30
122.0
 70
    64
  0
VERTEX
  5
2E98
  8
0
 10
29.2
 20
12.1
 30
122.0
 70
    64
  0
VERTEX
  5
2E99
  8
0
 10
39.0
 20
10.8
 30
122.0
 70
    64
  0
VERTEX
  5
2E9A
  8
0
 10
4.0
 20
48.5
 30
132.0
 70
    64
  0
VERTEX
  5
2E9B
  8
0
 10
5.2
 20
39.4
 30
132.0
 70
    64
  0
VERTEX
  5
2E9C
  8
0
 10
8.6
 20
31.0
 30
132.0
 70
    64
  0
VERTEX
  5
2E9D
  8
0
 10
14.2
 20
23.7
 30
132.0
 70
    64
  0
VERTEX
  5
2E9E
  8
0
 10
21.5
 20
18.1
 30
132.0
 70
    64
  0
VERTEX
  5
2E9F
  8
0
 10
29.9
 20
14.7
 30
132.0
 70
    64
  0
VERTEX
  5
2EA0
  8
0
 10
39.0
 20
13.5
 30
132.0
 70
    64
  0
VERTEX
  5
2EA1
  8
0
 10
7.0
 20
48.5
 30
140.0
 70
    64
  0
VERTEX
  5
2EA2
  8
0
 10
8.2
 20
40.2
 30
140.0
 70
    64
  0
VERTEX
  5
2EA3
  8
0
 10
11.3
 20
32.8
 30
140.0
 70
    64
  0
VERTEX
  5
2EA4
  8
0
 10
16.4
 20
25.9
 30
140.0
 70
    64
  0
VERTEX
  5
2EA5
  8
0
 10
23.3
 20
20.8
 30
140.0
 70
    64
  0
VERTEX
  5
2EA6
  8
0
 10
30.7
 20
17.7
 30
140.0
 70
    64
  0
VERTEX
  5
2EA7
  8
0
 10
39.0
 20
16.5
 30
140.0
 70
    64
  0
VERTEX
  5
2EA8
  8
0
 10
11.0
 20
48.5
 30
147.0
 70
    64
  0
VERTEX
  5
2EA9
  8
0
 10
12.0
 20
41.3
 30
147.0
 70
    64
  0
VERTEX
  5
2EAA
  8
0
 10
14.8
 20
34.6
 30
147.0
 70
    64
  0
VERTEX
  5
2EAB
  8
0
 10
19.2
 20
28.7
 30
147.0
 70
    64
  0
VERTEX
  5
2EAC
  8
0
 10
25.1
 20
24.3
 30
147.0
 70
    64
  0
VERTEX
  5
2EAD
  8
0
 10
31.8
 20
21.5
 30
147.0
 70
    64
  0
VERTEX
  5
2EAE
  8
0
 10
39.0
 20
20.5
 30
147.0
 70
    64
  0
VERTEX
  5
2EAF
  8
0
 10
15.0
 20
48.5
 30
156.0
 70
    64
  0
VERTEX
  5
2EB0
  8
0
 10
15.9
 20
42.3
 30
156.0
 70
    64
  0
VERTEX
  5
2EB1
  8
0
 10
18.2
 20
36.5
 30
156.0
 70
    64
  0
VERTEX
  5
2EB2
  8
0
 10
22.1
 20
31.6
 30
156.0
 70
    64
  0
VERTEX
  5
2EB3
  8
0
 10
27.0
 20
27.7
 30
156.0
 70
    64
  0
VERTEX
  5
2EB4
  8
0
 10
32.8
 20
25.4
 30
156.0
 70
    64
  0
VERTEX
  5
2EB5
  8
0
 10
39.0
 20
24.5
 30
156.0
 70
    64
  0
VERTEX
  5
2EB6
  8
0
 10
17.5
 20
48.5
 30
165.0
 70
    64
  0
VERTEX
  5
2EB7
  8
0
 10
18.3
 20
42.9
 30
165.0
 70
    64
  0
VERTEX
  5
2EB8
  8
0
 10
20.4
 20
37.8
 30
165.0
 70
    64
  0
VERTEX
  5
2EB9
  8
0
 10
23.8
 20
33.3
 30
165.0
 70
    64
  0
VERTEX
  5
2EBA
  8
0
 10
28.3
 20
29.9
 30
165.0
 70
    64
  0
VERTEX
  5
2EBB
  8
0
 10
33.4
 20
27.8
 30
165.0
 70
    64
  0
VERTEX
  5
2EBC
  8
0
 10
39.0
 20
27.0
 30
165.0
 70
    64
  0
VERTEX
  5
2EBD
  8
0
 10
19.5
 20
48.5
 30
174.0
 70
    64
  0
VERTEX
  5
2EBE
  8
0
 10
20.2
 20
43.4
 30
174.0
 70
    64
  0
VERTEX
  5
2EBF
  8
0
 10
22.1
 20
38.7
 30
174.0
 70
    64
  0
VERTEX
  5
2EC0
  8
0
 10
25.2
 20
34.7
 30
174.0
 70
    64
  0
VERTEX
  5
2EC1
  8
0
 10
29.2
 20
31.6
 30
174.0
 70
    64
  0
VERTEX
  5
2EC2
  8
0
 10
33.9
 20
29.7
 30
174.0
 70
    64
  0
VERTEX
  5
2EC3
  8
0
 10
39.0
 20
29.0
 30
174.0
 70
    64
  0
VERTEX
  5
2EC4
  8
0
 10
20.8
 20
48.5
 30
183.0
 70
    64
  0
VERTEX
  5
2EC5
  8
0
 10
21.5
 20
43.8
 30
183.0
 70
    64
  0
VERTEX
  5
2EC6
  8
0
 10
23.2
 20
39.4
 30
183.0
 70
    64
  0
VERTEX
  5
2EC7
  8
0
 10
26.2
 20
35.7
 30
183.0
 70
    64
  0
VERTEX
  5
2EC8
  8
0
 10
29.9
 20
32.7
 30
183.0
 70
    64
  0
VERTEX
  5
2EC9
  8
0
 10
34.3
 20
31.0
 30
183.0
 70
    64
  0
VERTEX
  5
2ECA
  8
0
 10
39.0
 20
30.3
 30
183.0
 70
    64
  0
VERTEX
  5
2ECB
  8
0
 10
21.5
 20
48.5
 30
190.0
 70
    64
  0
VERTEX
  5
2ECC
  8
0
 10
22.1
 20
43.9
 30
190.0
 70
    64
  0
VERTEX
  5
2ECD
  8
0
 10
23.8
 20
39.7
 30
190.0
 70
    64
  0
VERTEX
  5
2ECE
  8
0
 10
26.6
 20
36.1
 30
190.0
 70
    64
  0
VERTEX
  5
2ECF
  8
0
 10
30.2
 20
33.3
 30
190.0
 70
    64
  0
VERTEX
  5
2ED0
  8
0
 10
34.4
 20
31.6
 30
190.0
 70
    64
  0
VERTEX
  5
2ED1
  8
0
 10
39.0
 20
31.0
 30
190.0
 70
    64
  0
SEQEND
  5
2ED2
  8
0
  0
POLYLINE
  5
2ED3
  8
0
 66
     1
 10
0.0
 20
0.0
 30
0.0
 70
    16
 71
    14
 72
     7
  0
VERTEX
  5
2ED4
  8
0
 10
39.0
 20
48.5
 30
0.0
 70
    64
  0
VERTEX
  5
2ED5
  8
0
 10
39.0
 20
48.5
 30
0.0
 70
    64
  0
VERTEX
  5
2ED6
  8
0
 10
39.0
 20
48.5
 30
0.0
 70
    64
  0
VERTEX
  5
2ED7
  8
0
 10
39.0
 20
48.5
 30
0.0
 70
    64
  0
VERTEX
  5
2ED8
  8
0
 10
39.0
 20
48.5
 30
0.0
 70
    64
  0
VERTEX
  5
2ED9
  8
0
 10
39.0
 20
48.5
 30
0.0
 70
    64
  0
VERTEX
  5
2EDA
  8
0
 10
39.0
 20
48.5
 30
0.0
 70
    64
  0
VERTEX
  5
2EDB
  8
0
 10
3.0
 20
48.5
 30
0.0
 70
    64
  0
VERTEX
  5
2EDC
  8
0
 10
4.3
 20
57.8
 30
0.0
 70
    64
  0
VERTEX
  5
2EDD
  8
0
 10
7.8
 20
65.4
 30
0.0
 70
    64
  0
VERTEX
  5
2EDE
  8
0
 10
13.6
 20
73.9
 30
0.0
 70
    64
  0
VERTEX
  5
2EDF
  8
0
 10
22.1
 20
79.7
 30
0.0
 70
    64
  0
VERTEX
  5
2EE0
  8
0
 10
29.7
 20
83.2
 30
0.0
 70
    64
  0
VERTEX
  5
2EE1
  8
0
 10
39.0
 20
84.5
 30
0.0
 70
    64
  0
VERTEX
  5
2EE2
  8
0
 10
3.0
 20
48.5
 30
35.0
 70
    64
  0
VERTEX
  5
2EE3
  8
0
 10
4.3
 20
57.8
 30
35.0
 70
    64
  0
VERTEX
  5
2EE4
  8
0
 10
7.8
 20
65.4
 30
35.0
 70
    64
  0
VERTEX
  5
2EE5
  8
0
 10
13.6
 20
73.9
 30
35.0
 70
    64
  0
VERTEX
  5
2EE6
  8
0
 10
22.1
 20
79.7
 30
35.0
 70
    64
  0
VERTEX
  5
2EE7
  8
0
 10
29.7
 20
83.2
 30
35.0
 70
    64
  0
VERTEX
  5
2EE8
  8
0
 10
39.0
 20
84.5
 30
35.0
 70
    64
  0
VERTEX
  5
2EE9
  8
0
 10
0.0
 20
48.5
 30
35.0
 70
    64
  0
VERTEX
  5
2EEA
  8
0
 10
1.4
 20
58.6
 30
35.0
 70
    64
  0
VERTEX
  5
2EEB
  8
0
 10
5.2
 20
67.9
 30
35.0
 70
    64
  0
VERTEX
  5
2EEC
  8
0
 10
11.5
 20
76.0
 30
35.0
 70
    64
  0
VERTEX
  5
2EED
  8
0
 10
19.6
 20
82.3
 30
35.0
 70
    64
  0
VERTEX
  5
2EEE
  8
0
 10
28.9
 20
86.1
 30
35.0
 70
    64
  0
VERTEX
  5
2EEF
  8
0
 10
39.0
 20
87.5
 30
35.0
 70
    64
  0
VERTEX
  5
2EF0
  8
0
 10
0.0
 20
48.5
 30
110.0
 70
    64
  0
VERTEX
  5
2EF1
  8
0
 10
1.4
 20
58.6
 30
110.0
 70
    64
  0
VERTEX
  5
2EF2
  8
0
 10
5.2
 20
67.9
 30
110.0
 70
    64
  0
VERTEX
  5
2EF3
  8
0
 10
11.5
 20
76.0
 30
110.0
 70
    64
  0
VERTEX
  5
2EF4
  8
0
 10
19.6
 20
82.3
 30
110.0
 70
    64
  0
VERTEX
  5
2EF5
  8
0
 10
28.9
 20
86.1
 30
110.0
 70
    64
  0
VERTEX
  5
2EF6
  8
0
 10
39.0
 20
87.5
 30
110.0
 70
    64
  0
VERTEX
  5
2EF7
  8
0
 10
1.3
 20
48.5
 30
122.0
 70
    64
  0
VERTEX
  5
2EF8
  8
0
 10
2.6
 20
58.3
 30
122.0
 70
    64
  0
VERTEX
  5
2EF9
  8
0
 10
6.3
 20
67.3
 30
122.0
 70
    64
  0
VERTEX
  5
2EFA
  8
0
 10
12.3
 20
75.2
 30
122.0
 70
    64
  0
VERTEX
  5
2EFB
  8
0
 10
20.2
 20
81.2
 30
122.0
 70
    64
  0
VERTEX
  5
2EFC
  8
0
 10
29.2
 20
84.9
 30
122.0
 70
    64
  0
VERTEX
  5
2EFD
  8
0
 10
39.0
 20
86.2
 30
122.0
 70
    64
  0
VERTEX
  5
2EFE
  8
0
 10
4.0
 20
48.5
 30
132.0
 70
    64
  0
VERTEX
  5
2EFF
  8
0
 10
5.2
 20
57.6
 30
132.0
 70
    64
  0
VERTEX
  5
2F00
  8
0
 10
8.6
 20
66.0
 30
132.0
 70
    64
  0
VERTEX
  5
2F01
  8
0
 10
14.2
 20
73.3
 30
132.0
 70
    64
  0
VERTEX
  5
2F02
  8
0
 10
21.5
 20
78.9
 30
132.0
 70
    64
  0
VERTEX
  5
2F03
  8
0
 10
29.9
 20
82.3
 30
132.0
 70
    64
  0
VERTEX
  5
2F04
  8
0
 10
39.0
 20
83.5
 30
132.0
 70
    64
  0
VERTEX
  5
2F05
  8
0
 10
7.0
 20
48.5
 30
140.0
 70
    64
  0
VERTEX
  5
2F06
  8
0
 10
8.2
 20
56.8
 30
140.0
 70
    64
  0
VERTEX
  5
2F07
  8
0
 10
11.3
 20
64.2
 30
140.0
 70
    64
  0
VERTEX
  5
2F08
  8
0
 10
16.4
 20
71.1
 30
140.0
 70
    64
  0
VERTEX
  5
2F09
  8
0
 10
23.3
 20
76.2
 30
140.0
 70
    64
  0
VERTEX
  5
2F0A
  8
0
 10
30.7
 20
79.3
 30
140.0
 70
    64
  0
VERTEX
  5
2F0B
  8
0
 10
39.0
 20
80.5
 30
140.0
 70
    64
  0
VERTEX
  5
2F0C
  8
0
 10
11.0
 20
48.5
 30
147.0
 70
    64
  0
VERTEX
  5
2F0D
  8
0
 10
12.0
 20
55.7
 30
147.0
 70
    64
  0
VERTEX
  5
2F0E
  8
0
 10
14.8
 20
62.4
 30
147.0
 70
    64
  0
VERTEX
  5
2F0F
  8
0
 10
19.2
 20
68.3
 30
147.0
 70
    64
  0
VERTEX
  5
2F10
  8
0
 10
25.1
 20
72.7
 30
147.0
 70
    64
  0
VERTEX
  5
2F11
  8
0
 10
31.8
 20
75.5
 30
147.0
 70
    64
  0
VERTEX
  5
2F12
  8
0
 10
39.0
 20
76.5
 30
147.0
 70
    64
  0
VERTEX
  5
2F13
  8
0
 10
15.0
 20
48.5
 30
156.0
 70
    64
  0
VERTEX
  5
2F14
  8
0
 10
15.9
 20
54.7
 30
156.0
 70
    64
  0
VERTEX
  5
2F15
  8
0
 10
18.2
 20
60.5
 30
156.0
 70
    64
  0
VERTEX
  5
2F16
  8
0
 10
22.1
 20
65.4
 30
156.0
 70
    64
  0
VERTEX
  5
2F17
  8
0
 10
27.0
 20
69.3
 30
156.0
 70
    64
  0
VERTEX
  5
2F18
  8
0
 10
32.8
 20
71.6
 30
156.0
 70
    64
  0
VERTEX
  5
2F19
  8
0
 10
39.0
 20
72.5
 30
156.0
 70
    64
  0
VERTEX
  5
2F1A
  8
0
 10
17.5
 20
48.5
 30
165.0
 70
    64
  0
VERTEX
  5
2F1B
  8
0
 10
18.3
 20
54.1
 30
165.0
 70
    64
  0
VERTEX
  5
2F1C
  8
0
 10
20.4
 20
59.2
 30
165.0
 70
    64
  0
VERTEX
  5
2F1D
  8
0
 10
23.8
 20
63.7
 30
165.0
 70
    64
  0
VERTEX
  5
2F1E
  8
0
 10
28.3
 20
67.1
 30
165.0
 70
    64
  0
VERTEX
  5
2F1F
  8
0
 10
33.4
 20
69.2
 30
165.0
 70
    64
  0
VERTEX
  5
2F20
  8
0
 10
39.0
 20
70.0
 30
165.0
 70
    64
  0
VERTEX
  5
2F21
  8
0
 10
19.5
 20
48.5
 30
174.0
 70
    64
  0
VERTEX
  5
2F22
  8
0
 10
20.2
 20
53.6
 30
174.0
 70
    64
  0
VERTEX
  5
2F23
  8
0
 10
22.1
 20
58.3
 30
174.0
 70
    64
  0
VERTEX
  5
2F24
  8
0
 10
25.2
 20
62.3
 30
174.0
 70
    64
  0
VERTEX
  5
2F25
  8
0
 10
29.2
 20
65.4
 30
174.0
 70
    64
  0
VERTEX
  5
2F26
  8
0
 10
33.9
 20
67.3
 30
174.0
 70
    64
  0
VERTEX
  5
2F27
  8
0
 10
39.0
 20
68.0
 30
174.0
 70
    64
  0
VERTEX
  5
2F28
  8
0
 10
20.8
 20
48.5
 30
183.0
 70
    64
  0
VERTEX
  5
2F29
  8
0
 10
21.5
 20
53.2
 30
183.0
 70
    64
  0
VERTEX
  5
2F2A
  8
0
 10
23.2
 20
57.6
 30
183.0
 70
    64
  0
VERTEX
  5
2F2B
  8
0
 10
26.2
 20
61.3
 30
183.0
 70
    64
  0
VERTEX
  5
2F2C
  8
0
 10
29.9
 20
64.3
 30
183.0
 70
    64
  0
VERTEX
  5
2F2D
  8
0
 10
34.3
 20
66.0
 30
183.0
 70
    64
  0
VERTEX
  5
2F2E
  8
0
 10
39.0
 20
66.7
 30
183.0
 70
    64
  0
VERTEX
  5
2F2F
  8
0
 10
21.5
 20
48.5
 30
190.0
 70
    64
  0
VERTEX
  5
2F30
  8
0
 10
22.1
 20
53.1
 30
190.0
 70
    64
  0
VERTEX
  5
2F31
  8
0
 10
23.8
 20
57.3
 30
190.0
 70
    64
  0
VERTEX
  5
2F32
  8
0
 10
26.6
 20
60.9
 30
190.0
 70
    64
  0
VERTEX
  5
2F33
  8
0
 10
30.2
 20
63.7
 30
190.0
 70
    64
  0
VERTEX
  5
2F34
  8
0
 10
34.4
 20
65.4
 30
190.0
 70
    64
  0
VERTEX
  5
2F35
  8
0
 10
39.0
 20
66.0
 30
190.0
 70
    64
  0
SEQEND
  5
2F36
  8
0
  0
POLYLINE
  5
2F37
  8
0
 66
     1
 10
0.0
 20
0.0
 30
0.0
 70
    16
 71
     2
 72
     7
  0
VERTEX
  5
2F38
  8
0
 10
22.0
 20
48.5
 30
203.0
 70
    64
  0
VERTEX
  5
2F39
  8
0
 10
22.6
 20
52.9
 30
203.0
 70
    64
  0
VERTEX
  5
2F3A
  8
0
 10
24.3
 20
57.0
 30
203.0
 70
    64
  0
VERTEX
  5
2F3B
  8
0
 10
27.0
 20
60.5
 30
203.0
 70
    64
  0
VERTEX
  5
2F3C
  8
0
 10
30.5
 20
63.2
 30
203.0
 70
    64
  0
VERTEX
  5
2F3D
  8
0
 10
34.6
 20
64.9
 30
203.0
 70
    64
  0
VERTEX
  5
2F3E
  8
0
 10
39.0
 20
65.5
 30
203.0
 70
    64
  0
VERTEX
  5
2F3F
  8
0
 10
28.0
 20
48.5
 30
203.0
 70
    64
  0
VERTEX
  5
2F40
  8
0
 10
28.4
 20
51.3
 30
203.0
 70
    64
  0
VERTEX
  5
2F41
  8
0
 10
29.5
 20
54.0
 30
203.0
 70
    64
  0
VERTEX
  5
2F42
  8
0
 10
31.2
 20
56.3
 30
203.0
 70
    64
  0
VERTEX
  5
2F43
  8
0
 10
33.5
 20
58.0
 30
203.0
 70
    64
  0
VERTEX
  5
2F44
  8
0
 10
36.2
 20
59.1
 30
203.0
 70
    64
  0
VERTEX
  5
2F45
  8
0
 10
39.0
 20
59.5
 30
203.0
 70
    64
  0
SEQEND
  5
2F46
  8
0
  0
POLYLINE
  5
2F47
  8
0
 66
     1
 10
0.0
 20
0.0
 30
0.0
 70
    16
 71
     2
 72
     7
  0
VERTEX
  5
2F48
  8
0
 10
21.5
 20
48.5
 30
190.0
 70
    64
  0
VERTEX
  5
2F49
  8
0
 10
22.1
 20
53.1
 30
190.0
 70
    64
  0
VERTEX
  5
2F4A
  8
0
 10
23.8
 20
57.3
 30
190.0
 70
    64
  0
VERTEX
  5
2F4B
  8
0
 10
26.6
 20
60.9
 30
190.0
 70
    64
  0
VERTEX
  5
2F4C
  8
0
 10
30.2
 20
63.7
 30
190.0
 70
    64
  0
VERTEX
  5
2F4D
  8
0
 10
34.4
 20
65.4
 30
190.0
 70
    64
  0
VERTEX
  5
2F4E
  8
0
 10
39.0
 20
66.0
 30
190.0
 70
    64
  0
VERTEX
  5
2F4F
  8
0
 10
22.0
 20
48.5
 30
203.0
 70
    64
  0
VERTEX
  5
2F50
  8
0
 10
22.6
 20
52.9
 30
203.0
 70
    64
  0
VERTEX
  5
2F51
  8
0
 10
24.3
 20
57.0
 30
203.0
 70
    64
  0
VERTEX
  5
2F52
  8
0
 10
27.0
 20
60.5
 30
203.0
 70
    64
  0
VERTEX
  5
2F53
  8
0
 10
30.5
 20
63.2
 30
203.0
 70
    64
  0
VERTEX
  5
2F54
  8
0
 10
34.6
 20
64.9
 30
203.0
 70
    64
  0
VERTEX
  5
2F55
  8
0
 10
39.0
 20
65.5
 30
203.0
 70
    64
  0
SEQEND
  5
2F56
  8
0
  0
POLYLINE
  5
2F57
  8
0
 66
     1
 10
0.0
 20
0.0
 30
0.0
 70
    16
 71
    14
 72
     7
  0
VERTEX
  5
2F58
  8
0
 10
39.0
 20
48.5
 30
0.0
 70
    64
  0
VERTEX
  5
2F59
  8
0
 10
39.0
 20
48.5
 30
0.0
 70
    64
  0
VERTEX
  5
2F5A
  8
0
 10
39.0
 20
48.5
 30
0.0
 70
    64
  0
VERTEX
  5
2F5B
  8
0
 10
39.0
 20
48.5
 30
0.0
 70
    64
  0
VERTEX
  5
2F5C
  8
0
 10
39.0
 20
48.5
 30
0.0
 70
    64
  0
VERTEX
  5
2F5D
  8
0
 10
39.0
 20
48.5
 30
0.0
 70
    64
  0
VERTEX
  5
2F5E
  8
0
 10
39.0
 20
48.5
 30
0.0
 70
    64
  0
VERTEX
  5
2F5F
  8
0
 10
75.0
 20
48.5
 30
0.0
 70
    64
  0
VERTEX
  5
2F60
  8
0
 10
73.7
 20
57.8
 30
0.0
 70
    64
  0
VERTEX
  5
2F61
  8
0
 10
70.2
 20
65.4
 30
0.0
 70
    64
  0
VERTEX
  5
2F62
  8
0
 10
64.4
 20
73.9
 30
0.0
 70
    64
  0
VERTEX
  5
2F63
  8
0
 10
55.9
 20
79.7
 30
0.0
 70
    64
  0
VERTEX
  5
2F64
  8
0
 10
48.3
 20
83.2
 30
0.0
 70
    64
  0
VERTEX
  5
2F65
  8
0
 10
39.0
 20
84.5
 30
0.0
 70
    64
  0
VERTEX
  5
2F66
  8
0
 10
75.0
 20
48.5
 30
35.0
 70
    64
  0
VERTEX
  5
2F67
  8
0
 10
73.7
 20
57.8
 30
35.0
 70
    64
  0
VERTEX
  5
2F68
  8
0
 10
70.2
 20
65.4
 30
35.0
 70
    64
  0
VERTEX
  5
2F69
  8
0
 10
64.4
 20
73.9
 30
35.0
 70
    64
  0
VERTEX
  5
2F6A
  8
0
 10
55.9
 20
79.7
 30
35.0
 70
    64
  0
VERTEX
  5
2F6B
  8
0
 10
48.3
 20
83.2
 30
35.0
 70
    64
  0
VERTEX
  5
2F6C
  8
0
 10
39.0
 20
84.5
 30
35.0
 70
    64
  0
VERTEX
  5
2F6D
  8
0
 10
78.0
 20
48.5
 30
35.0
 70
    64
  0
VERTEX
  5
2F6E
  8
0
 10
76.6
 20
58.6
 30
35.0
 70
    64
  0
VERTEX
  5
2F6F
  8
0
 10
72.8
 20
67.9
 30
35.0
 70
    64
  0
VERTEX
  5
2F70
  8
0
 10
66.5
 20
76.0
 30
35.0
 70
    64
  0
VERTEX
  5
2F71
  8
0
 10
58.4
 20
82.3
 30
35.0
 70
    64
  0
VERTEX
  5
2F72
  8
0
 10
49.1
 20
86.1
 30
35.0
 70
    64
  0
VERTEX
  5
2F73
  8
0
 10
39.0
 20
87.5
 30
35.0
 70
    64
  0
VERTEX
  5
2F74
  8
0
 10
78.0
 20
48.5
 30
110.0
 70
    64
  0
VERTEX
  5
2F75
  8
0
 10
76.6
 20
58.6
 30
110.0
 70
    64
  0
VERTEX
  5
2F76
  8
0
 10
72.8
 20
67.9
 30
110.0
 70
    64
  0
VERTEX
  5
2F77
  8
0
 10
66.5
 20
76.0
 30
110.0
 70
    64
  0
VERTEX
  5
2F78
  8
0
 10
58.4
 20
82.3
 30
110.0
 70
    64
  0
VERTEX
  5
2F79
  8
0
 10
49.1
 20
86.1
 30
110.0
 70
    64
  0
VERTEX
  5
2F7A
  8
0
 10
39.0
 20
87.5
 30
110.0
 70
    64
  0
VERTEX
  5
2F7B
  8
0
 10
76.7
 20
48.5
 30
122.0
 70
    64
  0
VERTEX
  5
2F7C
  8
0
 10
75.4
 20
58.3
 30
122.0
 70
    64
  0
VERTEX
  5
2F7D
  8
0
 10
71.7
 20
67.3
 30
122.0
 70
    64
  0
VERTEX
  5
2F7E
  8
0
 10
65.7
 20
75.2
 30
122.0
 70
    64
  0
VERTEX
  5
2F7F
  8
0
 10
57.8
 20
81.2
 30
122.0
 70
    64
  0
VERTEX
  5
2F80
  8
0
 10
48.8
 20
84.9
 30
122.0
 70
    64
  0
VERTEX
  5
2F81
  8
0
 10
39.0
 20
86.2
 30
122.0
 70
    64
  0
VERTEX
  5
2F82
  8
0
 10
74.0
 20
48.5
 30
132.0
 70
    64
  0
VERTEX
  5
2F83
  8
0
 10
72.8
 20
57.6
 30
132.0
 70
    64
  0
VERTEX
  5
2F84
  8
0
 10
69.4
 20
66.0
 30
132.0
 70
    64
  0
VERTEX
  5
2F85
  8
0
 10
63.8
 20
73.3
 30
132.0
 70
    64
  0
VERTEX
  5
2F86
  8
0
 10
56.5
 20
78.9
 30
132.0
 70
    64
  0
VERTEX
  5
2F87
  8
0
 10
48.1
 20
82.3
 30
132.0
 70
    64
  0
VERTEX
  5
2F88
  8
0
 10
39.0
 20
83.5
 30
132.0
 70
    64
  0
VERTEX
  5
2F89
  8
0
 10
71.0
 20
48.5
 30
140.0
 70
    64
  0
VERTEX
  5
2F8A
  8
0
 10
69.8
 20
56.8
 30
140.0
 70
    64
  0
VERTEX
  5
2F8B
  8
0
 10
66.7
 20
64.2
 30
140.0
 70
    64
  0
VERTEX
  5
2F8C
  8
0
 10
61.6
 20
71.1
 30
140.0
 70
    64
  0
VERTEX
  5
2F8D
  8
0
 10
54.7
 20
76.2
 30
140.0
 70
    64
  0
VERTEX
  5
2F8E
  8
0
 10
47.3
 20
79.3
 30
140.0
 70
    64
  0
VERTEX
  5
2F8F
  8
0
 10
39.0
 20
80.5
 30
140.0
 70
    64
  0
VERTEX
  5
2F90
  8
0
 10
67.0
 20
48.5
 30
147.0
 70
    64
  0
VERTEX
  5
2F91
  8
0
 10
66.0
 20
55.7
 30
147.0
 70
    64
  0
VERTEX
  5
2F92
  8
0
 10
63.2
 20
62.4
 30
147.0
 70
    64
  0
VERTEX
  5
2F93
  8
0
 10
58.8
 20
68.3
 30
147.0
 70
    64
  0
VERTEX
  5
2F94
  8
0
 10
52.9
 20
72.7
 30
147.0
 70
    64
  0
VERTEX
  5
2F95
  8
0
 10
46.2
 20
75.5
 30
147.0
 70
    64
  0
VERTEX
  5
2F96
  8
0
 10
39.0
 20
76.5
 30
147.0
 70
    64
  0
VERTEX
  5
2F97
  8
0
 10
63.0
 20
48.5
 30
156.0
 70
    64
  0
VERTEX
  5
2F98
  8
0
 10
62.1
 20
54.7
 30
156.0
 70
    64
  0
VERTEX
  5
2F99
  8
0
 10
59.8
 20
60.5
 30
156.0
 70
    64
  0
VERTEX
  5
2F9A
  8
0
 10
55.9
 20
65.4
 30
156.0
 70
    64
  0
VERTEX
  5
2F9B
  8
0
 10
51.0
 20
69.3
 30
156.0
 70
    64
  0
VERTEX
  5
2F9C
  8
0
 10
45.2
 20
71.6
 30
156.0
 70
    64
  0
VERTEX
  5
2F9D
  8
0
 10
39.0
 20
72.5
 30
156.0
 70
    64
  0
VERTEX
  5
2F9E
  8
0
 10
60.5
 20
48.5
 30
165.0
 70
    64
  0
VERTEX
  5
2F9F
  8
0
 10
59.7
 20
54.1
 30
165.0
 70
    64
  0
VERTEX
  5
2FA0
  8
0
 10
57.6
 20
59.2
 30
165.0
 70
    64
  0
VERTEX
  5
2FA1
  8
0
 10
54.2
 20
63.7
 30
165.0
 70
    64
  0
VERTEX
  5
2FA2
  8
0
 10
49.7
 20
67.1
 30
165.0
 70
    64
  0
VERTEX
  5
2FA3
  8
0
 10
44.6
 20
69.2
 30
165.0
 70
    64
  0
VERTEX
  5
2FA4
  8
0
 10
39.0
 20
70.0
 30
165.0
 70
    64
  0
VERTEX
  5
2FA5
  8
0
 10
58.5
 20
48.5
 30
174.0
 70
    64
  0
VERTEX
  5
2FA6
  8
0
 10
57.8
 20
53.6
 30
174.0
 70
    64
  0
VERTEX
  5
2FA7
  8
0
 10
55.9
 20
58.3
 30
174.0
 70
    64
  0
VERTEX
  5
2FA8
  8
0
 10
52.8
 20
62.3
 30
174.0
 70
    64
  0
VERTEX
  5
2FA9
  8
0
 10
48.8
 20
65.4
 30
174.0
 70
    64
  0
VERTEX
  5
2FAA
  8
0
 10
44.1
 20
67.3
 30
174.0
 70
    64
  0
VERTEX
  5
2FAB
  8
0
 10
39.0
 20
68.0
 30
174.0
 70
    64
  0
VERTEX
  5
2FAC
  8
0
 10
57.2
 20
48.5
 30
183.0
 70
    64
  0
VERTEX
  5
2FAD
  8
0
 10
56.5
 20
53.2
 30
183.0
 70
    64
  0
VERTEX
  5
2FAE
  8
0
 10
54.8
 20
57.6
 30
183.0
 70
    64
  0
VERTEX
  5
2FAF
  8
0
 10
51.8
 20
61.3
 30
183.0
 70
    64
  0
VERTEX
  5
2FB0
  8
0
 10
48.1
 20
64.3
 30
183.0
 70
    64
  0
VERTEX
  5
2FB1
  8
0
 10
43.7
 20
66.0
 30
183.0
 70
    64
  0
VERTEX
  5
2FB2
  8
0
 10
39.0
 20
66.7
 30
183.0
 70
    64
  0
VERTEX
  5
2FB3
  8
0
 10
56.5
 20
48.5
 30
190.0
 70
    64
  0
VERTEX
  5
2FB4
  8
0
 10
55.9
 20
53.1
 30
190.0
 70
    64
  0
VERTEX
  5
2FB5
  8
0
 10
54.2
 20
57.3
 30
190.0
 70
    64
  0
VERTEX
  5
2FB6
  8
0
 10
51.4
 20
60.9
 30
190.0
 70
    64
  0
VERTEX
  5
2FB7
  8
0
 10
47.8
 20
63.7
 30
190.0
 70
    64
  0
VERTEX
  5
2FB8
  8
0
 10
43.6
 20
65.4
 30
190.0
 70
    64
  0
VERTEX
  5
2FB9
  8
0
 10
39.0
 20
66.0
 30
190.0
 70
    64
  0
SEQEND
  5
2FBA
  8
0
  0
POLYLINE
  5
2FBB
  8
0
 66
     1
 10
0.0
 20
0.0
 30
0.0
 70
    16
 71
    14
 72
     7
  0
VERTEX
  5
2FBC
  8
0
 10
39.0
 20
48.5
 30
0.0
 70
    64
  0
VERTEX
  5
2FBD
  8
0
 10
39.0
 20
48.5
 30
0.0
 70
    64
  0
VERTEX
  5
2FBE
  8
0
 10
39.0
 20
48.5
 30
0.0
 70
    64
  0
VERTEX
  5
2FBF
  8
0
 10
39.0
 20
48.5
 30
0.0
 70
    64
  0
VERTEX
  5
2FC0
  8
0
 10
39.0
 20
48.5
 30
0.0
 70
    64
  0
VERTEX
  5
2FC1
  8
0
 10
39.0
 20
48.5
 30
0.0
 70
    64
  0
VERTEX
  5
2FC2
  8
0
 10
39.0
 20
48.5
 30
0.0
 70
    64
  0
VERTEX
  5
2FC3
  8
0
 10
75.0
 20
48.5
 30
0.0
 70
    64
  0
VERTEX
  5
2FC4
  8
0
 10
73.7
 20
39.2
 30
0.0
 70
    64
  0
VERTEX
  5
2FC5
  8
0
 10
70.2
 20
31.6
 30
0.0
 70
    64
  0
VERTEX
  5
2FC6
  8
0
 10
64.4
 20
23.1
 30
0.0
 70
    64
  0
VERTEX
  5
2FC7
  8
0
 10
55.9
 20
17.3
 30
0.0
 70
    64
  0
VERTEX
  5
2FC8
  8
0
 10
48.3
 20
13.8
 30
0.0
 70
    64
  0
VERTEX
  5
2FC9
  8
0
 10
39.0
 20
12.5
 30
0.0
 70
    64
  0
VERTEX
  5
2FCA
  8
0
 10
75.0
 20
48.5
 30
35.0
 70
    64
  0
VERTEX
  5
2FCB
  8
0
 10
73.7
 20
39.2
 30
35.0
 70
    64
  0
VERTEX
  5
2FCC
  8
0
 10
70.2
 20
31.6
 30
35.0
 70
    64
  0
VERTEX
  5
2FCD
  8
0
 10
64.4
 20
23.1
 30
35.0
 70
    64
  0
VERTEX
  5
2FCE
  8
0
 10
55.9
 20
17.3
 30
35.0
 70
    64
  0
VERTEX
  5
2FCF
  8
0
 10
48.3
 20
13.8
 30
35.0
 70
    64
  0
VERTEX
  5
2FD0
  8
0
 10
39.0
 20
12.5
 30
35.0
 70
    64
  0
VERTEX
  5
2FD1
  8
0
 10
78.0
 20
48.5
 30
35.0
 70
    64
  0
VERTEX
  5
2FD2
  8
0
 10
76.6
 20
38.4
 30
35.0
 70
    64
  0
VERTEX
  5
2FD3
  8
0
 10
72.8
 20
29.1
 30
35.0
 70
    64
  0
VERTEX
  5
2FD4
  8
0
 10
66.5
 20
21.0
 30
35.0
 70
    64
  0
VERTEX
  5
2FD5
  8
0
 10
58.4
 20
14.7
 30
35.0
 70
    64
  0
VERTEX
  5
2FD6
  8
0
 10
49.1
 20
10.9
 30
35.0
 70
    64
  0
VERTEX
  5
2FD7
  8
0
 10
39.0
 20
9.5
 30
35.0
 70
    64
  0
VERTEX
  5
2FD8
  8
0
 10
78.0
 20
48.5
 30
110.0
 70
    64
  0
VERTEX
  5
2FD9
  8
0
 10
76.6
 20
38.4
 30
110.0
 70
    64
  0
VERTEX
  5
2FDA
  8
0
 10
72.8
 20
29.1
 30
110.0
 70
    64
  0
VERTEX
  5
2FDB
  8
0
 10
66.5
 20
21.0
 30
110.0
 70
    64
  0
VERTEX
  5
2FDC
  8
0
 10
58.4
 20
14.7
 30
110.0
 70
    64
  0
VERTEX
  5
2FDD
  8
0
 10
49.1
 20
10.9
 30
110.0
 70
    64
  0
VERTEX
  5
2FDE
  8
0
 10
39.0
 20
9.5
 30
110.0
 70
    64
  0
VERTEX
  5
2FDF
  8
0
 10
76.7
 20
48.5
 30
122.0
 70
    64
  0
VERTEX
  5
2FE0
  8
0
 10
75.4
 20
38.7
 30
122.0
 70
    64
  0
VERTEX
  5
2FE1
  8
0
 10
71.7
 20
29.7
 30
122.0
 70
    64
  0
VERTEX
  5
2FE2
  8
0
 10
65.7
 20
21.8
 30
122.0
 70
    64
  0
VERTEX
  5
2FE3
  8
0
 10
57.8
 20
15.8
 30
122.0
 70
    64
  0
VERTEX
  5
2FE4
  8
0
 10
48.8
 20
12.1
 30
122.0
 70
    64
  0
VERTEX
  5
2FE5
  8
0
 10
39.0
 20
10.8
 30
122.0
 70
    64
  0
VERTEX
  5
2FE6
  8
0
 10
74.0
 20
48.5
 30
132.0
 70
    64
  0
VERTEX
  5
2FE7
  8
0
 10
72.8
 20
39.4
 30
132.0
 70
    64
  0
VERTEX
  5
2FE8
  8
0
 10
69.4
 20
31.0
 30
132.0
 70
    64
  0
VERTEX
  5
2FE9
  8
0
 10
63.8
 20
23.7
 30
132.0
 70
    64
  0
VERTEX
  5
2FEA
  8
0
 10
56.5
 20
18.1
 30
132.0
 70
    64
  0
VERTEX
  5
2FEB
  8
0
 10
48.1
 20
14.7
 30
132.0
 70
    64
  0
VERTEX
  5
2FEC
  8
0
 10
39.0
 20
13.5
 30
132.0
 70
    64
  0
VERTEX
  5
2FED
  8
0
 10
71.0
 20
48.5
 30
140.0
 70
    64
  0
VERTEX
  5
2FEE
  8
0
 10
69.8
 20
40.2
 30
140.0
 70
    64
  0
VERTEX
  5
2FEF
  8
0
 10
66.7
 20
32.8
 30
140.0
 70
    64
  0
VERTEX
  5
2FF0
  8
0
 10
61.6
 20
25.9
 30
140.0
 70
    64
  0
VERTEX
  5
2FF1
  8
0
 10
54.7
 20
20.8
 30
140.0
 70
    64
  0
VERTEX
  5
2FF2
  8
0
 10
47.3
 20
17.7
 30
140.0
 70
    64
  0
VERTEX
  5
2FF3
  8
0
 10
39.0
 20
16.5
 30
140.0
 70
    64
  0
VERTEX
  5
2FF4
  8
0
 10
67.0
 20
48.5
 30
147.0
 70
    64
  0
VERTEX
  5
2FF5
  8
0
 10
66.0
 20
41.3
 30
147.0
 70
    64
  0
VERTEX
  5
2FF6
  8
0
 10
63.2
 20
34.6
 30
147.0
 70
    64
  0
VERTEX
  5
2FF7
  8
0
 10
58.8
 20
28.7
 30
147.0
 70
    64
  0
VERTEX
  5
2FF8
  8
0
 10
52.9
 20
24.3
 30
147.0
 70
    64
  0
VERTEX
  5
2FF9
  8
0
 10
46.2
 20
21.5
 30
147.0
 70
    64
  0
VERTEX
  5
2FFA
  8
0
 10
39.0
 20
20.5
 30
147.0
 70
    64
  0
VERTEX
  5
2FFB
  8
0
 10
63.0
 20
48.5
 30
156.0
 70
    64
  0
VERTEX
  5
2FFC
  8
0
 10
62.1
 20
42.3
 30
156.0
 70
    64
  0
VERTEX
  5
2FFD
  8
0
 10
59.8
 20
36.5
 30
156.0
 70
    64
  0
VERTEX
  5
2FFE
  8
0
 10
55.9
 20
31.6
 30
156.0
 70
    64
  0
VERTEX
  5
2FFF
  8
0
 10
51.0
 20
27.7
 30
156.0
 70
    64
  0
VERTEX
  5
3000
  8
0
 10
45.2
 20
25.4
 30
156.0
 70
    64
  0
VERTEX
  5
3001
  8
0
 10
39.0
 20
24.5
 30
156.0
 70
    64
  0
VERTEX
  5
3002
  8
0
 10
60.5
 20
48.5
 30
165.0
 70
    64
  0
VERTEX
  5
3003
  8
0
 10
59.7
 20
42.9
 30
165.0
 70
    64
  0
VERTEX
  5
3004
  8
0
 10
57.6
 20
37.8
 30
165.0
 70
    64
  0
VERTEX
  5
3005
  8
0
 10
54.2
 20
33.3
 30
165.0
 70
    64
  0
VERTEX
  5
3006
  8
0
 10
49.7
 20
29.9
 30
165.0
 70
    64
  0
VERTEX
  5
3007
  8
0
 10
44.6
 20
27.8
 30
165.0
 70
    64
  0
VERTEX
  5
3008
  8
0
 10
39.0
 20
27.0
 30
165.0
 70
    64
  0
VERTEX
  5
3009
  8
0
 10
58.5
 20
48.5
 30
174.0
 70
    64
  0
VERTEX
  5
300A
  8
0
 10
57.8
 20
43.4
 30
174.0
 70
    64
  0
VERTEX
  5
300B
  8
0
 10
55.9
 20
38.7
 30
174.0
 70
    64
  0
VERTEX
  5
300C
  8
0
 10
52.8
 20
34.7
 30
174.0
 70
    64
  0
VERTEX
  5
300D
  8
0
 10
48.8
 20
31.6
 30
174.0
 70
    64
  0
VERTEX
  5
300E
  8
0
 10
44.1
 20
29.7
 30
174.0
 70
    64
  0
VERTEX
  5
300F
  8
0
 10
39.0
 20
29.0
 30
174.0
 70
    64
  0
VERTEX
  5
3010
  8
0
 10
57.2
 20
48.5
 30
183.0
 70
    64
  0
VERTEX
  5
3011
  8
0
 10
56.5
 20
43.8
 30
183.0
 70
    64
  0
VERTEX
  5
3012
  8
0
 10
54.8
 20
39.4
 30
183.0
 70
    64
  0
VERTEX
  5
3013
  8
0
 10
51.8
 20
35.7
 30
183.0
 70
    64
  0
VERTEX
  5
3014
  8
0
 10
48.1
 20
32.7
 30
183.0
 70
    64
  0
VERTEX
  5
3015
  8
0
 10
43.7
 20
31.0
 30
183.0
 70
    64
  0
VERTEX
  5
3016
  8
0
 10
39.0
 20
30.3
 30
183.0
 70
    64
  0
VERTEX
  5
3017
  8
0
 10
56.5
 20
48.5
 30
190.0
 70
    64
  0
VERTEX
  5
3018
  8
0
 10
55.9
 20
43.9
 30
190.0
 70
    64
  0
VERTEX
  5
3019
  8
0
 10
54.2
 20
39.7
 30
190.0
 70
    64
  0
VERTEX
  5
301A
  8
0
 10
51.4
 20
36.1
 30
190.0
 70
    64
  0
VERTEX
  5
301B
  8
0
 10
47.8
 20
33.3
 30
190.0
 70
    64
  0
VERTEX
  5
301C
  8
0
 10
43.6
 20
31.6
 30
190.0
 70
    64
  0
VERTEX
  5
301D
  8
0
 10
39.0
 20
31.0
 30
190.0
 70
    64
  0
SEQEND
  5
301E
  8
0
  0
POLYLINE
  5
301F
  8
0
 66
     1
 10
0.0
 20
0.0
 30
0.0
 70
    16
 71
     2
 72
     7
  0
VERTEX
  5
3020
  8
0
 10
56.0
 20
48.5
 30
203.0
 70
    64
  0
VERTEX
  5
3021
  8
0
 10
55.4
 20
44.1
 30
203.0
 70
    64
  0
VERTEX
  5
3022
  8
0
 10
53.7
 20
40.0
 30
203.0
 70
    64
  0
VERTEX
  5
3023
  8
0
 10
51.0
 20
36.5
 30
203.0
 70
    64
  0
VERTEX
  5
3024
  8
0
 10
47.5
 20
33.8
 30
203.0
 70
    64
  0
VERTEX
  5
3025
  8
0
 10
43.4
 20
32.1
 30
203.0
 70
    64
  0
VERTEX
  5
3026
  8
0
 10
39.0
 20
31.5
 30
203.0
 70
    64
  0
VERTEX
  5
3027
  8
0
 10
50.0
 20
48.5
 30
203.0
 70
    64
  0
VERTEX
  5
3028
  8
0
 10
49.6
 20
45.7
 30
203.0
 70
    64
  0
VERTEX
  5
3029
  8
0
 10
48.5
 20
43.0
 30
203.0
 70
    64
  0
VERTEX
  5
302A
  8
0
 10
46.8
 20
40.7
 30
203.0
 70
    64
  0
VERTEX
  5
302B
  8
0
 10
44.5
 20
39.0
 30
203.0
 70
    64
  0
VERTEX
  5
302C
  8
0
 10
41.8
 20
37.9
 30
203.0
 70
    64
  0
VERTEX
  5
302D
  8
0
 10
39.0
 20
37.5
 30
203.0
 70
    64
  0
SEQEND
  5
302E
  8
0
  0
POLYLINE
  5
302F
  8
0
 66
     1
 10
0.0
 20
0.0
 30
0.0
 70
    16
 71
     2
 72
     7
  0
VERTEX
  5
3030
  8
0
 10
56.5
 20
48.5
 30
190.0
 70
    64
  0
VERTEX
  5
3031
  8
0
 10
55.9
 20
43.9
 30
190.0
 70
    64
  0
VERTEX
  5
3032
  8
0
 10
54.2
 20
39.7
 30
190.0
 70
    64
  0
VERTEX
  5
3033
  8
0
 10
51.4
 20
36.1
 30
190.0
 70
    64
  0
VERTEX
  5
3034
  8
0
 10
47.8
 20
33.3
 30
190.0
 70
    64
  0
VERTEX
  5
3035
  8
0
 10
43.6
 20
31.6
 30
190.0
 70
    64
  0
VERTEX
  5
3036
  8
0
 10
39.0
 20
31.0
 30
190.0
 70
    64
  0
VERTEX
  5
3037
  8
0
 10
56.0
 20
48.5
 30
203.0
 70
    64
  0
VERTEX
  5
3038
  8
0
 10
55.4
 20
44.1
 30
203.0
 70
    64
  0
VERTEX
  5
3039
  8
0
 10
53.7
 20
40.0
 30
203.0
 70
    64
  0
VERTEX
  5
303A
  8
0
 10
51.0
 20
36.5
 30
203.0
 70
    64
  0
VERTEX
  5
303B
  8
0
 10
47.5
 20
33.8
 30
203.0
 70
    64
  0
VERTEX
  5
303C
  8
0
 10
43.4
 20
32.1
 30
203.0
 70
    64
  0
VERTEX
  5
303D
  8
0
 10
39.0
 20
31.5
 30
203.0
 70
    64
  0
SEQEND
  5
303E
  8
0
  0
POLYLINE
  5
303F
  8
0
 66
     1
 10
0.0
 20
0.0
 30
0.0
 70
    16
 71
     9
 72
     7
  0
VERTEX
  5
3040
  8
0
 10
39.0
 20
37.5
 30
203.0
 70
    64
  0
VERTEX
  5
3041
  8
0
 10
41.8
 20
37.9
 30
203.0
 70
    64
  0
VERTEX
  5
3042
  8
0
 10
44.5
 20
39.0
 30
203.0
 70
    64
  0
VERTEX
  5
3043
  8
0
 10
46.8
 20
40.7
 30
203.0
 70
    64
  0
VERTEX
  5
3044
  8
0
 10
48.5
 20
43.0
 30
203.0
 70
    64
  0
VERTEX
  5
3045
  8
0
 10
49.6
 20
45.7
 30
203.0
 70
    64
  0
VERTEX
  5
3046
  8
0
 10
50.0
 20
48.5
 30
203.0
 70
    64
  0
VERTEX
  5
3047
  8
0
 10
39.0
 20
37.5
 30
203.0
 70
    64
  0
VERTEX
  5
3048
  8
0
 10
41.8
 20
37.9
 30
203.0
 70
    64
  0
VERTEX
  5
3049
  8
0
 10
44.5
 20
39.0
 30
203.0
 70
    64
  0
VERTEX
  5
304A
  8
0
 10
46.8
 20
40.7
 30
203.0
 70
    64
  0
VERTEX
  5
304B
  8
0
 10
48.5
 20
43.0
 30
203.0
 70
    64
  0
VERTEX
  5
304C
  8
0
 10
49.6
 20
45.7
 30
203.0
 70
    64
  0
VERTEX
  5
304D
  8
0
 10
50.0
 20
48.5
 30
203.0
 70
    64
  0
VERTEX
  5
304E
  8
0
 10
39.0
 20
37.5
 30
203.0
 70
    64
  0
VERTEX
  5
304F
  8
0
 10
41.8
 20
37.9
 30
203.0
 70
    64
  0
VERTEX
  5
3050
  8
0
 10
44.5
 20
39.0
 30
203.0
 70
    64
  0
VERTEX
  5
3051
  8
0
 10
46.8
 20
40.7
 30
203.0
 70
    64
  0
VERTEX
  5
3052
  8
0
 10
48.5
 20
43.0
 30
203.0
 70
    64
  0
VERTEX
  5
3053
  8
0
 10
49.6
 20
45.7
 30
203.0
 70
    64
  0
VERTEX
  5
3054
  8
0
 10
50.0
 20
48.5
 30
203.0
 70
    64
  0
VERTEX
  5
3055
  8
0
 10
39.0
 20
37.5
 30
203.0
 70
    64
  0
VERTEX
  5
3056
  8
0
 10
41.8
 20
37.9
 30
203.0
 70
    64
  0
VERTEX
  5
3057
  8
0
 10
44.5
 20
39.0
 30
203.0
 70
    64
  0
VERTEX
  5
3058
  8
0
 10
46.8
 20
40.7
 30
203.0
 70
    64
  0
VERTEX
  5
3059
  8
0
 10
48.5
 20
43.0
 30
203.0
 70
    64
  0
VERTEX
  5
305A
  8
0
 10
49.6
 20
45.7
 30
203.0
 70
    64
  0
VERTEX
  5
305B
  8
0
 10
50.0
 20
48.5
 30
203.0
 70
    64
  0
VERTEX
  5
305C
  8
0
 10
39.0
 20
37.5
 30
203.0
 70
    64
  0
VERTEX
  5
305D
  8
0
 10
41.8
 20
37.9
 30
203.0
 70
    64
  0
VERTEX
  5
305E
  8
0
 10
44.5
 20
39.0
 30
203.0
 70
    64
  0
VERTEX
  5
305F
  8
0
 10
46.8
 20
40.7
 30
203.0
 70
    64
  0
VERTEX
  5
3060
  8
0
 10
48.5
 20
43.0
 30
203.0
 70
    64
  0
VERTEX
  5
3061
  8
0
 10
49.6
 20
45.7
 30
203.0
 70
    64
  0
VERTEX
  5
3062
  8
0
 10
50.0
 20
48.5
 30
203.0
 70
    64
  0
VERTEX
  5
3063
  8
0
 10
42.4
 20
35.9
 30
222.0
 70
    64
  0
VERTEX
  5
3064
  8
0
 10
42.4
 20
35.9
 30
222.0
 70
    64
  0
VERTEX
  5
3065
  8
0
 10
45.5
 20
37.2
 30
222.0
 70
    64
  0
VERTEX
  5
3066
  8
0
 10
48.2
 20
39.3
 30
222.0
 70
    64
  0
VERTEX
  5
3067
  8
0
 10
50.3
 20
42.0
 30
222.0
 70
    64
  0
VERTEX
  5
3068
  8
0
 10
51.6
 20
45.1
 30
222.0
 70
    64
  0
VERTEX
  5
3069
  8
0
 10
52.0
 20
48.5
 30
222.0
 70
    64
  0
VERTEX
  5
306A
  8
0
 10
42.4
 20
35.9
 30
226.0
 70
    64
  0
VERTEX
  5
306B
  8
0
 10
42.4
 20
35.9
 30
226.0
 70
    64
  0
VERTEX
  5
306C
  8
0
 10
45.5
 20
37.2
 30
226.0
 70
    64
  0
VERTEX
  5
306D
  8
0
 10
48.2
 20
39.3
 30
226.0
 70
    64
  0
VERTEX
  5
306E
  8
0
 10
50.3
 20
42.0
 30
226.0
 70
    64
  0
VERTEX
  5
306F
  8
0
 10
51.6
 20
45.1
 30
226.0
 70
    64
  0
VERTEX
  5
3070
  8
0
 10
52.0
 20
48.5
 30
226.0
 70
    64
  0
VERTEX
  5
3071
  8
0
 10
39.0
 20
37.5
 30
227.5
 70
    64
  0
VERTEX
  5
3072
  8
0
 10
41.8
 20
37.9
 30
227.5
 70
    64
  0
VERTEX
  5
3073
  8
0
 10
44.5
 20
39.0
 30
227.5
 70
    64
  0
VERTEX
  5
3074
  8
0
 10
46.8
 20
40.7
 30
227.5
 70
    64
  0
VERTEX
  5
3075
  8
0
 10
48.5
 20
43.0
 30
227.5
 70
    64
  0
VERTEX
  5
3076
  8
0
 10
49.6
 20
45.7
 30
227.5
 70
    64
  0
VERTEX
  5
3077
  8
0
 10
50.0
 20
48.5
 30
227.5
 70
    64
  0
VERTEX
  5
3078
  8
0
 10
39.0
 20
48.5
 30
228.0
 70
    64
  0
VERTEX
  5
3079
  8
0
 10
39.0
 20
48.5
 30
228.0
 70
    64
  0
VERTEX
  5
307A
  8
0
 10
39.0
 20
48.5
 30
228.0
 70
    64
  0
VERTEX
  5
307B
  8
0
 10
39.0
 20
48.5
 30
228.0
 70
    64
  0
VERTEX
  5
307C
  8
0
 10
39.0
 20
48.5
 30
228.0
 70
    64
  0
VERTEX
  5
307D
  8
0
 10
39.0
 20
48.5
 30
228.0
 70
    64
  0
VERTEX
  5
307E
  8
0
 10
39.0
 20
48.5
 30
228.0
 70
    64
  0
SEQEND
  5
307F
  8
0
  0
POLYLINE
  5
3080
  8
0
 66
     1
 10
0.0
 20
0.0
 30
0.0
 70
    16
 71
     3
 72
     7
  0
VERTEX
  5
3081
  8
0
 10
39.0
 20
35.5
 30
226.0
 70
    64
  0
VERTEX
  5
3082
  8
0
 10
40.5
 20
35.5
 30
225.4
 70
    64
  0
VERTEX
  5
3083
  8
0
 10
41.6
 20
35.5
 30
224.3
 70
    64
  0
VERTEX
  5
3084
  8
0
 10
42.0
 20
35.5
 30
222.9
 70
    64
  0
VERTEX
  5
3085
  8
0
 10
41.6
 20
35.6
 30
221.3
 70
    64
  0
VERTEX
  5
3086
  8
0
 10
40.5
 20
35.7
 30
220.3
 70
    64
  0
VERTEX
  5
3087
  8
0
 10
39.0
 20
35.7
 30
219.8
 70
    64
  0
VERTEX
  5
3088
  8
0
 10
39.0
 20
0.0
 30
228.0
 70
    64
  0
VERTEX
  5
3089
  8
0
 10
40.5
 20
0.4
 30
227.6
 70
    64
  0
VERTEX
  5
308A
  8
0
 10
41.6
 20
1.4
 30
226.4
 70
    64
  0
VERTEX
  5
308B
  8
0
 10
42.0
 20
2.7
 30
224.7
 70
    64
  0
VERTEX
  5
308C
  8
0
 10
41.6
 20
4.0
 30
223.1
 70
    64
  0
VERTEX
  5
308D
  8
0
 10
40.5
 20
5.0
 30
221.9
 70
    64
  0
VERTEX
  5
308E
  8
0
 10
39.0
 20
5.4
 30
221.4
 70
    64
  0
VERTEX
  5
308F
  8
0
 10
39.0
 20
2.7
 30
224.7
 70
    64
  0
VERTEX
  5
3090
  8
0
 10
39.0
 20
2.7
 30
224.7
 70
    64
  0
VERTEX
  5
3091
  8
0
 10
39.0
 20
2.7
 30
224.7
 70
    64
  0
VERTEX
  5
3092
  8
0
 10
39.0
 20
2.7
 30
224.7
 70
    64
  0
VERTEX
  5
3093
  8
0
 10
39.0
 20
2.7
 30
224.7
 70
    64
  0
VERTEX
  5
3094
  8
0
 10
39.0
 20
2.7
 30
224.7
 70
    64
  0
VERTEX
  5
3095
  8
0
 10
39.0
 20
2.7
 30
224.7
 70
    64
  0
SEQEND
  5
3096
  8
0
  0
POLYLINE
  5
3097
  8
0
 66
     1
 10
0.0
 20
0.0
 30
0.0
 70
    16
 71
     2
 72
     7
  0
VERTEX
  5
3098
  8
0
 10
39.0
 20
35.5
 30
226.0
 70
    64
  0
VERTEX
  5
3099
  8
0
 10
40.5
 20
35.5
 30
225.4
 70
    64
  0
VERTEX
  5
309A
  8
0
 10
41.6
 20
35.5
 30
224.3
 70
    64
  0
VERTEX
  5
309B
  8
0
 10
42.0
 20
35.5
 30
222.9
 70
    64
  0
VERTEX
  5
309C
  8
0
 10
41.6
 20
35.6
 30
221.3
 70
    64
  0
VERTEX
  5
309D
  8
0
 10
40.5
 20
35.7
 30
220.3
 70
    64
  0
VERTEX
  5
309E
  8
0
 10
39.0
 20
35.7
 30
219.8
 70
    64
  0
VERTEX
  5
309F
  8
0
 10
39.0
 20
35.5
 30
226.0
 70
    64
  0
VERTEX
  5
30A0
  8
0
 10
42.4
 20
35.9
 30
226.0
 70
    64
  0
VERTEX
  5
30A1
  8
0
 10
42.4
 20
35.9
 30
226.0
 70
    64
  0
VERTEX
  5
30A2
  8
0
 10
42.4
 20
35.9
 30
222.0
 70
    64
  0
VERTEX
  5
30A3
  8
0
 10
42.4
 20
35.9
 30
222.0
 70
    64
  0
VERTEX
  5
30A4
  8
0
 10
39.0
 20
37.5
 30
203.0
 70
    64
  0
VERTEX
  5
30A5
  8
0
 10
39.0
 20
37.5
 30
203.0
 70
    64
  0
SEQEND
  5
30A6
  8
0
  0
POLYLINE
  5
30A7
  8
0
 66
     1
 10
0.0
 20
0.0
 30
0.0
 70
    16
 71
     2
 72
     2
  0
VERTEX
  5
30A8
  8
0
 10
42.4
 20
35.9
 30
226.0
 70
    64
  0
VERTEX
  5
30A9
  8
0
 10
39.0
 20
35.5
 30
226.0
 70
    64
  0
VERTEX
  5
30AA
  8
0
 10
39.0
 20
37.5
 30
227.5
 70
    64
  0
VERTEX
  5
30AB
  8
0
 10
39.0
 20
37.5
 30
227.5
 70
    64
  0
SEQEND
  5
30AC
  8
0
  0
POLYLINE
  5
30AD
  8
0
 66
     1
 10
0.0
 20
0.0
 30
0.0
 70
    16
 71
     9
 72
     7
  0
VERTEX
  5
30AE
  8
0
 10
39.0
 20
59.5
 30
203.0
 70
    64
  0
VERTEX
  5
30AF
  8
0
 10
41.8
 20
59.1
 30
203.0
 70
    64
  0
VERTEX
  5
30B0
  8
0
 10
44.5
 20
58.0
 30
203.0
 70
    64
  0
VERTEX
  5
30B1
  8
0
 10
46.8
 20
56.3
 30
203.0
 70
    64
  0
VERTEX
  5
30B2
  8
0
 10
48.5
 20
54.0
 30
203.0
 70
    64
  0
VERTEX
  5
30B3
  8
0
 10
49.6
 20
51.3
 30
203.0
 70
    64
  0
VERTEX
  5
30B4
  8
0
 10
50.0
 20
48.5
 30
203.0
 70
    64
  0
VERTEX
  5
30B5
  8
0
 10
39.0
 20
59.5
 30
203.0
 70
    64
  0
VERTEX
  5
30B6
  8
0
 10
41.8
 20
59.1
 30
203.0
 70
    64
  0
VERTEX
  5
30B7
  8
0
 10
44.5
 20
58.0
 30
203.0
 70
    64
  0
VERTEX
  5
30B8
  8
0
 10
46.8
 20
56.3
 30
203.0
 70
    64
  0
VERTEX
  5
30B9
  8
0
 10
48.5
 20
54.0
 30
203.0
 70
    64
  0
VERTEX
  5
30BA
  8
0
 10
49.6
 20
51.3
 30
203.0
 70
    64
  0
VERTEX
  5
30BB
  8
0
 10
50.0
 20
48.5
 30
203.0
 70
    64
  0
VERTEX
  5
30BC
  8
0
 10
39.0
 20
59.5
 30
203.0
 70
    64
  0
VERTEX
  5
30BD
  8
0
 10
41.8
 20
59.1
 30
203.0
 70
    64
  0
VERTEX
  5
30BE
  8
0
 10
44.5
 20
58.0
 30
203.0
 70
    64
  0
VERTEX
  5
30BF
  8
0
 10
46.8
 20
56.3
 30
203.0
 70
    64
  0
VERTEX
  5
30C0
  8
0
 10
48.5
 20
54.0
 30
203.0
 70
    64
  0
VERTEX
  5
30C1
  8
0
 10
49.6
 20
51.3
 30
203.0
 70
    64
  0
VERTEX
  5
30C2
  8
0
 10
50.0
 20
48.5
 30
203.0
 70
    64
  0
VERTEX
  5
30C3
  8
0
 10
39.0
 20
59.5
 30
203.0
 70
    64
  0
VERTEX
  5
30C4
  8
0
 10
41.8
 20
59.1
 30
203.0
 70
    64
  0
VERTEX
  5
30C5
  8
0
 10
44.5
 20
58.0
 30
203.0
 70
    64
  0
VERTEX
  5
30C6
  8
0
 10
46.8
 20
56.3
 30
203.0
 70
    64
  0
VERTEX
  5
30C7
  8
0
 10
48.5
 20
54.0
 30
203.0
 70
    64
  0
VERTEX
  5
30C8
  8
0
 10
49.6
 20
51.3
 30
203.0
 70
    64
  0
VERTEX
  5
30C9
  8
0
 10
50.0
 20
48.5
 30
203.0
 70
    64
  0
VERTEX
  5
30CA
  8
0
 10
39.0
 20
59.5
 30
203.0
 70
    64
  0
VERTEX
  5
30CB
  8
0
 10
41.8
 20
59.1
 30
203.0
 70
    64
  0
VERTEX
  5
30CC
  8
0
 10
44.5
 20
58.0
 30
203.0
 70
    64
  0
VERTEX
  5
30CD
  8
0
 10
46.8
 20
56.3
 30
203.0
 70
    64
  0
VERTEX
  5
30CE
  8
0
 10
48.5
 20
54.0
 30
203.0
 70
    64
  0
VERTEX
  5
30CF
  8
0
 10
49.6
 20
51.3
 30
203.0
 70
    64
  0
VERTEX
  5
30D0
  8
0
 10
50.0
 20
48.5
 30
203.0
 70
    64
  0
VERTEX
  5
30D1
  8
0
 10
39.0
 20
61.5
 30
222.0
 70
    64
  0
VERTEX
  5
30D2
  8
0
 10
42.4
 20
61.1
 30
222.0
 70
    64
  0
VERTEX
  5
30D3
  8
0
 10
45.5
 20
59.8
 30
222.0
 70
    64
  0
VERTEX
  5
30D4
  8
0
 10
48.2
 20
57.7
 30
222.0
 70
    64
  0
VERTEX
  5
30D5
  8
0
 10
50.3
 20
55.0
 30
222.0
 70
    64
  0
VERTEX
  5
30D6
  8
0
 10
51.6
 20
51.9
 30
222.0
 70
    64
  0
VERTEX
  5
30D7
  8
0
 10
52.0
 20
48.5
 30
222.0
 70
    64
  0
VERTEX
  5
30D8
  8
0
 10
39.0
 20
61.5
 30
226.0
 70
    64
  0
VERTEX
  5
30D9
  8
0
 10
42.4
 20
61.1
 30
226.0
 70
    64
  0
VERTEX
  5
30DA
  8
0
 10
45.5
 20
59.8
 30
226.0
 70
    64
  0
VERTEX
  5
30DB
  8
0
 10
48.2
 20
57.7
 30
226.0
 70
    64
  0
VERTEX
  5
30DC
  8
0
 10
50.3
 20
55.0
 30
226.0
 70
    64
  0
VERTEX
  5
30DD
  8
0
 10
51.6
 20
51.9
 30
226.0
 70
    64
  0
VERTEX
  5
30DE
  8
0
 10
52.0
 20
48.5
 30
226.0
 70
    64
  0
VERTEX
  5
30DF
  8
0
 10
39.0
 20
59.5
 30
227.5
 70
    64
  0
VERTEX
  5
30E0
  8
0
 10
41.8
 20
59.1
 30
227.5
 70
    64
  0
VERTEX
  5
30E1
  8
0
 10
44.5
 20
58.0
 30
227.5
 70
    64
  0
VERTEX
  5
30E2
  8
0
 10
46.8
 20
56.3
 30
227.5
 70
    64
  0
VERTEX
  5
30E3
  8
0
 10
48.5
 20
54.0
 30
227.5
 70
    64
  0
VERTEX
  5
30E4
  8
0
 10
49.6
 20
51.3
 30
227.5
 70
    64
  0
VERTEX
  5
30E5
  8
0
 10
50.0
 20
48.5
 30
227.5
 70
    64
  0
VERTEX
  5
30E6
  8
0
 10
39.0
 20
48.5
 30
228.0
 70
    64
  0
VERTEX
  5
30E7
  8
0
 10
39.0
 20
48.5
 30
228.0
 70
    64
  0
VERTEX
  5
30E8
  8
0
 10
39.0
 20
48.5
 30
228.0
 70
    64
  0
VERTEX
  5
30E9
  8
0
 10
39.0
 20
48.5
 30
228.0
 70
    64
  0
VERTEX
  5
30EA
  8
0
 10
39.0
 20
48.5
 30
228.0
 70
    64
  0
VERTEX
  5
30EB
  8
0
 10
39.0
 20
48.5
 30
228.0
 70
    64
  0
VERTEX
  5
30EC
  8
0
 10
39.0
 20
48.5
 30
228.0
 70
    64
  0
SEQEND
  5
30ED
  8
0
  0
POLYLINE
  5
30EE
  8
0
 66
     1
 10
0.0
 20
0.0
 30
0.0
 70
    16
 71
     2
 72
     7
  0
VERTEX
  5
30EF
  8
0
 10
56.5
 20
48.5
 30
190.0
 70
    64
  0
VERTEX
  5
30F0
  8
0
 10
55.9
 20
53.1
 30
190.0
 70
    64
  0
VERTEX
  5
30F1
  8
0
 10
54.2
 20
57.3
 30
190.0
 70
    64
  0
VERTEX
  5
30F2
  8
0
 10
51.4
 20
60.9
 30
190.0
 70
    64
  0
VERTEX
  5
30F3
  8
0
 10
47.8
 20
63.7
 30
190.0
 70
    64
  0
VERTEX
  5
30F4
  8
0
 10
43.6
 20
65.4
 30
190.0
 70
    64
  0
VERTEX
  5
30F5
  8
0
 10
39.0
 20
66.0
 30
190.0
 70
    64
  0
VERTEX
  5
30F6
  8
0
 10
56.0
 20
48.5
 30
203.0
 70
    64
  0
VERTEX
  5
30F7
  8
0
 10
55.4
 20
52.9
 30
203.0
 70
    64
  0
VERTEX
  5
30F8
  8
0
 10
53.7
 20
57.0
 30
203.0
 70
    64
  0
VERTEX
  5
30F9
  8
0
 10
51.0
 20
60.5
 30
203.0
 70
    64
  0
VERTEX
  5
30FA
  8
0
 10
47.5
 20
63.2
 30
203.0
 70
    64
  0
VERTEX
  5
30FB
  8
0
 10
43.4
 20
64.9
 30
203.0
 70
    64
  0
VERTEX
  5
30FC
  8
0
 10
39.0
 20
65.5
 30
203.0
 70
    64
  0
SEQEND
  5
30FD
  8
0
  0
POLYLINE
  5
30FE
  8
0
 66
     1
 10
0.0
 20
0.0
 30
0.0
 70
    16
 71
     2
 72
     7
  0
VERTEX
  5
30FF
  8
0
 10
56.0
 20
48.5
 30
203.0
 70
    64
  0
VERTEX
  5
3100
  8
0
 10
55.4
 20
52.9
 30
203.0
 70
    64
  0
VERTEX
  5
3101
  8
0
 10
53.7
 20
57.0
 30
203.0
 70
    64
  0
VERTEX
  5
3102
  8
0
 10
51.0
 20
60.5
 30
203.0
 70
    64
  0
VERTEX
  5
3103
  8
0
 10
47.5
 20
63.2
 30
203.0
 70
    64
  0
VERTEX
  5
3104
  8
0
 10
43.4
 20
64.9
 30
203.0
 70
    64
  0
VERTEX
  5
3105
  8
0
 10
39.0
 20
65.5
 30
203.0
 70
    64
  0
VERTEX
  5
3106
  8
0
 10
50.0
 20
48.5
 30
203.0
 70
    64
  0
VERTEX
  5
3107
  8
0
 10
49.6
 20
51.3
 30
203.0
 70
    64
  0
VERTEX
  5
3108
  8
0
 10
48.5
 20
54.0
 30
203.0
 70
    64
  0
VERTEX
  5
3109
  8
0
 10
46.8
 20
56.3
 30
203.0
 70
    64
  0
VERTEX
  5
310A
  8
0
 10
44.5
 20
58.0
 30
203.0
 70
    64
  0
VERTEX
  5
310B
  8
0
 10
41.8
 20
59.1
 30
203.0
 70
    64
  0
VERTEX
  5
310C
  8
0
 10
39.0
 20
59.5
 30
203.0
 70
    64
  0
SEQEND
  5
310D
  8
0
  0
ENDSEC
  0
EOF
