  0
SECTION
  2
HEADER
  9
$ACADVER
  1
AC1009
  9
$INSBASE
 10
0.0
 20
0.0
 30
0.0
  9
$EXTMIN
 10
0.0
 20
0.000024
 30
0.000042
  9
$EXTMAX
 10
70.0
 20
131.7859
 30
124.5082
  9
$LIMMIN
 10
0.0
 20
0.0
  9
$LIMMAX
 10
12.0
 20
9.0
  9
$ORTHOMODE
 70
     0
  9
$REGENMODE
 70
     1
  9
$FILLMODE
 70
     1
  9
$QTEXTMODE
 70
     0
  9
$MIRRTEXT
 70
     1
  9
$DRAGMODE
 70
     2
  9
$LTSCALE
 40
1.0
  9
$OSMODE
 70
     0
  9
$ATTMODE
 70
     1
  9
$TEXTSIZE
 40
0.2
  9
$TRACEWID
 40
0.05
  9
$TEXTSTYLE
  7
STANDARD
  9
$CLAYER
  8
0
  9
$CELTYPE
  6
CONTINUOUS
  9
$CECOLOR
 62
   256
  9
$DIMSCALE
 40
1.0
  9
$DIMASZ
 40
0.18
  9
$DIMEXO
 40
0.0625
  9
$DIMDLI
 40
0.38
  9
$DIMRND
 40
0.0
  9
$DIMDLE
 40
0.0
  9
$DIMEXE
 40
0.18
  9
$DIMTP
 40
0.0
  9
$DIMTM
 40
0.0
  9
$DIMTXT
 40
0.18
  9
$DIMCEN
 40
0.09
  9
$DIMTSZ
 40
0.0
  9
$DIMTOL
 70
     0
  9
$DIMLIM
 70
     0
  9
$DIMTIH
 70
     1
  9
$DIMTOH
 70
     1
  9
$DIMSE1
 70
     0
  9
$DIMSE2
 70
     0
  9
$DIMTAD
 70
     0
  9
$DIMZIN
 70
     0
  9
$DIMBLK
  1

  9
$DIMASO
 70
     1
  9
$DIMSHO
 70
     1
  9
$DIMPOST
  1

  9
$DIMAPOST
  1

  9
$DIMALT
 70
     0
  9
$DIMALTD
 70
     2
  9
$DIMALTF
 40
25.4
  9
$DIMLFAC
 40
1.0
  9
$DIMTOFL
 70
     0
  9
$DIMTVP
 40
0.0
  9
$DIMTIX
 70
     0
  9
$DIMSOXD
 70
     0
  9
$DIMSAH
 70
     0
  9
$DIMBLK1
  1

  9
$DIMBLK2
  1

  9
$DIMSTYLE
  2
STANDARD
  9
$DIMCLRD
 70
     0
  9
$DIMCLRE
 70
     0
  9
$DIMCLRT
 70
     0
  9
$DIMTFAC
 40
1.0
  9
$DIMGAP
 40
0.09
  9
$LUNITS
 70
     2
  9
$LUPREC
 70
     4
  9
$SKETCHINC
 40
0.1
  9
$FILLETRAD
 40
0.0
  9
$AUNITS
 70
     0
  9
$AUPREC
 70
     0
  9
$MENU
  1
.
  9
$ELEVATION
 40
0.0
  9
$PELEVATION
 40
0.0
  9
$THICKNESS
 40
0.0
  9
$LIMCHECK
 70
     0
  9
$BLIPMODE
 70
     0
  9
$CHAMFERA
 40
0.0
  9
$CHAMFERB
 40
0.0
  9
$SKPOLY
 70
     0
  9
$TDCREATE
 40
2451656.41122
  9
$TDUPDATE
 40
2451656.507467
  9
$TDINDWG
 40
0.096425
  9
$TDUSRTIMER
 40
0.096425
  9
$USRTIMER
 70
     1
  9
$ANGBASE
 50
0.0
  9
$ANGDIR
 70
     0
  9
$PDMODE
 70
     0
  9
$PDSIZE
 40
0.0
  9
$PLINEWID
 40
0.0
  9
$COORDS
 70
     1
  9
$SPLFRAME
 70
     0
  9
$SPLINETYPE
 70
     6
  9
$SPLINESEGS
 70
     8
  9
$ATTDIA
 70
     0
  9
$ATTREQ
 70
     1
  9
$HANDLING
 70
     1
  9
$HANDSEED
  5
123D
  9
$SURFTAB1
 70
     6
  9
$SURFTAB2
 70
     6
  9
$SURFTYPE
 70
     6
  9
$SURFU
 70
     6
  9
$SURFV
 70
     6
  9
$UCSNAME
  2

  9
$UCSORG
 10
0.0
 20
0.0
 30
0.0
  9
$UCSXDIR
 10
1.0
 20
0.0
 30
0.0
  9
$UCSYDIR
 10
0.0
 20
1.0
 30
0.0
  9
$PUCSNAME
  2

  9
$PUCSORG
 10
0.0
 20
0.0
 30
0.0
  9
$PUCSXDIR
 10
1.0
 20
0.0
 30
0.0
  9
$PUCSYDIR
 10
0.0
 20
1.0
 30
0.0
  9
$USERI1
 70
     0
  9
$USERI2
 70
     0
  9
$USERI3
 70
     0
  9
$USERI4
 70
     0
  9
$USERI5
 70
     0
  9
$USERR1
 40
0.0
  9
$USERR2
 40
0.0
  9
$USERR3
 40
0.0
  9
$USERR4
 40
0.0
  9
$USERR5
 40
0.0
  9
$WORLDVIEW
 70
     1
  9
$SHADEDGE
 70
     3
  9
$SHADEDIF
 70
    70
  9
$TILEMODE
 70
     1
  9
$MAXACTVP
 70
    48
  9
$PLIMCHECK
 70
     0
  9
$PEXTMIN
 10
1.000000E+020
 20
1.000000E+020
 30
1.000000E+020
  9
$PEXTMAX
 10
-1.000000E+020
 20
-1.000000E+020
 30
-1.000000E+020
  9
$PLIMMIN
 10
0.0
 20
0.0
  9
$PLIMMAX
 10
12.0
 20
9.0
  9
$UNITMODE
 70
     0
  9
$VISRETAIN
 70
     1
  9
$PLINEGEN
 70
     0
  9
$PSLTSCALE
 70
     1
  0
ENDSEC
  0
SECTION
  2
TABLES
  0
TABLE
  2
VPORT
 70
     8
  0
VPORT
  2
*ACTIVE
 70
     0
 10
0.0
 20
0.0
 11
1.0
 21
1.0
 12
-21.844623
 22
92.019656
 13
0.0
 23
0.0
 14
1.0
 24
1.0
 15
0.0
 25
0.0
 16
-1.0
 26
-1.0
 36
1.0
 17
0.0
 27
0.0
 37
0.0
 40
186.325425
 41
1.991701
 42
50.0
 43
0.0
 44
0.0
 50
0.0
 51
0.0
 71
     0
 72
   100
 73
     1
 74
     1
 75
     0
 76
     0
 77
     0
 78
     0
  0
ENDTAB
  0
TABLE
  2
LTYPE
 70
     1
  0
LTYPE
  2
CONTINUOUS
 70
     0
  3
Solid line
 72
    65
 73
     0
 40
0.0
  0
ENDTAB
  0
TABLE
  2
LAYER
 70
     3
  0
LAYER
  2
0
 70
     0
 62
     7
  6
CONTINUOUS
  0
LAYER
  2
OBJEKTINTWEISS
 70
     0
 62
     7
  6
CONTINUOUS
  0
LAYER
  2
ASHADE
 70
     4
 62
     7
  6
CONTINUOUS
  0
ENDTAB
  0
TABLE
  2
STYLE
 70
     2
  0
STYLE
  2
STANDARD
 70
     0
 40
0.0
 41
1.0
 50
0.0
 71
     0
 42
0.2
  3
txt
  4

  0
STYLE
  2
ASHADE
 70
     0
 40
0.2
 41
1.0
 50
0.0
 71
     0
 42
0.2
  3
simplex.shx
  4

  0
ENDTAB
  0
TABLE
  2
VIEW
 70
     0
  0
ENDTAB
  0
TABLE
  2
UCS
 70
     0
  0
ENDTAB
  0
TABLE
  2
APPID
 70
     6
  0
APPID
  2
ACAD
 70
     0
  0
APPID
  2
AVE_RENDER
 70
     0
  0
APPID
  2
AVE_ENTITY_MATERIAL
 70
     0
  0
APPID
  2
AVE_FINISH
 70
     0
  0
APPID
  2
AVE_MATERIAL
 70
     0
  0
APPID
  2
AVE_GLOBAL
 70
     0
  0
ENDTAB
  0
TABLE
  2
DIMSTYLE
 70
     1
  0
DIMSTYLE
  2
STANDARD
 70
     0
  3

  4

  5

  6

  7

 40
1.0
 41
0.18
 42
0.0625
 43
0.38
 44
0.18
 45
0.0
 46
0.0
 47
0.0
 48
0.0
140
0.18
141
0.09
142
0.0
143
25.4
144
1.0
145
0.0
146
1.0
147
0.09
 71
     0
 72
     0
 73
     1
 74
     1
 75
     0
 76
     0
 77
     0
 78
     0
170
     0
171
     2
172
     0
173
     0
174
     0
175
     0
176
     0
177
     0
178
     0
  0
ENDTAB
  0
ENDSEC
  0
SECTION
  2
BLOCKS
  0
BLOCK
  8
0
  2
$MODEL_SPACE
 70
     0
 10
0.0
 20
0.0
 30
0.0
  3
$MODEL_SPACE
  1

  0
ENDBLK
  5
1A
  8
0
  0
BLOCK
 67
     1
  8
0
  2
$PAPER_SPACE
 70
     0
 10
0.0
 20
0.0
 30
0.0
  3
$PAPER_SPACE
  1

  0
ENDBLK
  5
17
 67
     1
  8
0
  0
BLOCK
  8
ASHADE
  2
AVE_RENDER
 70
     0
 10
0.0
 20
0.0
 30
0.0
  3
AVE_RENDER
  1
AVE_RENDER
  0
ENDBLK
  5
1101
  8
0
  0
BLOCK
  8
ASHADE
  2
AVE_GLOBAL
 70
     0
 10
0.0
 20
0.0
 30
0.0
  3
AVE_GLOBAL
  1
AVE_GLOBAL
  0
ENDBLK
  5
110F
  8
0
  0
ENDSEC
  0
SECTION
  2
ENTITIES
  0
POLYLINE
  5
E20
  8
0
  6
CONTINUOUS
 66
     1
 10
0.0
 20
0.0
 30
0.0
 70
    16
 71
     4
 72
     7
  0
VERTEX
  5
E21
  8
0
  6
CONTINUOUS
 10
0.0
 20
131.7859
 30
89.5082
 70
    64
  0
VERTEX
  5
E22
  8
0
  6
CONTINUOUS
 10
1.3
 20
131.7859
 30
80.5082
 70
    64
  0
VERTEX
  5
E23
  8
0
  6
CONTINUOUS
 10
4.7
 20
131.7859
 30
72.1082
 70
    64
  0
VERTEX
  5
E24
  8
0
  6
CONTINUOUS
 10
10.3
 20
131.7859
 30
64.8082
 70
    64
  0
VERTEX
  5
E25
  8
0
  6
CONTINUOUS
 10
17.6
 20
131.7859
 30
59.2082
 70
    64
  0
VERTEX
  5
E26
  8
0
  6
CONTINUOUS
 10
26.0
 20
131.7859
 30
55.8082
 70
    64
  0
VERTEX
  5
E27
  8
0
  6
CONTINUOUS
 10
35.0
 20
131.7859
 30
54.5082
 70
    64
  0
VERTEX
  5
E28
  8
0
  6
CONTINUOUS
 10
0.0
 20
122.7859
 30
89.5082
 70
    64
  0
VERTEX
  5
E29
  8
0
  6
CONTINUOUS
 10
1.3
 20
122.7859
 30
80.5082
 70
    64
  0
VERTEX
  5
E2A
  8
0
  6
CONTINUOUS
 10
4.7
 20
122.7859
 30
72.1082
 70
    64
  0
VERTEX
  5
E2B
  8
0
  6
CONTINUOUS
 10
10.3
 20
122.7859
 30
64.8082
 70
    64
  0
VERTEX
  5
E2C
  8
0
  6
CONTINUOUS
 10
17.6
 20
122.7859
 30
59.2082
 70
    64
  0
VERTEX
  5
E2D
  8
0
  6
CONTINUOUS
 10
26.0
 20
122.7859
 30
55.8082
 70
    64
  0
VERTEX
  5
E2E
  8
0
  6
CONTINUOUS
 10
35.0
 20
122.7859
 30
54.5082
 70
    64
  0
VERTEX
  5
E2F
  8
0
  6
CONTINUOUS
 10
1.0
 20
121.7859
 30
89.5082
 70
    64
  0
VERTEX
  5
E30
  8
0
  6
CONTINUOUS
 10
2.2
 20
121.7859
 30
80.7082
 70
    64
  0
VERTEX
  5
E31
  8
0
  6
CONTINUOUS
 10
5.6
 20
121.7859
 30
72.6082
 70
    64
  0
VERTEX
  5
E32
  8
0
  6
CONTINUOUS
 10
11.0
 20
121.7859
 30
65.5082
 70
    64
  0
VERTEX
  5
E33
  8
0
  6
CONTINUOUS
 10
18.1
 20
121.7859
 30
60.1082
 70
    64
  0
VERTEX
  5
E34
  8
0
  6
CONTINUOUS
 10
26.2
 20
121.7859
 30
56.7082
 70
    64
  0
VERTEX
  5
E35
  8
0
  6
CONTINUOUS
 10
35.0
 20
121.7859
 30
55.5082
 70
    64
  0
VERTEX
  5
E36
  8
0
  6
CONTINUOUS
 10
35.0
 20
121.7859
 30
89.5082
 70
    64
  0
VERTEX
  5
E37
  8
0
  6
CONTINUOUS
 10
35.0
 20
121.7859
 30
89.5082
 70
    64
  0
VERTEX
  5
E38
  8
0
  6
CONTINUOUS
 10
35.0
 20
121.7859
 30
89.5082
 70
    64
  0
VERTEX
  5
E39
  8
0
  6
CONTINUOUS
 10
35.0
 20
121.7859
 30
89.5082
 70
    64
  0
VERTEX
  5
E3A
  8
0
  6
CONTINUOUS
 10
35.0
 20
121.7859
 30
89.5082
 70
    64
  0
VERTEX
  5
E3B
  8
0
  6
CONTINUOUS
 10
35.0
 20
121.7859
 30
89.5082
 70
    64
  0
VERTEX
  5
E3C
  8
0
  6
CONTINUOUS
 10
35.0
 20
121.7859
 30
89.5082
 70
    64
  0
SEQEND
  5
E3D
  8
0
  6
CONTINUOUS
  0
POLYLINE
  5
E5C
  8
0
  6
CONTINUOUS
 66
     1
 10
0.0
 20
0.0
 30
0.0
 70
    16
 71
     4
 72
     7
  0
VERTEX
  5
E5D
  8
0
  6
CONTINUOUS
 10
0.0
 20
131.7859
 30
89.5082
 70
    64
  0
VERTEX
  5
E5E
  8
0
  6
CONTINUOUS
 10
1.3
 20
131.7859
 30
98.5082
 70
    64
  0
VERTEX
  5
E5F
  8
0
  6
CONTINUOUS
 10
4.7
 20
131.7859
 30
106.9082
 70
    64
  0
VERTEX
  5
E60
  8
0
  6
CONTINUOUS
 10
10.3
 20
131.7859
 30
114.2082
 70
    64
  0
VERTEX
  5
E61
  8
0
  6
CONTINUOUS
 10
17.6
 20
131.7859
 30
119.8082
 70
    64
  0
VERTEX
  5
E62
  8
0
  6
CONTINUOUS
 10
26.0
 20
131.7859
 30
123.2082
 70
    64
  0
VERTEX
  5
E63
  8
0
  6
CONTINUOUS
 10
35.0
 20
131.7859
 30
124.5082
 70
    64
  0
VERTEX
  5
E64
  8
0
  6
CONTINUOUS
 10
0.0
 20
122.7859
 30
89.5082
 70
    64
  0
VERTEX
  5
E65
  8
0
  6
CONTINUOUS
 10
1.3
 20
122.7859
 30
98.5082
 70
    64
  0
VERTEX
  5
E66
  8
0
  6
CONTINUOUS
 10
4.7
 20
122.7859
 30
106.9082
 70
    64
  0
VERTEX
  5
E67
  8
0
  6
CONTINUOUS
 10
10.3
 20
122.7859
 30
114.2082
 70
    64
  0
VERTEX
  5
E68
  8
0
  6
CONTINUOUS
 10
17.6
 20
122.7859
 30
119.8082
 70
    64
  0
VERTEX
  5
E69
  8
0
  6
CONTINUOUS
 10
26.0
 20
122.7859
 30
123.2082
 70
    64
  0
VERTEX
  5
E6A
  8
0
  6
CONTINUOUS
 10
35.0
 20
122.7859
 30
124.5082
 70
    64
  0
VERTEX
  5
E6B
  8
0
  6
CONTINUOUS
 10
1.0
 20
121.7859
 30
89.5082
 70
    64
  0
VERTEX
  5
E6C
  8
0
  6
CONTINUOUS
 10
2.2
 20
121.7859
 30
98.3082
 70
    64
  0
VERTEX
  5
E6D
  8
0
  6
CONTINUOUS
 10
5.6
 20
121.7859
 30
106.4082
 70
    64
  0
VERTEX
  5
E6E
  8
0
  6
CONTINUOUS
 10
11.0
 20
121.7859
 30
113.5082
 70
    64
  0
VERTEX
  5
E6F
  8
0
  6
CONTINUOUS
 10
18.1
 20
121.7859
 30
118.9082
 70
    64
  0
VERTEX
  5
E70
  8
0
  6
CONTINUOUS
 10
26.2
 20
121.7859
 30
122.3082
 70
    64
  0
VERTEX
  5
E71
  8
0
  6
CONTINUOUS
 10
35.0
 20
121.7859
 30
123.5082
 70
    64
  0
VERTEX
  5
E72
  8
0
  6
CONTINUOUS
 10
35.0
 20
121.7859
 30
89.5082
 70
    64
  0
VERTEX
  5
E73
  8
0
  6
CONTINUOUS
 10
35.0
 20
121.7859
 30
89.5082
 70
    64
  0
VERTEX
  5
E74
  8
0
  6
CONTINUOUS
 10
35.0
 20
121.7859
 30
89.5082
 70
    64
  0
VERTEX
  5
E75
  8
0
  6
CONTINUOUS
 10
35.0
 20
121.7859
 30
89.5082
 70
    64
  0
VERTEX
  5
E76
  8
0
  6
CONTINUOUS
 10
35.0
 20
121.7859
 30
89.5082
 70
    64
  0
VERTEX
  5
E77
  8
0
  6
CONTINUOUS
 10
35.0
 20
121.7859
 30
89.5082
 70
    64
  0
VERTEX
  5
E78
  8
0
  6
CONTINUOUS
 10
35.0
 20
121.7859
 30
89.5082
 70
    64
  0
SEQEND
  5
E79
  8
0
  6
CONTINUOUS
  0
POLYLINE
  5
103D
  8
0
  6
CONTINUOUS
 66
     1
 10
0.0
 20
0.0
 30
0.0
 70
    16
 71
     4
 72
     7
  0
VERTEX
  5
103E
  8
0
  6
CONTINUOUS
 10
70.0
 20
131.7859
 30
89.5082
 70
    64
  0
VERTEX
  5
103F
  8
0
  6
CONTINUOUS
 10
68.7
 20
131.7859
 30
98.5082
 70
    64
  0
VERTEX
  5
1040
  8
0
  6
CONTINUOUS
 10
65.3
 20
131.7859
 30
106.9082
 70
    64
  0
VERTEX
  5
1041
  8
0
  6
CONTINUOUS
 10
59.7
 20
131.7859
 30
114.2082
 70
    64
  0
VERTEX
  5
1042
  8
0
  6
CONTINUOUS
 10
52.4
 20
131.7859
 30
119.8082
 70
    64
  0
VERTEX
  5
1043
  8
0
  6
CONTINUOUS
 10
44.0
 20
131.7859
 30
123.2082
 70
    64
  0
VERTEX
  5
1044
  8
0
  6
CONTINUOUS
 10
35.0
 20
131.7859
 30
124.5082
 70
    64
  0
VERTEX
  5
1045
  8
0
  6
CONTINUOUS
 10
70.0
 20
122.7859
 30
89.5082
 70
    64
  0
VERTEX
  5
1046
  8
0
  6
CONTINUOUS
 10
68.7
 20
122.7859
 30
98.5082
 70
    64
  0
VERTEX
  5
1047
  8
0
  6
CONTINUOUS
 10
65.3
 20
122.7859
 30
106.9082
 70
    64
  0
VERTEX
  5
1048
  8
0
  6
CONTINUOUS
 10
59.7
 20
122.7859
 30
114.2082
 70
    64
  0
VERTEX
  5
1049
  8
0
  6
CONTINUOUS
 10
52.4
 20
122.7859
 30
119.8082
 70
    64
  0
VERTEX
  5
104A
  8
0
  6
CONTINUOUS
 10
44.0
 20
122.7859
 30
123.2082
 70
    64
  0
VERTEX
  5
104B
  8
0
  6
CONTINUOUS
 10
35.0
 20
122.7859
 30
124.5082
 70
    64
  0
VERTEX
  5
104C
  8
0
  6
CONTINUOUS
 10
69.0
 20
121.7859
 30
89.5082
 70
    64
  0
VERTEX
  5
104D
  8
0
  6
CONTINUOUS
 10
67.8
 20
121.7859
 30
98.3082
 70
    64
  0
VERTEX
  5
104E
  8
0
  6
CONTINUOUS
 10
64.4
 20
121.7859
 30
106.4082
 70
    64
  0
VERTEX
  5
104F
  8
0
  6
CONTINUOUS
 10
59.0
 20
121.7859
 30
113.5082
 70
    64
  0
VERTEX
  5
1050
  8
0
  6
CONTINUOUS
 10
51.9
 20
121.7859
 30
118.9082
 70
    64
  0
VERTEX
  5
1051
  8
0
  6
CONTINUOUS
 10
43.8
 20
121.7859
 30
122.3082
 70
    64
  0
VERTEX
  5
1052
  8
0
  6
CONTINUOUS
 10
35.0
 20
121.7859
 30
123.5082
 70
    64
  0
VERTEX
  5
1053
  8
0
  6
CONTINUOUS
 10
35.0
 20
121.7859
 30
89.5082
 70
    64
  0
VERTEX
  5
1054
  8
0
  6
CONTINUOUS
 10
35.0
 20
121.7859
 30
89.5082
 70
    64
  0
VERTEX
  5
1055
  8
0
  6
CONTINUOUS
 10
35.0
 20
121.7859
 30
89.5082
 70
    64
  0
VERTEX
  5
1056
  8
0
  6
CONTINUOUS
 10
35.0
 20
121.7859
 30
89.5082
 70
    64
  0
VERTEX
  5
1057
  8
0
  6
CONTINUOUS
 10
35.0
 20
121.7859
 30
89.5082
 70
    64
  0
VERTEX
  5
1058
  8
0
  6
CONTINUOUS
 10
35.0
 20
121.7859
 30
89.5082
 70
    64
  0
VERTEX
  5
1059
  8
0
  6
CONTINUOUS
 10
35.0
 20
121.7859
 30
89.5082
 70
    64
  0
SEQEND
  5
105A
  8
0
  6
CONTINUOUS
  0
POLYLINE
  5
105B
  8
0
  6
CONTINUOUS
 66
     1
 10
0.0
 20
0.0
 30
0.0
 70
    16
 71
     4
 72
     7
  0
VERTEX
  5
105C
  8
0
  6
CONTINUOUS
 10
70.0
 20
131.7859
 30
89.5082
 70
    64
  0
VERTEX
  5
105D
  8
0
  6
CONTINUOUS
 10
68.7
 20
131.7859
 30
80.5082
 70
    64
  0
VERTEX
  5
105E
  8
0
  6
CONTINUOUS
 10
65.3
 20
131.7859
 30
72.1082
 70
    64
  0
VERTEX
  5
105F
  8
0
  6
CONTINUOUS
 10
59.7
 20
131.7859
 30
64.8082
 70
    64
  0
VERTEX
  5
1060
  8
0
  6
CONTINUOUS
 10
52.4
 20
131.7859
 30
59.2082
 70
    64
  0
VERTEX
  5
1061
  8
0
  6
CONTINUOUS
 10
44.0
 20
131.7859
 30
55.8082
 70
    64
  0
VERTEX
  5
1062
  8
0
  6
CONTINUOUS
 10
35.0
 20
131.7859
 30
54.5082
 70
    64
  0
VERTEX
  5
1063
  8
0
  6
CONTINUOUS
 10
70.0
 20
122.7859
 30
89.5082
 70
    64
  0
VERTEX
  5
1064
  8
0
  6
CONTINUOUS
 10
68.7
 20
122.7859
 30
80.5082
 70
    64
  0
VERTEX
  5
1065
  8
0
  6
CONTINUOUS
 10
65.3
 20
122.7859
 30
72.1082
 70
    64
  0
VERTEX
  5
1066
  8
0
  6
CONTINUOUS
 10
59.7
 20
122.7859
 30
64.8082
 70
    64
  0
VERTEX
  5
1067
  8
0
  6
CONTINUOUS
 10
52.4
 20
122.7859
 30
59.2082
 70
    64
  0
VERTEX
  5
1068
  8
0
  6
CONTINUOUS
 10
44.0
 20
122.7859
 30
55.8082
 70
    64
  0
VERTEX
  5
1069
  8
0
  6
CONTINUOUS
 10
35.0
 20
122.7859
 30
54.5082
 70
    64
  0
VERTEX
  5
106A
  8
0
  6
CONTINUOUS
 10
69.0
 20
121.7859
 30
89.5082
 70
    64
  0
VERTEX
  5
106B
  8
0
  6
CONTINUOUS
 10
67.8
 20
121.7859
 30
80.7082
 70
    64
  0
VERTEX
  5
106C
  8
0
  6
CONTINUOUS
 10
64.4
 20
121.7859
 30
72.6082
 70
    64
  0
VERTEX
  5
106D
  8
0
  6
CONTINUOUS
 10
59.0
 20
121.7859
 30
65.5082
 70
    64
  0
VERTEX
  5
106E
  8
0
  6
CONTINUOUS
 10
51.9
 20
121.7859
 30
60.1082
 70
    64
  0
VERTEX
  5
106F
  8
0
  6
CONTINUOUS
 10
43.8
 20
121.7859
 30
56.7082
 70
    64
  0
VERTEX
  5
1070
  8
0
  6
CONTINUOUS
 10
35.0
 20
121.7859
 30
55.5082
 70
    64
  0
VERTEX
  5
1071
  8
0
  6
CONTINUOUS
 10
35.0
 20
121.7859
 30
89.5082
 70
    64
  0
VERTEX
  5
1072
  8
0
  6
CONTINUOUS
 10
35.0
 20
121.7859
 30
89.5082
 70
    64
  0
VERTEX
  5
1073
  8
0
  6
CONTINUOUS
 10
35.0
 20
121.7859
 30
89.5082
 70
    64
  0
VERTEX
  5
1074
  8
0
  6
CONTINUOUS
 10
35.0
 20
121.7859
 30
89.5082
 70
    64
  0
VERTEX
  5
1075
  8
0
  6
CONTINUOUS
 10
35.0
 20
121.7859
 30
89.5082
 70
    64
  0
VERTEX
  5
1076
  8
0
  6
CONTINUOUS
 10
35.0
 20
121.7859
 30
89.5082
 70
    64
  0
VERTEX
  5
1077
  8
0
  6
CONTINUOUS
 10
35.0
 20
121.7859
 30
89.5082
 70
    64
  0
SEQEND
  5
1078
  8
0
  6
CONTINUOUS
  0
INSERT
  5
1102
  8
ASHADE
  6
CONTINUOUS
 62
     1
  2
AVE_RENDER
 10
0.0
 20
0.0
 30
0.0
1001
AVE_RENDER
1002
{
1070
     7
1000
Pref
1070
    30
1070
    20
1070
     1
1070
     0
1000

1070
    10
1070
     1
1070
    10
1040
1.0
1070
     1
1040
0.3
1040
0.7
1040
0.0
1040
10.0
1010
-1.0
1020
-1.0
1030
-1.0
1040
0.3
1070
    49
1070
     0
1070
     0
1010
1.0
1020
1.0
1030
1.0
1040
45.0
1070
     1
1070
     0
1000
WCS
1040
0.0
1070
     0
1040
10.0
1002
}
  0
INSERT
  5
1103
  8
ASHADE
  6
CONTINUOUS
 62
     3
  2
AVE_RENDER
 10
0.0
 20
0.0
 30
0.0
1001
AVE_RENDER
1002
{
1070
     0
1000
Full Opt
1070
     0
1070
     1
1070
     1
1070
     1
1070
     0
1070
     0
1070
     0
1070
     1
1070
     1
1040
0.0001
1040
0.0001
1002
}
  0
INSERT
  5
1104
  8
ASHADE
  6
CONTINUOUS
 62
     4
  2
AVE_RENDER
 10
0.0
 20
0.0
 30
0.0
1001
AVE_RENDER
1002
{
1070
     0
1000
Quick Opt
1070
     0
1070
     1
1070
     1
1070
     1
1070
     0
1070
     0
1070
     1
1002
}
  0
INSERT
  5
1105
  8
ASHADE
  6
CONTINUOUS
 62
     5
  2
AVE_RENDER
 10
0.0
 20
0.0
 30
0.0
1001
AVE_RENDER
1002
{
1070
     1
1000
Scanl Opt
1070
     2
1070
     0
1070
     2
1040
2.0
1040
4.0
1070
     0
1070
     1
1070
     0
1040
0.03
1002
}
  0
INSERT
  5
1106
  8
ASHADE
  6
CONTINUOUS
 62
     6
  2
AVE_RENDER
 10
0.0
 20
0.0
 30
0.0
1001
AVE_RENDER
1002
{
1070
     2
1000
Raytr Opt
1070
     2
1070
     0
1070
     2
1040
2.0
1040
4.0
1070
     0
1070
     1
1070
     1
1040
0.03
1070
     3
1040
0.03
1002
}
  0
INSERT
  5
1107
  8
ASHADE
  6
CONTINUOUS
 62
     7
  2
AVE_RENDER
 10
0.0
 20
0.0
 30
0.0
1001
AVE_RENDER
1002
{
1070
     0
1000
RFile Opt
1070
     1
1070
   640
1070
   480
1070
 10000
1070
     1
1070
     8
1070
     8
1070
     0
1070
     0
1070
     0
1070
     0
1070
     0
1070
     0
1070
     0
1002
}
  0
INSERT
  5
1108
  8
ASHADE
  6
CONTINUOUS
 62
     8
  2
AVE_RENDER
 10
0.0
 20
0.0
 30
0.0
1001
AVE_RENDER
1002
{
1070
     0
1000
Fog Opt
1070
     0
1070
     0
1040
0.0
1040
1.0
1040
0.0
1040
1.0
1010
0.5
1020
0.5
1030
0.5
1002
}
  0
INSERT
  5
1109
  8
ASHADE
  6
CONTINUOUS
 62
     9
  2
AVE_RENDER
 10
0.0
 20
0.0
 30
0.0
1001
AVE_RENDER
1002
{
1070
     0
1000
BG Opt
1070
     0
1070
     1
1010
0.0
1020
0.0
1030
0.0
1010
1.0
1020
0.0
1030
0.0
1010
0.0
1020
1.0
1030
0.0
1010
0.0
1020
0.0
1030
1.0
1040
0.5
1040
0.33
1040
0.0
1000

1070
     1
1000

1070
     1
1070
     1
1040
1.0
1040
1.0
1040
0.0
1040
0.0
1070
     0
1002
}
  0
INSERT
  5
1110
  8
ASHADE
  6
CONTINUOUS
 62
     1
  2
AVE_GLOBAL
 10
0.0
 20
0.0
 30
0.0
1001
AVE_MATERIAL
1002
{
1000
*GLOBAL*
1000
1
1000
Global finish.
1002
{
1002
}
1002
{
1070
    63
1002
{
1002
{
1010
-1.0
1020
-1.0
1030
-1.0
1002
}
1040
0.1
1000

1040
0.0
1002
{
1002
}
1040
0.0
1002
{
1002
}
1040
0.0
1002
}
1002
{
1002
{
1010
-1.0
1020
-1.0
1030
-1.0
1002
}
1040
0.7
1000

1040
0.0
1002
{
1002
}
1040
0.0
1002
{
1002
}
1040
0.0
1002
}
1002
{
1002
{
1010
-1.0
1020
-1.0
1030
-1.0
1002
}
1040
0.2
1000

1040
0.0
1002
{
1002
}
1040
0.0
1002
{
1002
}
1040
0.0
1002
}
1002
{
1070
     0
1002
{
1070
     1
1002
{
1040
1.0
1040
1.0
1000

1040
0.0
1002
{
1002
}
1040
0.0
1002
{
1002
}
1040
0.0
1002
}
1002
}
1040
1.0
1040
0.0
1040
0.0
1002
}
1002
{
1040
1.0
1040
1.0
1000

1040
0.0
1002
{
1002
}
1040
0.0
1002
{
1002
}
1040
0.0
1002
}
1002
{
1040
0.5
1040
1.0
1000

1040
0.0
1002
{
1002
}
1040
0.0
1002
{
1002
}
1040
0.0
1002
}
1002
{
1070
     0
1040
0.0
1002
{
1002
}
1040
1.0
1002
{
1002
}
1040
0.0
1002
}
1002
{
1040
0.0
1002
{
1002
{
1010
0.0
1020
0.0
1030
0.0
1002
}
1040
1.0
1000

1040
0.0
1002
{
1002
}
1040
0.0
1002
{
1002
}
1040
0.0
1002
}
1002
}
1002
{
1002
{
1070
     1
1002
{
1040
0.0
1040
1.0
1000

1040
0.0
1002
{
1002
}
1040
0.0
1002
{
1002
}
1040
0.0
1002
}
1002
}
1040
0.0
1002
{
1002
}
1010
1.0
1020
0.0
1030
0.0
1010
0.0
1020
1.0
1030
0.0
1010
0.0
1020
0.0
1030
1.0
1070
     0
1002
}
1002
{
1002
{
1040
1.0
1040
1.0
1002
{
1070
     1
1002
{
1040
1.0
1040
1.0
1000

1040
0.0
1002
{
1002
}
1040
0.0
1002
{
1002
}
1040
0.0
1002
}
1002
}
1002
}
1070
     0
1040
0.0
1002
{
1002
}
1002
}
1002
{
1002
}
1002
}
1002
{
1071
        3
1070
     3
1070
     0
1002
{
1070
     2
1070
     0
1070
     0
1040
0.0
1002
}
1070
     0
1070
     2
1002
{
1002
}
1002
}
1002
{
1040
8030.0
1040
190.300003
1040
0.305
1040
228.0
1040
545.0
1040
14.0
1040
17.4
1040
0.456
1002
}
1002
}
  0
POLYLINE
  5
114B
  8
0
  6
CONTINUOUS
 66
     1
 10
0.0
 20
0.0
 30
0.0
 70
    16
 71
     5
 72
     7
  0
VERTEX
  5
114C
  8
0
  6
CONTINUOUS
 10
35.0
 20
13.10205
 30
16.744972
 70
    64
  0
VERTEX
  5
114D
  8
0
  6
CONTINUOUS
 10
35.0
 20
13.10205
 30
16.744972
 70
    64
  0
VERTEX
  5
114E
  8
0
  6
CONTINUOUS
 10
35.0
 20
13.10205
 30
16.744972
 70
    64
  0
VERTEX
  5
114F
  8
0
  6
CONTINUOUS
 10
35.0
 20
13.10205
 30
16.744972
 70
    64
  0
VERTEX
  5
1150
  8
0
  6
CONTINUOUS
 10
35.0
 20
13.10205
 30
16.744972
 70
    64
  0
VERTEX
  5
1151
  8
0
  6
CONTINUOUS
 10
35.0
 20
13.10205
 30
16.744972
 70
    64
  0
VERTEX
  5
1152
  8
0
  6
CONTINUOUS
 10
35.0
 20
13.10205
 30
16.744972
 70
    64
  0
VERTEX
  5
1153
  8
0
  6
CONTINUOUS
 10
20.5
 20
13.10205
 30
16.744972
 70
    64
  0
VERTEX
  5
1154
  8
0
  6
CONTINUOUS
 10
21.0
 20
15.171064
 30
13.677533
 70
    64
  0
VERTEX
  5
1155
  8
0
  6
CONTINUOUS
 10
22.4
 20
17.128239
 30
10.775901
 70
    64
  0
VERTEX
  5
1156
  8
0
  6
CONTINUOUS
 10
24.7
 20
18.861737
 30
8.205885
 70
    64
  0
VERTEX
  5
1157
  8
0
  6
CONTINUOUS
 10
27.8
 20
20.147881
 30
6.299098
 70
    64
  0
VERTEX
  5
1158
  8
0
  6
CONTINUOUS
 10
31.3
 20
20.930751
 30
5.138446
 70
    64
  0
VERTEX
  5
1159
  8
0
  6
CONTINUOUS
 10
35.0
 20
21.210347
 30
4.723927
 70
    64
  0
VERTEX
  5
115A
  8
0
  6
CONTINUOUS
 10
17.5
 20
9.7859
 30
14.5082
 70
    64
  0
VERTEX
  5
115B
  8
0
  6
CONTINUOUS
 10
18.1
 20
12.302268
 30
10.777531
 70
    64
  0
VERTEX
  5
115C
  8
0
  6
CONTINUOUS
 10
19.8
 20
14.650878
 30
7.295573
 70
    64
  0
VERTEX
  5
115D
  8
0
  6
CONTINUOUS
 10
22.6
 20
16.719892
 30
4.228134
 70
    64
  0
VERTEX
  5
115E
  8
0
  6
CONTINUOUS
 10
26.3
 20
18.285632
 30
1.906829
 70
    64
  0
VERTEX
  5
115F
  8
0
  6
CONTINUOUS
 10
30.5
 20
19.23626
 30
0.497465
 70
    64
  0
VERTEX
  5
1160
  8
0
  6
CONTINUOUS
 10
35.0
 20
19.571776
 30
0.000042
 70
    64
  0
VERTEX
  5
1161
  8
0
  6
CONTINUOUS
 10
17.5
 20
17.247238
 30
19.540936
 70
    64
  0
VERTEX
  5
1162
  8
0
  6
CONTINUOUS
 10
18.1
 20
19.763606
 30
15.810267
 70
    64
  0
VERTEX
  5
1163
  8
0
  6
CONTINUOUS
 10
19.8
 20
22.112216
 30
12.328309
 70
    64
  0
VERTEX
  5
1164
  8
0
  6
CONTINUOUS
 10
22.6
 20
24.18123
 30
9.26087
 70
    64
  0
VERTEX
  5
1165
  8
0
  6
CONTINUOUS
 10
26.3
 20
25.74697
 30
6.939565
 70
    64
  0
VERTEX
  5
1166
  8
0
  6
CONTINUOUS
 10
30.5
 20
26.697598
 30
5.530201
 70
    64
  0
VERTEX
  5
1167
  8
0
  6
CONTINUOUS
 10
35.0
 20
27.033114
 30
5.032779
 70
    64
  0
VERTEX
  5
1168
  8
0
  6
CONTINUOUS
 10
19.5
 20
18.076276
 30
20.100129
 70
    64
  0
VERTEX
  5
1169
  8
0
  6
CONTINUOUS
 10
20.0
 20
20.313047
 30
16.783979
 70
    64
  0
VERTEX
  5
116A
  8
0
  6
CONTINUOUS
 10
21.5
 20
22.382061
 30
13.71654
 70
    64
  0
VERTEX
  5
116B
  8
0
  6
CONTINUOUS
 10
24.0
 20
24.171478
 30
11.063619
 70
    64
  0
VERTEX
  5
116C
  8
0
  6
CONTINUOUS
 10
27.2
 20
25.569461
 30
8.991026
 70
    64
  0
VERTEX
  5
116D
  8
0
  6
CONTINUOUS
 10
31.0
 20
26.40825
 30
7.747469
 70
    64
  0
VERTEX
  5
116E
  8
0
  6
CONTINUOUS
 10
35.0
 20
27.862152
 30
5.591972
 70
    64
  0
SEQEND
  5
116F
  8
0
  6
CONTINUOUS
  0
POLYLINE
  5
1170
  8
0
  6
CONTINUOUS
 66
     1
 10
0.0
 20
0.0
 30
0.0
 70
    16
 71
     3
 72
     7
  0
VERTEX
  5
1171
  8
0
  6
CONTINUOUS
 10
35.0
 20
18.076276
 30
20.100129
 70
    64
  0
VERTEX
  5
1172
  8
0
  6
CONTINUOUS
 10
35.0
 20
18.076276
 30
20.100129
 70
    64
  0
VERTEX
  5
1173
  8
0
  6
CONTINUOUS
 10
35.0
 20
18.076276
 30
20.100129
 70
    64
  0
VERTEX
  5
1174
  8
0
  6
CONTINUOUS
 10
35.0
 20
18.076276
 30
20.100129
 70
    64
  0
VERTEX
  5
1175
  8
0
  6
CONTINUOUS
 10
35.0
 20
18.076276
 30
20.100129
 70
    64
  0
VERTEX
  5
1176
  8
0
  6
CONTINUOUS
 10
35.0
 20
18.076276
 30
20.100129
 70
    64
  0
VERTEX
  5
1177
  8
0
  6
CONTINUOUS
 10
35.0
 20
18.076276
 30
20.100129
 70
    64
  0
VERTEX
  5
1178
  8
0
  6
CONTINUOUS
 10
17.5
 20
18.076276
 30
20.100129
 70
    64
  0
VERTEX
  5
1179
  8
0
  6
CONTINUOUS
 10
18.1
 20
20.592644
 30
16.36946
 70
    64
  0
VERTEX
  5
117A
  8
0
  6
CONTINUOUS
 10
19.8
 20
22.941254
 30
12.887502
 70
    64
  0
VERTEX
  5
117B
  8
0
  6
CONTINUOUS
 10
22.6
 20
25.010268
 30
9.820063
 70
    64
  0
VERTEX
  5
117C
  8
0
  6
CONTINUOUS
 10
26.3
 20
26.576008
 30
7.498758
 70
    64
  0
VERTEX
  5
117D
  8
0
  6
CONTINUOUS
 10
30.5
 20
27.526636
 30
6.089394
 70
    64
  0
VERTEX
  5
117E
  8
0
  6
CONTINUOUS
 10
35.0
 20
27.862152
 30
5.591972
 70
    64
  0
VERTEX
  5
117F
  8
0
  6
CONTINUOUS
 10
17.5
 20
121.7859
 30
89.9082
 70
    64
  0
VERTEX
  5
1180
  8
0
  6
CONTINUOUS
 10
18.1
 20
121.7859
 30
84.5082
 70
    64
  0
VERTEX
  5
1181
  8
0
  6
CONTINUOUS
 10
19.8
 20
121.7859
 30
79.3082
 70
    64
  0
VERTEX
  5
1182
  8
0
  6
CONTINUOUS
 10
22.6
 20
121.7859
 30
75.2082
 70
    64
  0
VERTEX
  5
1183
  8
0
  6
CONTINUOUS
 10
26.3
 20
121.7859
 30
71.7082
 70
    64
  0
VERTEX
  5
1184
  8
0
  6
CONTINUOUS
 10
30.5
 20
121.7859
 30
69.7082
 70
    64
  0
VERTEX
  5
1185
  8
0
  6
CONTINUOUS
 10
35.0
 20
121.7859
 30
68.8082
 70
    64
  0
SEQEND
  5
1186
  8
0
  6
CONTINUOUS
  0
POLYLINE
  5
1187
  8
0
  6
CONTINUOUS
 66
     1
 10
0.0
 20
0.0
 30
0.0
 70
    16
 71
     3
 72
     7
  0
VERTEX
  5
1188
  8
0
  6
CONTINUOUS
 10
35.0
 20
18.076276
 30
20.100129
 70
    64
  0
VERTEX
  5
1189
  8
0
  6
CONTINUOUS
 10
35.0
 20
18.076276
 30
20.100129
 70
    64
  0
VERTEX
  5
118A
  8
0
  6
CONTINUOUS
 10
35.0
 20
18.076276
 30
20.100129
 70
    64
  0
VERTEX
  5
118B
  8
0
  6
CONTINUOUS
 10
35.0
 20
18.076276
 30
20.100129
 70
    64
  0
VERTEX
  5
118C
  8
0
  6
CONTINUOUS
 10
35.0
 20
18.076276
 30
20.100129
 70
    64
  0
VERTEX
  5
118D
  8
0
  6
CONTINUOUS
 10
35.0
 20
18.076276
 30
20.100129
 70
    64
  0
VERTEX
  5
118E
  8
0
  6
CONTINUOUS
 10
35.0
 20
18.076276
 30
20.100129
 70
    64
  0
VERTEX
  5
118F
  8
0
  6
CONTINUOUS
 10
17.5
 20
18.076276
 30
20.100129
 70
    64
  0
VERTEX
  5
1190
  8
0
  6
CONTINUOUS
 10
18.1
 20
15.559908
 30
23.830798
 70
    64
  0
VERTEX
  5
1191
  8
0
  6
CONTINUOUS
 10
19.8
 20
13.211297
 30
27.312756
 70
    64
  0
VERTEX
  5
1192
  8
0
  6
CONTINUOUS
 10
22.6
 20
11.142284
 30
30.380195
 70
    64
  0
VERTEX
  5
1193
  8
0
  6
CONTINUOUS
 10
26.3
 20
9.576544
 30
32.7015
 70
    64
  0
VERTEX
  5
1194
  8
0
  6
CONTINUOUS
 10
30.5
 20
8.625916
 30
34.110864
 70
    64
  0
VERTEX
  5
1195
  8
0
  6
CONTINUOUS
 10
35.0
 20
8.2904
 30
34.608287
 70
    64
  0
VERTEX
  5
1196
  8
0
  6
CONTINUOUS
 10
17.5
 20
121.7859
 30
89.9082
 70
    64
  0
VERTEX
  5
1197
  8
0
  6
CONTINUOUS
 10
18.1
 20
121.7859
 30
95.4082
 70
    64
  0
VERTEX
  5
1198
  8
0
  6
CONTINUOUS
 10
19.8
 20
121.7859
 30
100.5082
 70
    64
  0
VERTEX
  5
1199
  8
0
  6
CONTINUOUS
 10
22.6
 20
121.7859
 30
105.0082
 70
    64
  0
VERTEX
  5
119A
  8
0
  6
CONTINUOUS
 10
26.3
 20
121.7859
 30
108.3082
 70
    64
  0
VERTEX
  5
119B
  8
0
  6
CONTINUOUS
 10
30.5
 20
121.7859
 30
110.4082
 70
    64
  0
VERTEX
  5
119C
  8
0
  6
CONTINUOUS
 10
35.0
 20
121.7859
 30
111.2082
 70
    64
  0
SEQEND
  5
119D
  8
0
  6
CONTINUOUS
  0
POLYLINE
  5
119E
  8
0
  6
CONTINUOUS
 66
     1
 10
0.0
 20
0.0
 30
0.0
 70
    16
 71
     5
 72
     7
  0
VERTEX
  5
119F
  8
0
  6
CONTINUOUS
 10
35.0
 20
13.10205
 30
16.744972
 70
    64
  0
VERTEX
  5
11A0
  8
0
  6
CONTINUOUS
 10
35.0
 20
13.10205
 30
16.744972
 70
    64
  0
VERTEX
  5
11A1
  8
0
  6
CONTINUOUS
 10
35.0
 20
13.10205
 30
16.744972
 70
    64
  0
VERTEX
  5
11A2
  8
0
  6
CONTINUOUS
 10
35.0
 20
13.10205
 30
16.744972
 70
    64
  0
VERTEX
  5
11A3
  8
0
  6
CONTINUOUS
 10
35.0
 20
13.10205
 30
16.744972
 70
    64
  0
VERTEX
  5
11A4
  8
0
  6
CONTINUOUS
 10
35.0
 20
13.10205
 30
16.744972
 70
    64
  0
VERTEX
  5
11A5
  8
0
  6
CONTINUOUS
 10
35.0
 20
13.10205
 30
16.744972
 70
    64
  0
VERTEX
  5
11A6
  8
0
  6
CONTINUOUS
 10
20.5
 20
13.10205
 30
16.744972
 70
    64
  0
VERTEX
  5
11A7
  8
0
  6
CONTINUOUS
 10
21.0
 20
11.033037
 30
19.812411
 70
    64
  0
VERTEX
  5
11A8
  8
0
  6
CONTINUOUS
 10
22.4
 20
9.075861
 30
22.714042
 70
    64
  0
VERTEX
  5
11A9
  8
0
  6
CONTINUOUS
 10
24.7
 20
7.342363
 30
25.284059
 70
    64
  0
VERTEX
  5
11AA
  8
0
  6
CONTINUOUS
 10
27.8
 20
6.05622
 30
27.190845
 70
    64
  0
VERTEX
  5
11AB
  8
0
  6
CONTINUOUS
 10
31.3
 20
5.27335
 30
28.351498
 70
    64
  0
VERTEX
  5
11AC
  8
0
  6
CONTINUOUS
 10
35.0
 20
4.993753
 30
28.766016
 70
    64
  0
VERTEX
  5
11AD
  8
0
  6
CONTINUOUS
 10
17.5
 20
9.7859
 30
14.5082
 70
    64
  0
VERTEX
  5
11AE
  8
0
  6
CONTINUOUS
 10
18.1
 20
7.269532
 30
18.238869
 70
    64
  0
VERTEX
  5
11AF
  8
0
  6
CONTINUOUS
 10
19.8
 20
4.920922
 30
21.720827
 70
    64
  0
VERTEX
  5
11B0
  8
0
  6
CONTINUOUS
 10
22.6
 20
2.851908
 30
24.788266
 70
    64
  0
VERTEX
  5
11B1
  8
0
  6
CONTINUOUS
 10
26.3
 20
1.286168
 30
27.109571
 70
    64
  0
VERTEX
  5
11B2
  8
0
  6
CONTINUOUS
 10
30.5
 20
0.33554
 30
28.518935
 70
    64
  0
VERTEX
  5
11B3
  8
0
  6
CONTINUOUS
 10
35.0
 20
0.000024
 30
29.016358
 70
    64
  0
VERTEX
  5
11B4
  8
0
  6
CONTINUOUS
 10
17.5
 20
17.247238
 30
19.540936
 70
    64
  0
VERTEX
  5
11B5
  8
0
  6
CONTINUOUS
 10
18.1
 20
14.73087
 30
23.271605
 70
    64
  0
VERTEX
  5
11B6
  8
0
  6
CONTINUOUS
 10
19.8
 20
12.38226
 30
26.753563
 70
    64
  0
VERTEX
  5
11B7
  8
0
  6
CONTINUOUS
 10
22.6
 20
10.313246
 30
29.821002
 70
    64
  0
VERTEX
  5
11B8
  8
0
  6
CONTINUOUS
 10
26.3
 20
8.747506
 30
32.142307
 70
    64
  0
VERTEX
  5
11B9
  8
0
  6
CONTINUOUS
 10
30.5
 20
7.796878
 30
33.551671
 70
    64
  0
VERTEX
  5
11BA
  8
0
  6
CONTINUOUS
 10
35.0
 20
7.461362
 30
34.049094
 70
    64
  0
VERTEX
  5
11BB
  8
0
  6
CONTINUOUS
 10
19.5
 20
18.076276
 30
20.100129
 70
    64
  0
VERTEX
  5
11BC
  8
0
  6
CONTINUOUS
 10
20.0
 20
15.839504
 30
23.416279
 70
    64
  0
VERTEX
  5
11BD
  8
0
  6
CONTINUOUS
 10
21.5
 20
13.77049
 30
26.483718
 70
    64
  0
VERTEX
  5
11BE
  8
0
  6
CONTINUOUS
 10
24.0
 20
11.981073
 30
29.136639
 70
    64
  0
VERTEX
  5
11BF
  8
0
  6
CONTINUOUS
 10
27.2
 20
10.583091
 30
31.209233
 70
    64
  0
VERTEX
  5
11C0
  8
0
  6
CONTINUOUS
 10
31.0
 20
9.744301
 30
32.452789
 70
    64
  0
VERTEX
  5
11C1
  8
0
  6
CONTINUOUS
 10
35.0
 20
8.2904
 30
34.608287
 70
    64
  0
SEQEND
  5
11C2
  8
0
  6
CONTINUOUS
  0
POLYLINE
  5
11C3
  8
0
  6
CONTINUOUS
 66
     1
 10
0.0
 20
0.0
 30
0.0
 70
    16
 71
     3
 72
     7
  0
VERTEX
  5
11C4
  8
0
  6
CONTINUOUS
 10
35.0
 20
18.076276
 30
20.100129
 70
    64
  0
VERTEX
  5
11C5
  8
0
  6
CONTINUOUS
 10
35.0
 20
18.076276
 30
20.100129
 70
    64
  0
VERTEX
  5
11C6
  8
0
  6
CONTINUOUS
 10
35.0
 20
18.076276
 30
20.100129
 70
    64
  0
VERTEX
  5
11C7
  8
0
  6
CONTINUOUS
 10
35.0
 20
18.076276
 30
20.100129
 70
    64
  0
VERTEX
  5
11C8
  8
0
  6
CONTINUOUS
 10
35.0
 20
18.076276
 30
20.100129
 70
    64
  0
VERTEX
  5
11C9
  8
0
  6
CONTINUOUS
 10
35.0
 20
18.076276
 30
20.100129
 70
    64
  0
VERTEX
  5
11CA
  8
0
  6
CONTINUOUS
 10
35.0
 20
18.076276
 30
20.100129
 70
    64
  0
VERTEX
  5
11CB
  8
0
  6
CONTINUOUS
 10
52.5
 20
18.076276
 30
20.100129
 70
    64
  0
VERTEX
  5
11CC
  8
0
  6
CONTINUOUS
 10
51.9
 20
15.559908
 30
23.830798
 70
    64
  0
VERTEX
  5
11CD
  8
0
  6
CONTINUOUS
 10
50.2
 20
13.211297
 30
27.312756
 70
    64
  0
VERTEX
  5
11CE
  8
0
  6
CONTINUOUS
 10
47.4
 20
11.142284
 30
30.380195
 70
    64
  0
VERTEX
  5
11CF
  8
0
  6
CONTINUOUS
 10
43.7
 20
9.576544
 30
32.7015
 70
    64
  0
VERTEX
  5
11D0
  8
0
  6
CONTINUOUS
 10
39.5
 20
8.625916
 30
34.110864
 70
    64
  0
VERTEX
  5
11D1
  8
0
  6
CONTINUOUS
 10
35.0
 20
8.2904
 30
34.608287
 70
    64
  0
VERTEX
  5
11D2
  8
0
  6
CONTINUOUS
 10
52.5
 20
121.7859
 30
89.9082
 70
    64
  0
VERTEX
  5
11D3
  8
0
  6
CONTINUOUS
 10
51.9
 20
121.7859
 30
95.4082
 70
    64
  0
VERTEX
  5
11D4
  8
0
  6
CONTINUOUS
 10
50.2
 20
121.7859
 30
100.5082
 70
    64
  0
VERTEX
  5
11D5
  8
0
  6
CONTINUOUS
 10
47.4
 20
121.7859
 30
105.0082
 70
    64
  0
VERTEX
  5
11D6
  8
0
  6
CONTINUOUS
 10
43.7
 20
121.7859
 30
108.3082
 70
    64
  0
VERTEX
  5
11D7
  8
0
  6
CONTINUOUS
 10
39.5
 20
121.7859
 30
110.4082
 70
    64
  0
VERTEX
  5
11D8
  8
0
  6
CONTINUOUS
 10
35.0
 20
121.7859
 30
111.2082
 70
    64
  0
SEQEND
  5
11D9
  8
0
  6
CONTINUOUS
  0
POLYLINE
  5
11DA
  8
0
  6
CONTINUOUS
 66
     1
 10
0.0
 20
0.0
 30
0.0
 70
    16
 71
     3
 72
     7
  0
VERTEX
  5
11DB
  8
0
  6
CONTINUOUS
 10
35.0
 20
18.076276
 30
20.100129
 70
    64
  0
VERTEX
  5
11DC
  8
0
  6
CONTINUOUS
 10
35.0
 20
18.076276
 30
20.100129
 70
    64
  0
VERTEX
  5
11DD
  8
0
  6
CONTINUOUS
 10
35.0
 20
18.076276
 30
20.100129
 70
    64
  0
VERTEX
  5
11DE
  8
0
  6
CONTINUOUS
 10
35.0
 20
18.076276
 30
20.100129
 70
    64
  0
VERTEX
  5
11DF
  8
0
  6
CONTINUOUS
 10
35.0
 20
18.076276
 30
20.100129
 70
    64
  0
VERTEX
  5
11E0
  8
0
  6
CONTINUOUS
 10
35.0
 20
18.076276
 30
20.100129
 70
    64
  0
VERTEX
  5
11E1
  8
0
  6
CONTINUOUS
 10
35.0
 20
18.076276
 30
20.100129
 70
    64
  0
VERTEX
  5
11E2
  8
0
  6
CONTINUOUS
 10
52.5
 20
18.076276
 30
20.100129
 70
    64
  0
VERTEX
  5
11E3
  8
0
  6
CONTINUOUS
 10
51.9
 20
20.592644
 30
16.36946
 70
    64
  0
VERTEX
  5
11E4
  8
0
  6
CONTINUOUS
 10
50.2
 20
22.941254
 30
12.887502
 70
    64
  0
VERTEX
  5
11E5
  8
0
  6
CONTINUOUS
 10
47.4
 20
25.010268
 30
9.820063
 70
    64
  0
VERTEX
  5
11E6
  8
0
  6
CONTINUOUS
 10
43.7
 20
26.576008
 30
7.498758
 70
    64
  0
VERTEX
  5
11E7
  8
0
  6
CONTINUOUS
 10
39.5
 20
27.526636
 30
6.089394
 70
    64
  0
VERTEX
  5
11E8
  8
0
  6
CONTINUOUS
 10
35.0
 20
27.862152
 30
5.591972
 70
    64
  0
VERTEX
  5
11E9
  8
0
  6
CONTINUOUS
 10
52.5
 20
121.7859
 30
89.9082
 70
    64
  0
VERTEX
  5
11EA
  8
0
  6
CONTINUOUS
 10
51.9
 20
121.7859
 30
84.5082
 70
    64
  0
VERTEX
  5
11EB
  8
0
  6
CONTINUOUS
 10
50.2
 20
121.7859
 30
79.3082
 70
    64
  0
VERTEX
  5
11EC
  8
0
  6
CONTINUOUS
 10
47.4
 20
121.7859
 30
75.2082
 70
    64
  0
VERTEX
  5
11ED
  8
0
  6
CONTINUOUS
 10
43.7
 20
121.7859
 30
71.7082
 70
    64
  0
VERTEX
  5
11EE
  8
0
  6
CONTINUOUS
 10
39.5
 20
121.7859
 30
69.7082
 70
    64
  0
VERTEX
  5
11EF
  8
0
  6
CONTINUOUS
 10
35.0
 20
121.7859
 30
68.8082
 70
    64
  0
SEQEND
  5
11F0
  8
0
  6
CONTINUOUS
  0
POLYLINE
  5
11F1
  8
0
  6
CONTINUOUS
 66
     1
 10
0.0
 20
0.0
 30
0.0
 70
    16
 71
     5
 72
     7
  0
VERTEX
  5
11F2
  8
0
  6
CONTINUOUS
 10
35.0
 20
13.10205
 30
16.744972
 70
    64
  0
VERTEX
  5
11F3
  8
0
  6
CONTINUOUS
 10
35.0
 20
13.10205
 30
16.744972
 70
    64
  0
VERTEX
  5
11F4
  8
0
  6
CONTINUOUS
 10
35.0
 20
13.10205
 30
16.744972
 70
    64
  0
VERTEX
  5
11F5
  8
0
  6
CONTINUOUS
 10
35.0
 20
13.10205
 30
16.744972
 70
    64
  0
VERTEX
  5
11F6
  8
0
  6
CONTINUOUS
 10
35.0
 20
13.10205
 30
16.744972
 70
    64
  0
VERTEX
  5
11F7
  8
0
  6
CONTINUOUS
 10
35.0
 20
13.10205
 30
16.744972
 70
    64
  0
VERTEX
  5
11F8
  8
0
  6
CONTINUOUS
 10
35.0
 20
13.10205
 30
16.744972
 70
    64
  0
VERTEX
  5
11F9
  8
0
  6
CONTINUOUS
 10
49.5
 20
13.10205
 30
16.744972
 70
    64
  0
VERTEX
  5
11FA
  8
0
  6
CONTINUOUS
 10
49.0
 20
11.033037
 30
19.812411
 70
    64
  0
VERTEX
  5
11FB
  8
0
  6
CONTINUOUS
 10
47.6
 20
9.075861
 30
22.714042
 70
    64
  0
VERTEX
  5
11FC
  8
0
  6
CONTINUOUS
 10
45.3
 20
7.342363
 30
25.284059
 70
    64
  0
VERTEX
  5
11FD
  8
0
  6
CONTINUOUS
 10
42.2
 20
6.05622
 30
27.190845
 70
    64
  0
VERTEX
  5
11FE
  8
0
  6
CONTINUOUS
 10
38.7
 20
5.27335
 30
28.351498
 70
    64
  0
VERTEX
  5
11FF
  8
0
  6
CONTINUOUS
 10
35.0
 20
4.993753
 30
28.766016
 70
    64
  0
VERTEX
  5
1200
  8
0
  6
CONTINUOUS
 10
52.5
 20
9.7859
 30
14.5082
 70
    64
  0
VERTEX
  5
1201
  8
0
  6
CONTINUOUS
 10
51.9
 20
7.269532
 30
18.238869
 70
    64
  0
VERTEX
  5
1202
  8
0
  6
CONTINUOUS
 10
50.2
 20
4.920922
 30
21.720827
 70
    64
  0
VERTEX
  5
1203
  8
0
  6
CONTINUOUS
 10
47.4
 20
2.851908
 30
24.788266
 70
    64
  0
VERTEX
  5
1204
  8
0
  6
CONTINUOUS
 10
43.7
 20
1.286168
 30
27.109571
 70
    64
  0
VERTEX
  5
1205
  8
0
  6
CONTINUOUS
 10
39.5
 20
0.33554
 30
28.518935
 70
    64
  0
VERTEX
  5
1206
  8
0
  6
CONTINUOUS
 10
35.0
 20
0.000024
 30
29.016358
 70
    64
  0
VERTEX
  5
1207
  8
0
  6
CONTINUOUS
 10
52.5
 20
17.247238
 30
19.540936
 70
    64
  0
VERTEX
  5
1208
  8
0
  6
CONTINUOUS
 10
51.9
 20
14.73087
 30
23.271605
 70
    64
  0
VERTEX
  5
1209
  8
0
  6
CONTINUOUS
 10
50.2
 20
12.38226
 30
26.753563
 70
    64
  0
VERTEX
  5
120A
  8
0
  6
CONTINUOUS
 10
47.4
 20
10.313246
 30
29.821002
 70
    64
  0
VERTEX
  5
120B
  8
0
  6
CONTINUOUS
 10
43.7
 20
8.747506
 30
32.142307
 70
    64
  0
VERTEX
  5
120C
  8
0
  6
CONTINUOUS
 10
39.5
 20
7.796878
 30
33.551671
 70
    64
  0
VERTEX
  5
120D
  8
0
  6
CONTINUOUS
 10
35.0
 20
7.461362
 30
34.049094
 70
    64
  0
VERTEX
  5
120E
  8
0
  6
CONTINUOUS
 10
50.5
 20
18.076276
 30
20.100129
 70
    64
  0
VERTEX
  5
120F
  8
0
  6
CONTINUOUS
 10
50.0
 20
15.839504
 30
23.416279
 70
    64
  0
VERTEX
  5
1210
  8
0
  6
CONTINUOUS
 10
48.5
 20
13.77049
 30
26.483718
 70
    64
  0
VERTEX
  5
1211
  8
0
  6
CONTINUOUS
 10
46.0
 20
11.981073
 30
29.136639
 70
    64
  0
VERTEX
  5
1212
  8
0
  6
CONTINUOUS
 10
42.8
 20
10.583091
 30
31.209233
 70
    64
  0
VERTEX
  5
1213
  8
0
  6
CONTINUOUS
 10
39.0
 20
9.744301
 30
32.452789
 70
    64
  0
VERTEX
  5
1214
  8
0
  6
CONTINUOUS
 10
35.0
 20
8.2904
 30
34.608287
 70
    64
  0
SEQEND
  5
1215
  8
0
  6
CONTINUOUS
  0
POLYLINE
  5
1216
  8
0
  6
CONTINUOUS
 66
     1
 10
0.0
 20
0.0
 30
0.0
 70
    16
 71
     5
 72
     7
  0
VERTEX
  5
1217
  8
0
  6
CONTINUOUS
 10
35.0
 20
13.10205
 30
16.744972
 70
    64
  0
VERTEX
  5
1218
  8
0
  6
CONTINUOUS
 10
35.0
 20
13.10205
 30
16.744972
 70
    64
  0
VERTEX
  5
1219
  8
0
  6
CONTINUOUS
 10
35.0
 20
13.10205
 30
16.744972
 70
    64
  0
VERTEX
  5
121A
  8
0
  6
CONTINUOUS
 10
35.0
 20
13.10205
 30
16.744972
 70
    64
  0
VERTEX
  5
121B
  8
0
  6
CONTINUOUS
 10
35.0
 20
13.10205
 30
16.744972
 70
    64
  0
VERTEX
  5
121C
  8
0
  6
CONTINUOUS
 10
35.0
 20
13.10205
 30
16.744972
 70
    64
  0
VERTEX
  5
121D
  8
0
  6
CONTINUOUS
 10
35.0
 20
13.10205
 30
16.744972
 70
    64
  0
VERTEX
  5
121E
  8
0
  6
CONTINUOUS
 10
49.5
 20
13.10205
 30
16.744972
 70
    64
  0
VERTEX
  5
121F
  8
0
  6
CONTINUOUS
 10
49.0
 20
15.171064
 30
13.677533
 70
    64
  0
VERTEX
  5
1220
  8
0
  6
CONTINUOUS
 10
47.6
 20
17.128239
 30
10.775901
 70
    64
  0
VERTEX
  5
1221
  8
0
  6
CONTINUOUS
 10
45.3
 20
18.861737
 30
8.205885
 70
    64
  0
VERTEX
  5
1222
  8
0
  6
CONTINUOUS
 10
42.2
 20
20.147881
 30
6.299098
 70
    64
  0
VERTEX
  5
1223
  8
0
  6
CONTINUOUS
 10
38.7
 20
20.930751
 30
5.138446
 70
    64
  0
VERTEX
  5
1224
  8
0
  6
CONTINUOUS
 10
35.0
 20
21.210347
 30
4.723927
 70
    64
  0
VERTEX
  5
1225
  8
0
  6
CONTINUOUS
 10
52.5
 20
9.7859
 30
14.5082
 70
    64
  0
VERTEX
  5
1226
  8
0
  6
CONTINUOUS
 10
51.9
 20
12.302268
 30
10.777531
 70
    64
  0
VERTEX
  5
1227
  8
0
  6
CONTINUOUS
 10
50.2
 20
14.650878
 30
7.295573
 70
    64
  0
VERTEX
  5
1228
  8
0
  6
CONTINUOUS
 10
47.4
 20
16.719892
 30
4.228134
 70
    64
  0
VERTEX
  5
1229
  8
0
  6
CONTINUOUS
 10
43.7
 20
18.285632
 30
1.906829
 70
    64
  0
VERTEX
  5
122A
  8
0
  6
CONTINUOUS
 10
39.5
 20
19.23626
 30
0.497465
 70
    64
  0
VERTEX
  5
122B
  8
0
  6
CONTINUOUS
 10
35.0
 20
19.571776
 30
0.000042
 70
    64
  0
VERTEX
  5
122C
  8
0
  6
CONTINUOUS
 10
52.5
 20
17.247238
 30
19.540936
 70
    64
  0
VERTEX
  5
122D
  8
0
  6
CONTINUOUS
 10
51.9
 20
19.763606
 30
15.810267
 70
    64
  0
VERTEX
  5
122E
  8
0
  6
CONTINUOUS
 10
50.2
 20
22.112216
 30
12.328309
 70
    64
  0
VERTEX
  5
122F
  8
0
  6
CONTINUOUS
 10
47.4
 20
24.18123
 30
9.26087
 70
    64
  0
VERTEX
  5
1230
  8
0
  6
CONTINUOUS
 10
43.7
 20
25.74697
 30
6.939565
 70
    64
  0
VERTEX
  5
1231
  8
0
  6
CONTINUOUS
 10
39.5
 20
26.697598
 30
5.530201
 70
    64
  0
VERTEX
  5
1232
  8
0
  6
CONTINUOUS
 10
35.0
 20
27.033114
 30
5.032779
 70
    64
  0
VERTEX
  5
1233
  8
0
  6
CONTINUOUS
 10
50.5
 20
18.076276
 30
20.100129
 70
    64
  0
VERTEX
  5
1234
  8
0
  6
CONTINUOUS
 10
50.0
 20
20.313047
 30
16.783979
 70
    64
  0
VERTEX
  5
1235
  8
0
  6
CONTINUOUS
 10
48.5
 20
22.382061
 30
13.71654
 70
    64
  0
VERTEX
  5
1236
  8
0
  6
CONTINUOUS
 10
46.0
 20
24.171478
 30
11.063619
 70
    64
  0
VERTEX
  5
1237
  8
0
  6
CONTINUOUS
 10
42.8
 20
25.569461
 30
8.991026
 70
    64
  0
VERTEX
  5
1238
  8
0
  6
CONTINUOUS
 10
39.0
 20
26.40825
 30
7.747469
 70
    64
  0
VERTEX
  5
1239
  8
0
  6
CONTINUOUS
 10
35.0
 20
27.862152
 30
5.591972
 70
    64
  0
SEQEND
  5
123A
  8
0
  6
CONTINUOUS
  0
ENDSEC
  0
EOF
