  0
SECTION
  2
HEADER
  9
$ACADVER
  1
AC1015
  9
$ACADMAINTVER
 70
    20
  9
$DWGCODEPAGE
  3
ANSI_932
  9
$INSBASE
 10
0.0
 20
0.0
 30
0.0
  9
$EXTMIN
 10
-0.0754394252731459
 20
-0.0497131138687408
 30
-0.0015258207003583
  9
$EXTMAX
 10
0.3366487866781429
 20
0.3050406383686059
 30
0.0000000349246037
  9
$LIMMIN
 10
0.0
 20
0.0
  9
$LIMMAX
 10
12.0
 20
9.0
  9
$ORTHOMODE
 70
     0
  9
$REGENMODE
 70
     1
  9
$FILLMODE
 70
     1
  9
$QTEXTMODE
 70
     0
  9
$MIRRTEXT
 70
     1
  9
$LTSCALE
 40
1.0
  9
$ATTMODE
 70
     1
  9
$TEXTSIZE
 40
0.2
  9
$TRACEWID
 40
0.05
  9
$TEXTSTYLE
  7
Standard
  9
$CLAYER
  8
0
  9
$CELTYPE
  6
ByBlock
  9
$CECOLOR
 62
   256
  9
$CELTSCALE
 40
1.0
  9
$DISPSILH
 70
     0
  9
$DIMSCALE
 40
1.0
  9
$DIMASZ
 40
0.18
  9
$DIMEXO
 40
0.0625
  9
$DIMDLI
 40
0.38
  9
$DIMRND
 40
0.0
  9
$DIMDLE
 40
0.0
  9
$DIMEXE
 40
0.18
  9
$DIMTP
 40
0.0
  9
$DIMTM
 40
0.0
  9
$DIMTXT
 40
0.18
  9
$DIMCEN
 40
0.09
  9
$DIMTSZ
 40
0.0
  9
$DIMTOL
 70
     0
  9
$DIMLIM
 70
     0
  9
$DIMTIH
 70
     1
  9
$DIMTOH
 70
     1
  9
$DIMSE1
 70
     0
  9
$DIMSE2
 70
     0
  9
$DIMTAD
 70
     0
  9
$DIMZIN
 70
     0
  9
$DIMBLK
  1

  9
$DIMASO
 70
     1
  9
$DIMSHO
 70
     1
  9
$DIMPOST
  1

  9
$DIMAPOST
  1

  9
$DIMALT
 70
     0
  9
$DIMALTD
 70
     2
  9
$DIMALTF
 40
25.4
  9
$DIMLFAC
 40
1.0
  9
$DIMTOFL
 70
     0
  9
$DIMTVP
 40
0.0
  9
$DIMTIX
 70
     0
  9
$DIMSOXD
 70
     0
  9
$DIMSAH
 70
     0
  9
$DIMBLK1
  1

  9
$DIMBLK2
  1

  9
$DIMSTYLE
  2
Standard
  9
$DIMCLRD
 70
     0
  9
$DIMCLRE
 70
     0
  9
$DIMCLRT
 70
     0
  9
$DIMTFAC
 40
1.0
  9
$DIMGAP
 40
0.09
  9
$DIMJUST
 70
     0
  9
$DIMSD1
 70
     0
  9
$DIMSD2
 70
     0
  9
$DIMTOLJ
 70
     1
  9
$DIMTZIN
 70
     0
  9
$DIMALTZ
 70
     0
  9
$DIMALTTZ
 70
     0
  9
$DIMUPT
 70
     0
  9
$DIMDEC
 70
     4
  9
$DIMTDEC
 70
     4
  9
$DIMALTU
 70
     2
  9
$DIMALTTD
 70
     2
  9
$DIMTXSTY
  7
Standard
  9
$DIMAUNIT
 70
     0
  9
$DIMADEC
 70
     0
  9
$DIMALTRND
 40
0.0
  9
$DIMAZIN
 70
     0
  9
$DIMDSEP
 70
    46
  9
$DIMATFIT
 70
     3
  9
$DIMFRAC
 70
     0
  9
$DIMLDRBLK
  1

  9
$DIMLUNIT
 70
     2
  9
$DIMLWD
 70
    -2
  9
$DIMLWE
 70
    -2
  9
$DIMTMOVE
 70
     0
  9
$LUNITS
 70
     2
  9
$LUPREC
 70
     4
  9
$SKETCHINC
 40
0.1
  9
$FILLETRAD
 40
0.5
  9
$AUNITS
 70
     0
  9
$AUPREC
 70
     0
  9
$MENU
  1
.
  9
$ELEVATION
 40
0.0
  9
$PELEVATION
 40
0.0
  9
$THICKNESS
 40
0.0
  9
$LIMCHECK
 70
     0
  9
$CHAMFERA
 40
0.5
  9
$CHAMFERB
 40
0.5
  9
$CHAMFERC
 40
1.0
  9
$CHAMFERD
 40
0.0
  9
$SKPOLY
 70
     0
  9
$TDCREATE
 40
2456806.656927662
  9
$TDUCREATE
 40
2456806.281927662
  9
$TDUPDATE
 40
2457347.645149005
  9
$TDUUPDATE
 40
2457347.270149005
  9
$TDINDWG
 40
0.0010497222
  9
$TDUSRTIMER
 40
0.0010497222
  9
$USRTIMER
 70
     1
  9
$ANGBASE
 50
0.0
  9
$ANGDIR
 70
     0
  9
$PDMODE
 70
     0
  9
$PDSIZE
 40
0.0
  9
$PLINEWID
 40
0.0
  9
$SPLFRAME
 70
     0
  9
$SPLINETYPE
 70
     6
  9
$SPLINESEGS
 70
     8
  9
$HANDSEED
  5
56F
  9
$SURFTAB1
 70
     6
  9
$SURFTAB2
 70
     6
  9
$SURFTYPE
 70
     6
  9
$SURFU
 70
     6
  9
$SURFV
 70
     6
  9
$UCSBASE
  2

  9
$UCSNAME
  2

  9
$UCSORG
 10
0.0
 20
0.0
 30
0.0
  9
$UCSXDIR
 10
1.0
 20
0.0
 30
0.0
  9
$UCSYDIR
 10
0.0
 20
1.0
 30
0.0
  9
$UCSORTHOREF
  2

  9
$UCSORTHOVIEW
 70
     0
  9
$UCSORGTOP
 10
0.0
 20
0.0
 30
0.0
  9
$UCSORGBOTTOM
 10
0.0
 20
0.0
 30
0.0
  9
$UCSORGLEFT
 10
0.0
 20
0.0
 30
0.0
  9
$UCSORGRIGHT
 10
0.0
 20
0.0
 30
0.0
  9
$UCSORGFRONT
 10
0.0
 20
0.0
 30
0.0
  9
$UCSORGBACK
 10
0.0
 20
0.0
 30
0.0
  9
$PUCSBASE
  2

  9
$PUCSNAME
  2

  9
$PUCSORG
 10
0.0
 20
0.0
 30
0.0
  9
$PUCSXDIR
 10
1.0
 20
0.0
 30
0.0
  9
$PUCSYDIR
 10
0.0
 20
1.0
 30
0.0
  9
$PUCSORTHOREF
  2

  9
$PUCSORTHOVIEW
 70
     0
  9
$PUCSORGTOP
 10
0.0
 20
0.0
 30
0.0
  9
$PUCSORGBOTTOM
 10
0.0
 20
0.0
 30
0.0
  9
$PUCSORGLEFT
 10
0.0
 20
0.0
 30
0.0
  9
$PUCSORGRIGHT
 10
0.0
 20
0.0
 30
0.0
  9
$PUCSORGFRONT
 10
0.0
 20
0.0
 30
0.0
  9
$PUCSORGBACK
 10
0.0
 20
0.0
 30
0.0
  9
$USERI1
 70
     0
  9
$USERI2
 70
     0
  9
$USERI3
 70
     0
  9
$USERI4
 70
     0
  9
$USERI5
 70
     0
  9
$USERR1
 40
0.0
  9
$USERR2
 40
0.0
  9
$USERR3
 40
0.0
  9
$USERR4
 40
0.0
  9
$USERR5
 40
0.0
  9
$WORLDVIEW
 70
     1
  9
$SHADEDGE
 70
     3
  9
$SHADEDIF
 70
    70
  9
$TILEMODE
 70
     1
  9
$MAXACTVP
 70
    64
  9
$PINSBASE
 10
0.0
 20
0.0
 30
0.0
  9
$PLIMCHECK
 70
     0
  9
$PEXTMIN
 10
1.000000000000000E+20
 20
1.000000000000000E+20
 30
1.000000000000000E+20
  9
$PEXTMAX
 10
-1.000000000000000E+20
 20
-1.000000000000000E+20
 30
-1.000000000000000E+20
  9
$PLIMMIN
 10
0.0
 20
0.0
  9
$PLIMMAX
 10
12.0
 20
9.0
  9
$UNITMODE
 70
     0
  9
$VISRETAIN
 70
     1
  9
$PLINEGEN
 70
     0
  9
$PSLTSCALE
 70
     1
  9
$TREEDEPTH
 70
  3020
  9
$CMLSTYLE
  2
Standard
  9
$CMLJUST
 70
     0
  9
$CMLSCALE
 40
1.0
  9
$PROXYGRAPHICS
 70
     1
  9
$MEASUREMENT
 70
     0
  9
$CELWEIGHT
370
    -1
  9
$ENDCAPS
280
     0
  9
$JOINSTYLE
280
     0
  9
$LWDISPLAY
290
     0
  9
$INSUNITS
 70
     0
  9
$HYPERLINKBASE
  1

  9
$STYLESHEET
  1

  9
$XEDIT
290
     1
  9
$CEPSNTYPE
380
     0
  9
$PSTYLEMODE
290
     1
  9
$FINGERPRINTGUID
  2
{1A1BD465-1BB8-458A-99CE-23871B8AAB42}
  9
$VERSIONGUID
  2
{FDEBA8D2-031B-4F51-9C1F-9A6B97359FC6}
  9
$EXTNAMES
290
     1
  9
$PSVPSCALE
 40
0.0
  9
$OLESTARTUP
290
     0
  0
ENDSEC
  0
SECTION
  2
CLASSES
  0
CLASS
  1
ACDBDICTIONARYWDFLT
  2
AcDbDictionaryWithDefault
  3
ObjectDBX Classes
 90
        0
280
     0
281
     0
  0
CLASS
  1
MATERIAL
  2
AcDbMaterial
  3
ObjectDBX Classes
 90
     1153
280
     0
281
     0
  0
CLASS
  1
VISUALSTYLE
  2
AcDbVisualStyle
  3
ObjectDBX Classes
 90
     4095
280
     0
281
     0
  0
CLASS
  1
TABLESTYLE
  2
AcDbTableStyle
  3
ObjectDBX Classes
 90
     4095
280
     0
281
     0
  0
CLASS
  1
SCALE
  2
AcDbScale
  3
ObjectDBX Classes
 90
     1153
280
     0
281
     0
  0
CLASS
  1
MLEADERSTYLE
  2
AcDbMLeaderStyle
  3
ACDB_MLEADERSTYLE_CLASS
 90
     4095
280
     0
281
     0
  0
CLASS
  1
ACDBSECTIONVIEWSTYLE
  2
AcDbSectionViewStyle
  3
ObjectDBX Classes
 90
     1025
280
     0
281
     0
  0
CLASS
  1
ACDBDETAILVIEWSTYLE
  2
AcDbDetailViewStyle
  3
ObjectDBX Classes
 90
     1025
280
     0
281
     0
  0
CLASS
  1
ACME_DOCUMENT
  2
AcMeDbDoc
  3
AcMeServices
 90
     1024
280
     0
281
     0
  0
CLASS
  1
AMGSETTINGSOBJ
  2
AmgSettingsObj
  3
"AcadM|Product Description: AutoCAD Mechanical|Company: Autodesk, Inc."
 90
     1024
280
     0
281
     0
  0
CLASS
  1
ACMESCOPE
  2
AcMeScope
  3
AcMeServices
 90
     1024
280
     0
281
     0
  0
CLASS
  1
ACMECOMMANDHISTORY
  2
AcMeCommandHistory
  3
AcMeServices
 90
     1024
280
     0
281
     0
  0
CLASS
  1
ACIMSYSVARMAN
  2
AcImSysVarManager
  3
AcMeServices
 90
     1024
280
     0
281
     0
  0
CLASS
  1
ACIMINTSYSVAR
  2
AcImIntSysVar
  3
AcMeServices
 90
     1024
280
     0
281
     0
  0
CLASS
  1
ACMESTATEMGR
  2
AcMeStateMgr
  3
AcMeServices
 90
     1024
280
     0
281
     0
  0
CLASS
  1
ACDBENTITYCACHE
  2
AcMeEntityCache
  3
AcMeServices
 90
     1024
280
     0
281
     0
  0
CLASS
  1
ACGREFMASTER
  2
AcGrefMaster
  3
AcAttribServices
 90
     1024
280
     0
281
     0
  0
CLASS
  1
ACME_DATABASE
  2
AcMeDbDatabase
  3
AcMeServices
 90
     1024
280
     0
281
     0
  0
CLASS
  1
ACRFINSADJUSTERMGR
  2
AcRfInsAdjusterMgr
  3
AcMeServices
 90
     1024
280
     0
281
     0
  0
CLASS
  1
ACGREFACADMASTER
  2
AcGrefacadMaster
  3
AcGrefServices
 90
     1024
280
     0
281
     0
  0
CLASS
  1
AMDTMENUSTATEMGR
  2
AmdtMenuStateMgr
  3
McadcomServices
 90
     1024
280
     0
281
     0
  0
CLASS
  1
AMDTMCOMMENUSTATE
  2
AmdtMcomMenuState
  3
McadcomServices
 90
     1024
280
     0
281
     0
  0
CLASS
  1
AMIMASTER
  2
AmiMaster
  3
AmiServices
 90
     1024
280
     0
281
     0
  0
CLASS
  1
MAPIAMMOUDLE
  2
MApiAmModule
  3
MApiAmServices
 90
     1024
280
     0
281
     0
  0
CLASS
  1
ACIMSTRSYSVAR
  2
AcImStrSysVar
  3
AcMeServices
 90
     1024
280
     0
281
     0
  0
CLASS
  1
AMDTAMMENUSTATE
  2
AmdtAmMenuState
  3
DesignerAssemblies
 90
     1024
280
     0
281
     0
  0
CLASS
  1
ACAMPROJECT
  2
AcAmProject
  3
DesignerAssemblies
 90
     1024
280
     0
281
     0
  0
CLASS
  1
ACAMGRCOMPDEF
  2
AcAmGrCompDef
  3
DesignerAssemblies
 90
     1024
280
     0
281
     0
  0
CLASS
  1
ACAMCOMPDEF
  2
AcAmCompDef
  3
DesignerAssemblies
 90
     1024
280
     0
281
     0
  0
CLASS
  1
ACAMCOMPDEFMGR
  2
AcAmCompDefMgr
  3
DesignerAssemblies
 90
     1024
280
     0
281
     0
  0
CLASS
  1
AMCONTEXTMGR
  2
AcAmContextMgr
  3
DesignerAssemblies
 90
     1024
280
     0
281
     0
  0
CLASS
  1
ACAMCONTEXTMODELER
  2
AcAmContextModeler
  3
DesignerAssemblies
 90
     1024
280
     0
281
     0
  0
CLASS
  1
ACMDATADICTIONARY
  2
AcmDataDictionary
  3
"AcmSymBB|Product Description: AutoCAD Mechanical|Company: Autodesk, Inc."
 90
     1024
280
     0
281
     0
  0
CLASS
  1
ACAMGRCOMPDEFSET
  2
AcAmGrCompDefSet
  3
DesignerAssemblies
 90
     1024
280
     0
281
     0
  0
CLASS
  1
AMDTBROWSERDBTAB
  2
AmdtBrowserDbTab
  3
McadcomServices
 90
     1024
280
     0
281
     0
  0
CLASS
  1
CBROWSERAPPOBJECT
  2
CBrowserAppObject
  3
McadcomServices
 90
     1024
280
     0
281
     0
  0
CLASS
  1
DM_PLACEHOLDER
  2
AcDmSelsetPlaceholder
  3
McadcomServices
 90
     1024
280
     0
281
     0
  0
CLASS
  1
ACMSTANDARDANSI
  2
AcmStandardANSI
  3
"Amdt_StdImp|Product Description: AutoCAD Mechanical|Company: Autodesk, Inc."
 90
     1024
280
     0
281
     0
  0
CLASS
  1
ACMSURFSTANDARDANSI
  2
AcmSurfTextStdANSI
  3
"Amdt_StdImp|Product Description: AutoCAD Mechanical|Company: Autodesk, Inc."
 90
     1024
280
     0
281
     0
  0
CLASS
  1
ACMFCFSTANDARDANSI
  2
AcmFCFStdANSI
  3
"Amdt_StdImp|Product Description: AutoCAD Mechanical|Company: Autodesk, Inc."
 90
     1024
280
     0
281
     0
  0
CLASS
  1
ACMWELDSTANDARDANSI
  2
AcmWeldingStdANSI
  3
"Amdt_StdImp|Product Description: AutoCAD Mechanical|Company: Autodesk, Inc."
 90
     1024
280
     0
281
     0
  0
CLASS
  1
ACMIDSTANDARDANSI
  2
AcmIdStdANSI
  3
"Amdt_StdImp|Product Description: AutoCAD Mechanical|Company: Autodesk, Inc."
 90
     1024
280
     0
281
     0
  0
CLASS
  1
ACMDATUMSTANDARDANSI
  2
AcmDatumStdANSI
  3
"Amdt_StdImp|Product Description: AutoCAD Mechanical|Company: Autodesk, Inc."
 90
     1024
280
     0
281
     0
  0
CLASS
  1
ACMBOMSTANDARDANSI
  2
AcmBOMStdANSI
  3
"Amdt_StdImp|Product Description: AutoCAD Mechanical|Company: Autodesk, Inc."
 90
     1024
280
     0
281
     0
  0
CLASS
  1
ACMDETAILSTANDARDANSI
  2
AmdtDetailSymStdANSI
  3
"Amdt_StdImp|Product Description: AutoCAD Mechanical|Company: Autodesk, Inc."
 90
     1024
280
     0
281
     0
  0
CLASS
  1
ACMSECTIONSTANDARDANSI
  2
AmdtSectionSymStdANSI
  3
"Amdt_StdImp|Product Description: AutoCAD Mechanical|Company: Autodesk, Inc."
 90
     1024
280
     0
281
     0
  0
CLASS
  1
ACMCENTERLINESTANDARDANSI
  2
AmdtCenterLineStdANSI
  3
"Amdt_StdImp|Product Description: AutoCAD Mechanical|Company: Autodesk, Inc."
 90
     1024
280
     0
281
     0
  0
CLASS
  1
ACMTHREADLINESTANDARDANSI
  2
AmdtThreadLineStdANSI
  3
"Amdt_StdImp|Product Description: AutoCAD Mechanical|Company: Autodesk, Inc."
 90
     1024
280
     0
281
     0
  0
CLASS
  1
ACMNOTESTANDARDANSI
  2
AmdtNoteStdANSI
  3
"Amdt_StdImp|Product Description: AutoCAD Mechanical|Company: Autodesk, Inc."
 90
     1024
280
     0
281
     0
  0
CLASS
  1
ACMTAPERSTANDARDANSI
  2
AcmTaperStdANSI
  3
"Amdt_StdImp|Product Description: AutoCAD Mechanical|Company: Autodesk, Inc."
 90
     1024
280
     0
281
     0
  0
CLASS
  1
ACMANOOTATIONVIEWSTANDARDANSI
  2
AmdtAnViewStdANSI
  3
"Amdt_StdImp|Product Description: AutoCAD Mechanical|Company: Autodesk, Inc."
 90
     1024
280
     0
281
     0
  0
CLASS
  1
ACAMGLAYSTD
  2
AcAmgLayStd
  3
"AmgLay|Product Description: AutoCAD Mechanical|Company: Autodesk, Inc."
 90
     1024
280
     0
281
     0
  0
CLASS
  1
ACAMGDIMSTD
  2
AcAmgDimStd
  3
"AmgDim|Product Description: AutoCAD Mechanical|Company: Autodesk, Inc."
 90
     1024
280
     0
281
     0
  0
CLASS
  1
AMGOBJPROPCFG
  2
AmgObjPropCfg
  3
"AmgLay|Product Description: AutoCAD Mechanical|Company: Autodesk, Inc."
 90
     1024
280
     0
281
     0
  0
CLASS
  1
ACAMGHOLECHARTSTDANSI
  2
AcAmgHoleChartStdANSI
  3
AmgDim|Product Description: AutoCAD Mechanical|Company: Autodesk, Inc.
 90
     1024
280
     0
281
     0
  0
CLASS
  1
ACAMGTITLESTD
  2
AcAmgTitleStd
  3
"AmgTitle|Product Description: AutoCAD Mechanical|Company: Autodesk, Inc."
 90
     1024
280
     0
281
     0
  0
CLASS
  1
AMDTNOTETEMPLATEDB
  2
AmdtNoteTemplateDB
  3
AcmSymBB|Product Description: AutoCAD Mechanical|Company: Autodesk, Inc.
 90
     1024
280
     0
281
     0
  0
CLASS
  1
ACAMGFILTERDAT
  2
AcAmgFilterDat
  3
"AcadM|Product Description: AutoCAD Mechanical|Company: Autodesk, Inc."
 90
     1024
280
     0
281
     0
  0
CLASS
  1
SORTENTSTABLE
  2
AcDbSortentsTable
  3
ObjectDBX Classes
 90
        0
280
     0
281
     0
  0
CLASS
  1
CELLSTYLEMAP
  2
AcDbCellStyleMap
  3
ObjectDBX Classes
 90
     1152
280
     0
281
     0
  0
CLASS
  1
DICTIONARYVAR
  2
AcDbDictionaryVar
  3
ObjectDBX Classes
 90
        0
280
     0
281
     0
  0
CLASS
  1
ACDBPLACEHOLDER
  2
AcDbPlaceHolder
  3
ObjectDBX Classes
 90
        0
280
     0
281
     0
  0
CLASS
  1
LAYOUT
  2
AcDbLayout
  3
ObjectDBX Classes
 90
        0
280
     0
281
     0
  0
ENDSEC
  0
SECTION
  2
TABLES
  0
TABLE
  2
VPORT
  5
8
330
0
100
AcDbSymbolTable
 70
     1
  0
VPORT
  5
12A
330
8
100
AcDbSymbolTableRecord
100
AcDbViewportTableRecord
  2
*Active
 70
     0
 10
0.0
 20
0.0
 11
1.0
 21
1.0
 12
0.2065363220834975
 22
0.0686645401351351
 13
0.0
 23
0.0
 14
0.5
 24
0.5
 15
0.5
 25
0.5
 16
0.0
 26
0.0
 36
1.0
 17
0.0
 27
0.0
 37
0.0
 40
0.6928225397907685
 41
1.681623931623931
 42
50.0
 43
0.0
 44
0.0
 50
0.0
 51
0.0
 71
     0
 72
   100
 73
     1
 74
     3
 75
     0
 76
     0
 77
     0
 78
     0
281
     0
 65
     1
110
0.0
120
0.0
130
0.0
111
1.0
121
0.0
131
0.0
112
0.0
122
1.0
132
0.0
 79
     0
146
0.0
1001
ACAD_NAV_VCDISPLAY
1070
     3
  0
ENDTAB
  0
TABLE
  2
LTYPE
  5
5
330
0
100
AcDbSymbolTable
 70
     8
  0
LTYPE
  5
14
330
5
100
AcDbSymbolTableRecord
100
AcDbLinetypeTableRecord
  2
ByBlock
 70
     0
  3

 72
    65
 73
     0
 40
0.0
  0
LTYPE
  5
15
330
5
100
AcDbSymbolTableRecord
100
AcDbLinetypeTableRecord
  2
ByLayer
 70
     0
  3

 72
    65
 73
     0
 40
0.0
  0
LTYPE
  5
16
330
5
100
AcDbSymbolTableRecord
100
AcDbLinetypeTableRecord
  2
Continuous
 70
     0
  3
Solid line
 72
    65
 73
     0
 40
0.0
  0
LTYPE
  5
17A
330
5
100
AcDbSymbolTableRecord
100
AcDbLinetypeTableRecord
  2
PHANTOM2
 70
     0
  3
Phantom (.5x) ___ _ _ ___ _ _ ___ _ _ ___ _ _
 72
    65
 73
     6
 40
1.25
 49
0.625
 74
     0
 49
-0.125
 74
     0
 49
0.125
 74
     0
 49
-0.125
 74
     0
 49
0.125
 74
     0
 49
-0.125
 74
     0
  0
LTYPE
  5
18F
330
5
100
AcDbSymbolTableRecord
100
AcDbLinetypeTableRecord
  2
HIDDEN
 70
     0
  3
Hidden __ __ __ __ __ __ __ __ __ __ __ __ __ _
 72
    65
 73
     2
 40
0.375
 49
0.25
 74
     0
 49
-0.125
 74
     0
  0
LTYPE
  5
190
330
5
100
AcDbSymbolTableRecord
100
AcDbLinetypeTableRecord
  2
CENTER
 70
     0
  3
Center ____ _ ____ _ ____ _ ____ _ ____ _ ____
 72
    65
 73
     4
 40
2.0
 49
1.25
 74
     0
 49
-0.25
 74
     0
 49
0.25
 74
     0
 49
-0.25
 74
     0
  0
LTYPE
  5
1CA
330
5
100
AcDbSymbolTableRecord
100
AcDbLinetypeTableRecord
  2
CENTER2
 70
     0
  3
Center (.5x) ___ _ ___ _ ___ _ ___ _ ___ _ ___
 72
    65
 73
     4
 40
1.125
 49
0.75
 74
     0
 49
-0.125
 74
     0
 49
0.125
 74
     0
 49
-0.125
 74
     0
  0
LTYPE
  5
1CB
330
5
100
AcDbSymbolTableRecord
100
AcDbLinetypeTableRecord
  2
HIDDEN2
 70
     0
  3
Hidden (.5x) _ _ _ _ _ _ _ _ _ _ _ _ _ _ _ _ _
 72
    65
 73
     2
 40
0.1875
 49
0.125
 74
     0
 49
-0.0625
 74
     0
  0
LTYPE
  5
1D9
330
5
100
AcDbSymbolTableRecord
100
AcDbLinetypeTableRecord
  2
ACANSTGB
 70
     0
  3
__ . . __ . .
 72
    65
 73
     6
 40
0.35433070866
 49
0.15748031496
 74
     0
 49
-0.03937007874
 74
     0
 49
0.03937007874
 74
     0
 49
-0.03937007874
 74
     0
 49
0.03937007874
 74
     0
 49
-0.03937007874
 74
     0
  0
LTYPE
  5
1DA
330
5
100
AcDbSymbolTableRecord
100
AcDbLinetypeTableRecord
  2
ACANSTGL
 70
     0
  3
_ _ _ _ _
 72
    65
 73
     2
 40
0.11811023622
 49
0.07874015748
 74
     0
 49
-0.03937007874
 74
     0
  0
ENDTAB
  0
TABLE
  2
LAYER
  5
2
330
0
100
AcDbSymbolTable
 70
     2
  0
LAYER
  5
10
102
{ACAD_XDICTIONARY
360
519
102
}
330
2
100
AcDbSymbolTableRecord
100
AcDbLayerTableRecord
  2
0
 70
     0
 62
     7
  6
Continuous
370
    -3
390
F
  0
LAYER
  5
4B9
102
{ACAD_XDICTIONARY
360
51B
102
}
330
2
100
AcDbSymbolTableRecord
100
AcDbLayerTableRecord
  2
AM_CL
 70
     0
 62
     1
  6
Continuous
370
    15
390
F
1001
AcAecLayerStandard
1000

1000

  0
ENDTAB
  0
TABLE
  2
STYLE
  5
3
330
0
100
AcDbSymbolTable
 70
     3
  0
STYLE
  5
11
330
3
100
AcDbSymbolTableRecord
100
AcDbTextStyleTableRecord
  2
Standard
 70
     0
 40
0.0
 41
1.0
 50
0.0
 71
     0
 42
0.2
  3
txt
  4

  0
STYLE
  5
1D7
330
3
100
AcDbSymbolTableRecord
100
AcDbTextStyleTableRecord
  2
ACANSTS
 70
     0
 40
1.0
 41
1.0
 50
0.0
 71
     0
 42
0.2
  3
romans.shx
  4
extfont.shx
  0
STYLE
  5
1D8
330
3
100
AcDbSymbolTableRecord
100
AcDbTextStyleTableRecord
  2
ACANSGDT
 70
     0
 40
0.0
 41
1.0
 50
0.0
 71
     0
 42
0.2
  3
amgdt.shx
  4

  0
ENDTAB
  0
TABLE
  2
VIEW
  5
6
330
0
100
AcDbSymbolTable
 70
     0
  0
ENDTAB
  0
TABLE
  2
UCS
  5
7
330
0
100
AcDbSymbolTable
 70
     0
  0
ENDTAB
  0
TABLE
  2
APPID
  5
9
330
0
100
AcDbSymbolTable
 70
    14
  0
APPID
  5
12
330
9
100
AcDbSymbolTableRecord
100
AcDbRegAppTableRecord
  2
ACAD
 70
     0
  0
APPID
  5
188
330
9
100
AcDbSymbolTableRecord
100
AcDbRegAppTableRecord
  2
MCAD_NO_VIS
 70
     0
  0
APPID
  5
189
330
9
100
AcDbSymbolTableRecord
100
AcDbRegAppTableRecord
  2
ACAD_TEMP_GRAPHIC
 70
     0
  0
APPID
  5
195
330
9
100
AcDbSymbolTableRecord
100
AcDbRegAppTableRecord
  2
ACATTRIBSERVICES
 70
     0
  0
APPID
  5
1AD
330
9
100
AcDbSymbolTableRecord
100
AcDbRegAppTableRecord
  2
DESIGNERASSEMBLIES
 70
     0
  0
APPID
  5
1C7
330
9
100
AcDbSymbolTableRecord
100
AcDbRegAppTableRecord
  2
ACAD_DSTYLE_DIMJAG
 70
     0
  0
APPID
  5
1C8
330
9
100
AcDbSymbolTableRecord
100
AcDbRegAppTableRecord
  2
ACAD_DSTYLE_DIMBREAK
 70
     0
  0
APPID
  5
1E2
330
9
100
AcDbSymbolTableRecord
100
AcDbRegAppTableRecord
  2
ACAD_NAV_VCDISPLAY
 70
     0
  0
APPID
  5
4BA
330
9
100
AcDbSymbolTableRecord
100
AcDbRegAppTableRecord
  2
AcAecLayerStandard
 70
     0
  0
APPID
  5
568
330
9
100
AcDbSymbolTableRecord
100
AcDbRegAppTableRecord
  2
ACAD_MLEADERVER
 70
     0
  0
APPID
  5
56B
330
9
100
AcDbSymbolTableRecord
100
AcDbRegAppTableRecord
  2
ACAD_DSTYLE_DIMARC_LENGTH_SYMBOL
 70
     0
  0
APPID
  5
56C
330
9
100
AcDbSymbolTableRecord
100
AcDbRegAppTableRecord
  2
ACAD_DSTYLE_DIM_LINETYPE
 70
     0
  0
APPID
  5
56D
330
9
100
AcDbSymbolTableRecord
100
AcDbRegAppTableRecord
  2
ACAD_DSTYLE_DIM_EXT1_LINETYPE
 70
     0
  0
APPID
  5
56E
330
9
100
AcDbSymbolTableRecord
100
AcDbRegAppTableRecord
  2
ACAD_DSTYLE_DIM_EXT2_LINETYPE
 70
     0
  0
ENDTAB
  0
TABLE
  2
DIMSTYLE
  5
A
330
0
100
AcDbSymbolTable
 70
     7
100
AcDbDimStyleTable
 71
     0
  0
DIMSTYLE
105
21
330
A
100
AcDbSymbolTableRecord
100
AcDbDimStyleTableRecord
  2
Standard
 70
     0
340
11
  0
DIMSTYLE
105
1C6
102
{ACAD_REACTORS
330
1B6
102
}
330
A
100
AcDbSymbolTableRecord
100
AcDbDimStyleTableRecord
  2
AM_ANSI
 70
     0
  4
mm
 41
0.12
 42
0.05
 43
0.5
 44
0.1
 47
0.1
 48
0.1
 78
     7
 79
     2
140
0.12
141
0.0
146
0.71
147
0.06
176
   256
177
   256
178
     2
274
     4
284
     7
340
11
371
    -1
372
    -1
1001
ACAD_DSTYLE_DIMJAG
1070
   388
1040
1.5
1001
ACAD_DSTYLE_DIMBREAK
1070
   391
1040
0.125
1001
ACAD_DSTYLE_DIMARC_LENGTH_SYMBOL
1070
   379
1070
     1
1001
ACAD_DSTYLE_DIM_LINETYPE
1070
   380
1005
14
1001
ACAD_DSTYLE_DIM_EXT1_LINETYPE
1070
   381
1005
14
1001
ACAD_DSTYLE_DIM_EXT2_LINETYPE
1070
   382
1005
14
  0
DIMSTYLE
105
1CC
330
A
100
AcDbSymbolTableRecord
100
AcDbDimStyleTableRecord
  2
AM_ANSI$3
 70
     0
  4
mm
 41
0.12
 42
0.05
 43
0.5
 44
0.1
 47
0.1
 48
0.1
 78
     7
 79
     2
140
0.12
141
0.0
146
0.71
147
0.06
176
   256
177
   256
178
     2
274
     4
284
     7
288
     1
289
     0
340
11
371
    -1
372
    -1
1001
ACAD_DSTYLE_DIMBREAK
1070
   391
1040
0.125
1001
ACAD_DSTYLE_DIMJAG
1070
   388
1040
1.5
1001
ACAD_DSTYLE_DIMARC_LENGTH_SYMBOL
1070
   379
1070
     1
1001
ACAD_DSTYLE_DIM_LINETYPE
1070
   380
1005
14
1001
ACAD_DSTYLE_DIM_EXT1_LINETYPE
1070
   381
1005
14
1001
ACAD_DSTYLE_DIM_EXT2_LINETYPE
1070
   382
1005
14
  0
DIMSTYLE
105
1CD
330
A
100
AcDbSymbolTableRecord
100
AcDbDimStyleTableRecord
  2
AM_ANSI$4
 70
     0
  4
mm
 41
0.12
 42
0.05
 43
0.5
 44
0.1
 47
0.1
 48
0.1
 78
     7
 79
     2
140
0.12
141
0.0
146
0.71
147
0.06
176
   256
177
   256
178
     2
274
     4
284
     7
288
     1
289
     0
340
11
371
    -1
372
    -1
1001
ACAD_DSTYLE_DIMBREAK
1070
   391
1040
0.125
1001
ACAD_DSTYLE_DIMJAG
1070
   388
1040
1.5
1001
ACAD_DSTYLE_DIMARC_LENGTH_SYMBOL
1070
   379
1070
     1
1001
ACAD_DSTYLE_DIM_LINETYPE
1070
   380
1005
14
1001
ACAD_DSTYLE_DIM_EXT1_LINETYPE
1070
   381
1005
14
1001
ACAD_DSTYLE_DIM_EXT2_LINETYPE
1070
   382
1005
14
  0
DIMSTYLE
105
1CE
330
A
100
AcDbSymbolTableRecord
100
AcDbDimStyleTableRecord
  2
AM_ANSI$7
 70
     0
  4
mm
 41
0.12
 42
0.05
 43
0.5
 44
0.1
 47
0.1
 48
0.1
 78
     7
 79
     2
140
0.12
141
0.0
146
0.71
147
0.06
176
   256
177
   256
178
     2
274
     4
284
     7
340
11
371
    -1
372
    -1
1001
ACAD_DSTYLE_DIMBREAK
1070
   391
1040
0.125
1001
ACAD_DSTYLE_DIMJAG
1070
   388
1040
1.5
1001
ACAD_DSTYLE_DIMARC_LENGTH_SYMBOL
1070
   379
1070
     1
1001
ACAD_DSTYLE_DIM_LINETYPE
1070
   380
1005
14
1001
ACAD_DSTYLE_DIM_EXT1_LINETYPE
1070
   381
1005
14
1001
ACAD_DSTYLE_DIM_EXT2_LINETYPE
1070
   382
1005
14
  0
DIMSTYLE
105
1CF
330
A
100
AcDbSymbolTableRecord
100
AcDbDimStyleTableRecord
  2
AM_ANSI$SF
 70
     0
  4
mm
 41
0.12
 42
0.05
 43
0.5
 44
0.1
 47
0.1
 48
0.1
 75
     1
 76
     1
 78
     7
 79
     2
140
0.12
141
0.0
146
0.71
147
0.06
176
   256
177
   256
178
     2
274
     4
284
     7
340
11
371
    -1
372
    -1
1001
ACAD_DSTYLE_DIMBREAK
1070
   391
1040
0.125
1001
ACAD_DSTYLE_DIMJAG
1070
   388
1040
1.5
1001
ACAD_DSTYLE_DIMARC_LENGTH_SYMBOL
1070
   379
1070
     1
1001
ACAD_DSTYLE_DIM_LINETYPE
1070
   380
1005
14
1001
ACAD_DSTYLE_DIM_EXT1_LINETYPE
1070
   381
1005
14
1001
ACAD_DSTYLE_DIM_EXT2_LINETYPE
1070
   382
1005
14
  0
DIMSTYLE
105
1D4
330
A
100
AcDbSymbolTableRecord
100
AcDbDimStyleTableRecord
  2
AM_ANSI$SH
 70
     0
  4
mm
 41
0.12
 42
0.05
 43
0.5
 44
0.1
 47
0.1
 48
0.1
 75
     1
 76
     1
 78
     7
 79
     2
140
0.12
141
0.0
146
0.71
147
0.06
173
     1
176
   256
177
   256
178
     2
274
     4
284
     7
340
11
343
1D0
371
    -1
372
    -1
1001
ACAD_DSTYLE_DIMBREAK
1070
   391
1040
0.125
1001
ACAD_DSTYLE_DIMJAG
1070
   388
1040
1.5
1001
ACAD_DSTYLE_DIMARC_LENGTH_SYMBOL
1070
   379
1070
     1
1001
ACAD_DSTYLE_DIM_LINETYPE
1070
   380
1005
14
1001
ACAD_DSTYLE_DIM_EXT1_LINETYPE
1070
   381
1005
14
1001
ACAD_DSTYLE_DIM_EXT2_LINETYPE
1070
   382
1005
14
  0
ENDTAB
  0
TABLE
  2
BLOCK_RECORD
  5
1
330
0
100
AcDbSymbolTable
 70
     4
  0
BLOCK_RECORD
  5
1D
102
{ACAD_XDICTIONARY
360
4BC
102
}
330
1
100
AcDbSymbolTableRecord
100
AcDbBlockTableRecord
  2
*Model_Space
340
1E
  0
BLOCK_RECORD
  5
1B
330
1
100
AcDbSymbolTableRecord
100
AcDbBlockTableRecord
  2
*Paper_Space
340
1C
  0
BLOCK_RECORD
  5
1D0
330
1
100
AcDbSymbolTableRecord
100
AcDbBlockTableRecord
  2
GENAXEH
340
0
  0
ENDTAB
  0
ENDSEC
  0
SECTION
  2
BLOCKS
  0
BLOCK
  5
12B
330
1D
100
AcDbEntity
  8
0
100
AcDbBlockBegin
  2
*Model_Space
 70
     0
 10
0.0
 20
0.0
 30
0.0
  3
*Model_Space
  1

  0
ENDBLK
  5
12C
330
1D
100
AcDbEntity
  8
0
100
AcDbBlockEnd
  0
BLOCK
  5
12D
330
1B
100
AcDbEntity
 67
     1
  8
0
100
AcDbBlockBegin
  2
*Paper_Space
 70
     0
 10
0.0
 20
0.0
 30
0.0
  3
*Paper_Space
  1

  0
ENDBLK
  5
12E
330
1B
100
AcDbEntity
 67
     1
  8
0
100
AcDbBlockEnd
  0
BLOCK
  5
1D2
330
1D0
100
AcDbEntity
  8
0
100
AcDbBlockBegin
  2
GENAXEH
 70
     0
 10
0.0
 20
0.0
 30
0.0
  3
GENAXEH
  1

  0
LINE
  5
1D1
330
1D0
100
AcDbEntity
  8
0
100
AcDbLine
 10
-1.0
 20
0.0
 30
0.0
 11
1.0
 21
0.0
 31
0.0
  0
ENDBLK
  5
1D3
330
1D0
100
AcDbEntity
  8
0
100
AcDbBlockEnd
  0
ENDSEC
  0
SECTION
  2
ENTITIES
  0
LINE
  5
22
330
1D
100
AcDbEntity
  8
0
  6
Continuous
100
AcDbLine
 10
-0.067971
 20
0.049537
 30
0.0
 11
-0.071215
 21
0.049537
 31
0.0
  0
LINE
  5
23
330
1D
100
AcDbEntity
  8
0
  6
Continuous
100
AcDbLine
 10
-0.071215
 20
0.049537
 30
0.0
 11
-0.073383
 21
0.049537
 31
0.0
  0
LINE
  5
24
330
1D
100
AcDbEntity
  8
0
  6
Continuous
100
AcDbLine
 10
-0.074145
 20
0.049537
 30
0.0
 11
-0.074127
 21
0.048476
 31
0.0
  0
LINE
  5
25
330
1D
100
AcDbEntity
  8
0
  6
Continuous
100
AcDbLine
 10
-0.073383
 20
0.049537
 30
0.0
 11
-0.074145
 21
0.049537
 31
0.0
  0
LINE
  5
26
330
1D
100
AcDbEntity
  8
0
  6
Continuous
100
AcDbLine
 10
0.074142
 20
0.049537
 30
0.0
 11
0.07338
 21
0.049537
 31
0.0
  0
LINE
  5
27
330
1D
100
AcDbEntity
  8
0
  6
Continuous
100
AcDbLine
 10
0.074124
 20
0.048476
 30
0.0
 11
0.074142
 21
0.049537
 31
0.0
  0
LINE
  5
28
330
1D
100
AcDbEntity
  8
0
  6
Continuous
100
AcDbLine
 10
0.07338
 20
0.049537
 30
0.0
 11
0.071212
 21
0.049537
 31
0.0
  0
LINE
  5
29
330
1D
100
AcDbEntity
  8
0
  6
Continuous
100
AcDbLine
 10
0.071212
 20
0.049537
 30
0.0
 11
0.067968
 21
0.049537
 31
0.0
  0
LINE
  5
2A
330
1D
100
AcDbEntity
  8
0
  6
Continuous
100
AcDbLine
 10
0.067968
 20
0.049537
 30
0.0
 11
0.06414
 21
0.049537
 31
0.0
  0
LINE
  5
2B
330
1D
100
AcDbEntity
  8
0
  6
Continuous
100
AcDbLine
 10
0.06414
 20
0.049537
 30
0.0
 11
-0.064143
 21
0.049537
 31
0.0
  0
LINE
  5
2C
330
1D
100
AcDbEntity
  8
0
  6
Continuous
100
AcDbLine
 10
-0.067785
 20
0.023537
 30
0.0
 11
-0.068421
 21
0.023537
 31
0.0
  0
LINE
  5
2D
330
1D
100
AcDbEntity
  8
0
  6
Continuous
100
AcDbLine
 10
-0.073834
 20
0.023537
 30
0.0
 11
-0.072299
 21
0.023537
 31
0.0
  0
LINE
  5
2E
330
1D
100
AcDbEntity
  8
0
  6
Continuous
100
AcDbLine
 10
-0.072299
 20
0.023537
 30
0.0
 11
-0.070491
 21
0.023537
 31
0.0
  0
LINE
  5
2F
330
1D
100
AcDbEntity
  8
0
  6
Continuous
100
AcDbLine
 10
0.071665
 20
0.023537
 30
0.0
 11
0.07049
 21
0.023537
 31
0.0
  0
LINE
  5
30
330
1D
100
AcDbEntity
  8
0
  6
Continuous
100
AcDbLine
 10
0.072298
 20
0.023537
 30
0.0
 11
0.073833
 21
0.023537
 31
0.0
  0
LINE
  5
31
330
1D
100
AcDbEntity
  8
0
  6
Continuous
100
AcDbLine
 10
-0.064143
 20
0.049537
 30
0.0
 11
-0.067971
 21
0.049537
 31
0.0
  0
LINE
  5
32
330
1D
100
AcDbEntity
  8
0
  6
Continuous
100
AcDbLine
 10
0.074609
 20
0.024421
 30
0.0
 11
0.074594
 21
0.023537
 31
0.0
  0
LINE
  5
33
330
1D
100
AcDbEntity
  8
0
  6
Continuous
100
AcDbLine
 10
0.074594
 20
0.023537
 30
0.0
 11
0.074609
 21
0.024421
 31
0.0
  0
LINE
  5
34
330
1D
100
AcDbEntity
  8
0
  6
Continuous
100
AcDbLine
 10
-0.074127
 20
0.048476
 30
0.0
 11
-0.07461
 21
0.024422
 31
0.0
  0
LINE
  5
35
330
1D
100
AcDbEntity
  8
0
  6
Continuous
100
AcDbLine
 10
0.074609
 20
0.024422
 30
0.0
 11
0.074124
 21
0.048476
 31
0.0
  0
LINE
  5
36
330
1D
100
AcDbEntity
  8
0
  6
Continuous
100
AcDbLine
 10
-0.071666
 20
0.023537
 30
0.0
 11
-0.068421
 21
0.023537
 31
0.0
  0
LINE
  5
37
330
1D
100
AcDbEntity
  8
0
  6
Continuous
100
AcDbLine
 10
-0.073834
 20
0.023537
 30
0.0
 11
-0.071666
 21
0.023537
 31
0.0
  0
LINE
  5
38
330
1D
100
AcDbEntity
  8
0
  6
Continuous
100
AcDbLine
 10
-0.074595
 20
0.023537
 30
0.0
 11
-0.073834
 21
0.023537
 31
0.0
  0
LINE
  5
39
330
1D
100
AcDbEntity
  8
0
  6
Continuous
100
AcDbLine
 10
-0.07461
 20
0.024422
 30
0.0
 11
-0.074595
 21
0.023537
 31
0.0
  0
LINE
  5
3A
330
1D
100
AcDbEntity
  8
0
  6
Continuous
100
AcDbLine
 10
0.073833
 20
0.023537
 30
0.0
 11
0.074594
 21
0.023537
 31
0.0
  0
LINE
  5
3B
330
1D
100
AcDbEntity
  8
0
  6
Continuous
100
AcDbLine
 10
0.074594
 20
0.023537
 30
0.0
 11
0.074609
 21
0.024422
 31
0.0
  0
LINE
  5
3C
330
1D
100
AcDbEntity
  8
0
  6
Continuous
100
AcDbLine
 10
0.071665
 20
0.023537
 30
0.0
 11
0.073833
 21
0.023537
 31
0.0
  0
LINE
  5
3D
330
1D
100
AcDbEntity
  8
0
  6
Continuous
100
AcDbLine
 10
0.06842
 20
0.023537
 30
0.0
 11
0.071665
 21
0.023537
 31
0.0
  0
LINE
  5
3E
330
1D
100
AcDbEntity
  8
0
  6
Continuous
100
AcDbLine
 10
0.064593
 20
0.023537
 30
0.0
 11
0.06842
 21
0.023537
 31
0.0
  0
LINE
  5
3F
330
1D
100
AcDbEntity
  8
0
  6
Continuous
100
AcDbLine
 10
0.074124
 20
0.048476
 30
0.0
 11
0.074609
 21
0.024421
 31
0.0
  0
LINE
  5
40
330
1D
100
AcDbEntity
  8
0
  6
Continuous
100
AcDbLine
 10
0.074609
 20
0.024421
 30
0.0
 11
0.074124
 21
0.048476
 31
0.0
  0
LINE
  5
41
330
1D
100
AcDbEntity
  8
0
  6
Continuous
100
AcDbLine
 10
-0.064594
 20
0.023537
 30
0.0
 11
0.064593
 21
0.023537
 31
0.0
  0
LINE
  5
42
330
1D
100
AcDbEntity
  8
0
  6
Continuous
100
AcDbLine
 10
-0.068421
 20
0.023537
 30
0.0
 11
-0.064594
 21
0.023537
 31
0.0
  0
LINE
  5
43
330
1D
100
AcDbEntity
  8
0
  6
Continuous
100
AcDbLine
 10
-0.064433
 20
0.023537
 30
0.0
 11
-0.067785
 21
0.023537
 31
0.0
  0
LINE
  5
44
330
1D
100
AcDbEntity
  8
0
  6
Continuous
100
AcDbLine
 10
-0.065473
 20
0.023537
 30
0.0
 11
-0.06385
 21
0.023537
 31
0.0
  0
LINE
  5
45
330
1D
100
AcDbEntity
  8
0
  6
Continuous
100
AcDbLine
 10
-0.070491
 20
0.023537
 30
0.0
 11
-0.066217
 21
0.023537
 31
0.0
  0
LINE
  5
46
330
1D
100
AcDbEntity
  8
0
  6
Continuous
100
AcDbLine
 10
-0.066217
 20
0.023537
 30
0.0
 11
-0.065473
 21
0.023537
 31
0.0
  0
LINE
  5
47
330
1D
100
AcDbEntity
  8
0
  6
Continuous
100
AcDbLine
 10
0.066714
 20
0.023537
 30
0.0
 11
0.072298
 21
0.023537
 31
0.0
  0
LINE
  5
48
330
1D
100
AcDbEntity
  8
0
  6
Continuous
100
AcDbLine
 10
0.066217
 20
0.023537
 30
0.0
 11
0.066714
 21
0.023537
 31
0.0
  0
LINE
  5
49
330
1D
100
AcDbEntity
  8
0
  6
Continuous
100
AcDbLine
 10
0.07049
 20
0.023537
 30
0.0
 11
0.067785
 21
0.023537
 31
0.0
  0
LINE
  5
4A
330
1D
100
AcDbEntity
  8
0
  6
Continuous
100
AcDbLine
 10
0.065472
 20
0.023537
 30
0.0
 11
0.066217
 21
0.023537
 31
0.0
  0
LINE
  5
4B
330
1D
100
AcDbEntity
  8
0
  6
Continuous
100
AcDbLine
 10
0.067785
 20
0.023537
 30
0.0
 11
0.064433
 21
0.023537
 31
0.0
  0
LINE
  5
4C
330
1D
100
AcDbEntity
  8
0
  6
Continuous
100
AcDbLine
 10
0.063849
 20
0.023537
 30
0.0
 11
0.065472
 21
0.023537
 31
0.0
  0
LINE
  5
4D
330
1D
100
AcDbEntity
  8
0
  6
Continuous
100
AcDbLine
 10
0.064433
 20
0.023537
 30
0.0
 11
-0.064433
 21
0.023537
 31
0.0
  0
LINE
  5
4E
330
1D
100
AcDbEntity
  8
0
  6
Continuous
100
AcDbLine
 10
-0.06385
 20
0.023537
 30
0.0
 11
0.063849
 21
0.023537
 31
0.0
  0
LINE
  5
4F
330
1D
100
AcDbEntity
  8
0
  6
Continuous
100
AcDbLine
 10
0.028806
 20
-0.012476
 30
0.0
 11
0.013967
 21
-0.012476
 31
0.0
  0
LINE
  5
50
330
1D
100
AcDbEntity
  8
0
  6
Continuous
100
AcDbLine
 10
-0.01389
 20
-0.012476
 30
0.0
 11
-0.028716
 21
-0.012476
 31
0.0
  0
LINE
  5
51
330
1D
100
AcDbEntity
  8
0
  6
Continuous
100
AcDbLine
 10
-0.030274
 20
-0.015309
 30
0.0
 11
-0.030574
 21
-0.014581
 31
0.0
  0
LINE
  5
52
330
1D
100
AcDbEntity
  8
0
  6
Continuous
100
AcDbLine
 10
-0.030274
 20
-0.015309
 30
0.0
 11
-0.030488
 21
-0.016709
 31
0.0
  0
LINE
  5
53
330
1D
100
AcDbEntity
  8
0
  6
Continuous
100
AcDbLine
 10
-0.029056
 20
-0.012476
 30
0.0
 11
-0.030279
 21
-0.01299
 31
0.0
  0
LINE
  5
54
330
1D
100
AcDbEntity
  8
0
  6
Continuous
100
AcDbLine
 10
-0.030279
 20
-0.01299
 30
0.0
 11
-0.030577
 21
-0.013246
 31
0.0
  0
LINE
  5
55
330
1D
100
AcDbEntity
  8
0
  6
Continuous
100
AcDbLine
 10
0.03037
 20
-0.01299
 30
0.0
 11
0.029147
 21
-0.012476
 31
0.0
  0
LINE
  5
56
330
1D
100
AcDbEntity
  8
0
  6
Continuous
100
AcDbLine
 10
0.030668
 20
-0.013246
 30
0.0
 11
0.03037
 21
-0.01299
 31
0.0
  0
LINE
  5
57
330
1D
100
AcDbEntity
  8
0
  6
Continuous
100
AcDbLine
 10
0.030365
 20
-0.015309
 30
0.0
 11
0.030578
 21
-0.016709
 31
0.0
  0
LINE
  5
58
330
1D
100
AcDbEntity
  8
0
  6
Continuous
100
AcDbLine
 10
0.030365
 20
-0.015309
 30
0.0
 11
0.030665
 21
-0.014581
 31
0.0
  0
LINE
  5
59
330
1D
100
AcDbEntity
  8
0
  6
Continuous
100
AcDbLine
 10
-0.031141
 20
-0.014928
 30
0.0
 11
-0.03113
 21
-0.01618
 31
0.0
  0
LINE
  5
5A
330
1D
100
AcDbEntity
  8
0
  6
Continuous
100
AcDbLine
 10
-0.030577
 20
-0.013246
 30
0.0
 11
-0.031141
 21
-0.014928
 31
0.0
  0
LINE
  5
5B
330
1D
100
AcDbEntity
  8
0
  6
Continuous
100
AcDbLine
 10
-0.030574
 20
-0.014581
 30
0.0
 11
-0.030577
 21
-0.013246
 31
0.0
  0
LINE
  5
5C
330
1D
100
AcDbEntity
  8
0
  6
Continuous
100
AcDbLine
 10
0.031232
 20
-0.014928
 30
0.0
 11
0.030668
 21
-0.013246
 31
0.0
  0
LINE
  5
5D
330
1D
100
AcDbEntity
  8
0
  6
Continuous
100
AcDbLine
 10
0.03122
 20
-0.01618
 30
0.0
 11
0.031232
 21
-0.014928
 31
0.0
  0
LINE
  5
5E
330
1D
100
AcDbEntity
  8
0
  6
Continuous
100
AcDbLine
 10
0.030668
 20
-0.013246
 30
0.0
 11
0.030665
 21
-0.014581
 31
0.0
  0
LINE
  5
5F
330
1D
100
AcDbEntity
  8
0
  6
Continuous
100
AcDbLine
 10
-0.023012
 20
-0.049082
 30
0.0
 11
-0.020112
 21
-0.049537
 31
0.0
  0
LINE
  5
60
330
1D
100
AcDbEntity
  8
0
  6
Continuous
100
AcDbLine
 10
-0.020062
 20
-0.048893
 30
0.0
 11
-0.022814
 21
-0.048461
 31
0.0
  0
LINE
  5
61
330
1D
100
AcDbEntity
  8
0
  6
Continuous
100
AcDbLine
 10
-0.025671
 20
-0.047761
 30
0.0
 11
-0.023012
 21
-0.049082
 31
0.0
  0
LINE
  5
62
330
1D
100
AcDbEntity
  8
0
  6
Continuous
100
AcDbLine
 10
-0.022814
 20
-0.048461
 30
0.0
 11
-0.025298
 21
-0.047227
 31
0.0
  0
LINE
  5
63
330
1D
100
AcDbEntity
  8
0
  6
Continuous
100
AcDbLine
 10
-0.027832
 20
-0.045704
 30
0.0
 11
-0.025671
 21
-0.047761
 31
0.0
  0
LINE
  5
64
330
1D
100
AcDbEntity
  8
0
  6
Continuous
100
AcDbLine
 10
-0.025298
 20
-0.047227
 30
0.0
 11
-0.027317
 21
-0.045304
 31
0.0
  0
LINE
  5
65
330
1D
100
AcDbEntity
  8
0
  6
Continuous
100
AcDbLine
 10
-0.029281
 20
-0.043111
 30
0.0
 11
-0.027832
 21
-0.045704
 31
0.0
  0
LINE
  5
66
330
1D
100
AcDbEntity
  8
0
  6
Continuous
100
AcDbLine
 10
-0.027317
 20
-0.045304
 30
0.0
 11
-0.02867
 21
-0.042884
 31
0.0
  0
LINE
  5
67
330
1D
100
AcDbEntity
  8
0
  6
Continuous
100
AcDbLine
 10
-0.029877
 20
-0.040238
 30
0.0
 11
-0.029281
 21
-0.043111
 31
0.0
  0
LINE
  5
68
330
1D
100
AcDbEntity
  8
0
  6
Continuous
100
AcDbLine
 10
-0.02867
 20
-0.042884
 30
0.0
 11
-0.029236
 21
-0.040155
 31
0.0
  0
LINE
  5
69
330
1D
100
AcDbEntity
  8
0
  6
Continuous
100
AcDbLine
 10
0.020203
 20
-0.049537
 30
0.0
 11
0.023102
 21
-0.049082
 31
0.0
  0
LINE
  5
6A
330
1D
100
AcDbEntity
  8
0
  6
Continuous
100
AcDbLine
 10
0.022904
 20
-0.048461
 30
0.0
 11
0.020153
 21
-0.048893
 31
0.0
  0
LINE
  5
6B
330
1D
100
AcDbEntity
  8
0
  6
Continuous
100
AcDbLine
 10
0.023102
 20
-0.049082
 30
0.0
 11
0.025762
 21
-0.047761
 31
0.0
  0
LINE
  5
6C
330
1D
100
AcDbEntity
  8
0
  6
Continuous
100
AcDbLine
 10
0.025388
 20
-0.047227
 30
0.0
 11
0.022904
 21
-0.048461
 31
0.0
  0
LINE
  5
6D
330
1D
100
AcDbEntity
  8
0
  6
Continuous
100
AcDbLine
 10
0.025762
 20
-0.047761
 30
0.0
 11
0.027922
 21
-0.045704
 31
0.0
  0
LINE
  5
6E
330
1D
100
AcDbEntity
  8
0
  6
Continuous
100
AcDbLine
 10
0.027407
 20
-0.045304
 30
0.0
 11
0.025388
 21
-0.047227
 31
0.0
  0
LINE
  5
6F
330
1D
100
AcDbEntity
  8
0
  6
Continuous
100
AcDbLine
 10
0.027922
 20
-0.045704
 30
0.0
 11
0.029371
 21
-0.043111
 31
0.0
  0
LINE
  5
70
330
1D
100
AcDbEntity
  8
0
  6
Continuous
100
AcDbLine
 10
0.02876
 20
-0.042884
 30
0.0
 11
0.027407
 21
-0.045304
 31
0.0
  0
LINE
  5
71
330
1D
100
AcDbEntity
  8
0
  6
Continuous
100
AcDbLine
 10
0.029371
 20
-0.043111
 30
0.0
 11
0.029967
 21
-0.040238
 31
0.0
  0
LINE
  5
72
330
1D
100
AcDbEntity
  8
0
  6
Continuous
100
AcDbLine
 10
0.029327
 20
-0.040155
 30
0.0
 11
0.02876
 21
-0.042884
 31
0.0
  0
LINE
  5
73
330
1D
100
AcDbEntity
  8
0
  6
Continuous
100
AcDbLine
 10
-0.03113
 20
-0.01618
 30
0.0
 11
-0.031112
 21
-0.01652
 31
0.0
  0
LINE
  5
74
330
1D
100
AcDbEntity
  8
0
  6
Continuous
100
AcDbLine
 10
-0.03047
 20
-0.017041
 30
0.0
 11
-0.030488
 21
-0.016709
 31
0.0
  0
LINE
  5
75
330
1D
100
AcDbEntity
  8
0
  6
Continuous
100
AcDbLine
 10
-0.020112
 20
-0.049537
 30
0.0
 11
0.020203
 21
-0.049537
 31
0.0
  0
LINE
  5
76
330
1D
100
AcDbEntity
  8
0
  6
Continuous
100
AcDbLine
 10
0.020153
 20
-0.048893
 30
0.0
 11
-0.020062
 21
-0.048893
 31
0.0
  0
LINE
  5
77
330
1D
100
AcDbEntity
  8
0
  6
Continuous
100
AcDbLine
 10
0.031202
 20
-0.016536
 30
0.0
 11
0.03122
 21
-0.01618
 31
0.0
  0
LINE
  5
78
330
1D
100
AcDbEntity
  8
0
  6
Continuous
100
AcDbLine
 10
0.03056
 20
-0.017056
 30
0.0
 11
0.030578
 21
-0.016709
 31
0.0
  0
LINE
  5
79
330
1D
100
AcDbEntity
  8
0
  6
Continuous
100
AcDbLine
 10
0.008813
 20
-0.009901
 30
0.0
 11
0.008794
 21
-0.010213
 31
0.0
  0
LINE
  5
7A
330
1D
100
AcDbEntity
  8
0
  6
Continuous
100
AcDbLine
 10
0.008794
 20
-0.008858
 30
0.0
 11
0.008794
 21
-0.009423
 31
0.0
  0
LINE
  5
7B
330
1D
100
AcDbEntity
  8
0
  6
Continuous
100
AcDbLine
 10
0.008794
 20
-0.007963
 30
0.0
 11
0.008794
 21
-0.008858
 31
0.0
  0
LINE
  5
7C
330
1D
100
AcDbEntity
  8
0
  6
Continuous
100
AcDbLine
 10
0.013967
 20
-0.010021
 30
0.0
 11
0.013967
 21
-0.009751
 31
0.0
  0
LINE
  5
7D
330
1D
100
AcDbEntity
  8
0
  6
Continuous
100
AcDbLine
 10
0.013967
 20
-0.009401
 30
0.0
 11
0.013967
 21
-0.008867
 31
0.0
  0
LINE
  5
7E
330
1D
100
AcDbEntity
  8
0
  6
Continuous
100
AcDbLine
 10
0.008794
 20
-0.010213
 30
0.0
 11
0.008794
 21
-0.010314
 31
0.0
  0
LINE
  5
7F
330
1D
100
AcDbEntity
  8
0
  6
Continuous
100
AcDbLine
 10
0.008867
 20
-0.009401
 30
0.0
 11
0.008867
 21
-0.009751
 31
0.0
  0
LINE
  5
80
330
1D
100
AcDbEntity
  8
0
  6
Continuous
100
AcDbLine
 10
0.013967
 20
-0.008867
 30
0.0
 11
0.013967
 21
-0.007963
 31
0.0
  0
LINE
  5
81
330
1D
100
AcDbEntity
  8
0
  6
Continuous
100
AcDbLine
 10
0.013967
 20
-0.009751
 30
0.0
 11
0.013967
 21
-0.009401
 31
0.0
  0
LINE
  5
82
330
1D
100
AcDbEntity
  8
0
  6
Continuous
100
AcDbLine
 10
0.008867
 20
-0.007963
 30
0.0
 11
0.008867
 21
-0.008867
 31
0.0
  0
LINE
  5
83
330
1D
100
AcDbEntity
  8
0
  6
Continuous
100
AcDbLine
 10
0.008867
 20
-0.008867
 30
0.0
 11
0.008867
 21
-0.009401
 31
0.0
  0
LINE
  5
84
330
1D
100
AcDbEntity
  8
0
  6
Continuous
100
AcDbLine
 10
0.008867
 20
-0.009751
 30
0.0
 11
0.008867
 21
-0.01014
 31
0.0
  0
LINE
  5
85
330
1D
100
AcDbEntity
  8
0
  6
Continuous
100
AcDbLine
 10
0.008867
 20
-0.010286
 30
0.0
 11
0.008689
 21
-0.010286
 31
0.0
  0
LINE
  5
86
330
1D
100
AcDbEntity
  8
0
  6
Continuous
100
AcDbLine
 10
0.013967
 20
-0.010292
 30
0.0
 11
0.013967
 21
-0.010021
 31
0.0
  0
LINE
  5
87
330
1D
100
AcDbEntity
  8
0
  6
Continuous
100
AcDbLine
 10
0.007039
 20
-0.015125
 30
0.0
 11
0.006484
 21
-0.014181
 31
0.0
  0
LINE
  5
88
330
1D
100
AcDbEntity
  8
0
  6
Continuous
100
AcDbLine
 10
0.006484
 20
-0.014181
 30
0.0
 11
0.005526
 21
-0.013151
 31
0.0
  0
LINE
  5
89
330
1D
100
AcDbEntity
  8
0
  6
Continuous
100
AcDbLine
 10
0.005526
 20
-0.013151
 30
0.0
 11
0.004358
 21
-0.012343
 31
0.0
  0
LINE
  5
8A
330
1D
100
AcDbEntity
  8
0
  6
Continuous
100
AcDbLine
 10
0.007784
 20
-0.019695
 30
0.0
 11
0.007784
 21
-0.018177
 31
0.0
  0
LINE
  5
8B
330
1D
100
AcDbEntity
  8
0
  6
Continuous
100
AcDbLine
 10
0.006484
 20
-0.023691
 30
0.0
 11
0.007197
 21
-0.022478
 31
0.0
  0
LINE
  5
8C
330
1D
100
AcDbEntity
  8
0
  6
Continuous
100
AcDbLine
 10
0.007197
 20
-0.022478
 30
0.0
 11
0.007635
 21
-0.021129
 31
0.0
  0
LINE
  5
8D
330
1D
100
AcDbEntity
  8
0
  6
Continuous
100
AcDbLine
 10
0.00321
 20
-0.02626
 30
0.0
 11
0.003609
 21
-0.026005
 31
0.0
  0
LINE
  5
8E
330
1D
100
AcDbEntity
  8
0
  6
Continuous
100
AcDbLine
 10
0.007635
 20
-0.021129
 30
0.0
 11
0.007784
 21
-0.019695
 31
0.0
  0
LINE
  5
8F
330
1D
100
AcDbEntity
  8
0
  6
Continuous
100
AcDbLine
 10
0.000865
 20
-0.026877
 30
0.0
 11
0.001271
 21
-0.026791
 31
0.0
  0
LINE
  5
90
330
1D
100
AcDbEntity
  8
0
  6
Continuous
100
AcDbLine
 10
0.00267
 20
-0.026441
 30
0.0
 11
0.00321
 21
-0.02626
 31
0.0
  0
LINE
  5
91
330
1D
100
AcDbEntity
  8
0
  6
Continuous
100
AcDbLine
 10
-0.000715
 20
-0.026877
 30
0.0
 11
0.000865
 21
-0.026877
 31
0.0
  0
LINE
  5
92
330
1D
100
AcDbEntity
  8
0
  6
Continuous
100
AcDbLine
 10
-0.001121
 20
-0.026791
 30
0.0
 11
-0.000715
 21
-0.026877
 31
0.0
  0
LINE
  5
93
330
1D
100
AcDbEntity
  8
0
  6
Continuous
100
AcDbLine
 10
-0.00306
 20
-0.02626
 30
0.0
 11
-0.002085
 21
-0.026587
 31
0.0
  0
LINE
  5
94
330
1D
100
AcDbEntity
  8
0
  6
Continuous
100
AcDbLine
 10
-0.007047
 20
-0.022478
 30
0.0
 11
-0.006334
 21
-0.023691
 31
0.0
  0
LINE
  5
95
330
1D
100
AcDbEntity
  8
0
  6
Continuous
100
AcDbLine
 10
-0.007485
 20
-0.021129
 30
0.0
 11
-0.007047
 21
-0.022478
 31
0.0
  0
LINE
  5
96
330
1D
100
AcDbEntity
  8
0
  6
Continuous
100
AcDbLine
 10
-0.007634
 20
-0.019695
 30
0.0
 11
-0.007485
 21
-0.021129
 31
0.0
  0
LINE
  5
97
330
1D
100
AcDbEntity
  8
0
  6
Continuous
100
AcDbLine
 10
-0.003459
 20
-0.026005
 30
0.0
 11
-0.00306
 21
-0.02626
 31
0.0
  0
LINE
  5
98
330
1D
100
AcDbEntity
  8
0
  6
Continuous
100
AcDbLine
 10
-0.005376
 20
-0.013151
 30
0.0
 11
-0.006334
 21
-0.014181
 31
0.0
  0
LINE
  5
99
330
1D
100
AcDbEntity
  8
0
  6
Continuous
100
AcDbLine
 10
-0.007634
 20
-0.018935
 30
0.0
 11
-0.007634
 21
-0.019695
 31
0.0
  0
LINE
  5
9A
330
1D
100
AcDbEntity
  8
0
  6
Continuous
100
AcDbLine
 10
-0.004208
 20
-0.012343
 30
0.0
 11
-0.005376
 21
-0.013151
 31
0.0
  0
LINE
  5
9B
330
1D
100
AcDbEntity
  8
0
  6
Continuous
100
AcDbLine
 10
-0.006334
 20
-0.014181
 30
0.0
 11
-0.007047
 21
-0.015394
 31
0.0
  0
LINE
  5
9C
330
1D
100
AcDbEntity
  8
0
  6
Continuous
100
AcDbLine
 10
-0.00306
 20
-0.011613
 30
0.0
 11
-0.004208
 21
-0.012343
 31
0.0
  0
LINE
  5
9D
330
1D
100
AcDbEntity
  8
0
  6
Continuous
100
AcDbLine
 10
-0.002085
 20
-0.011285
 30
0.0
 11
-0.00306
 21
-0.011613
 31
0.0
  0
LINE
  5
9E
330
1D
100
AcDbEntity
  8
0
  6
Continuous
100
AcDbLine
 10
0.004358
 20
-0.012343
 30
0.0
 11
0.00321
 21
-0.011613
 31
0.0
  0
LINE
  5
9F
330
1D
100
AcDbEntity
  8
0
  6
Continuous
100
AcDbLine
 10
0.00321
 20
-0.011613
 30
0.0
 11
0.002234
 21
-0.011285
 31
0.0
  0
LINE
  5
A0
330
1D
100
AcDbEntity
  8
0
  6
Continuous
100
AcDbLine
 10
0.008689
 20
-0.010286
 30
0.0
 11
0.002936
 21
-0.010286
 31
0.0
  0
LINE
  5
A1
330
1D
100
AcDbEntity
  8
0
  6
Continuous
100
AcDbLine
 10
0.013967
 20
-0.010341
 30
0.0
 11
0.013967
 21
-0.010292
 31
0.0
  0
LINE
  5
A2
330
1D
100
AcDbEntity
  8
0
  6
Continuous
100
AcDbLine
 10
0.013967
 20
-0.012609
 30
0.0
 11
0.013967
 21
-0.010341
 31
0.0
  0
LINE
  5
A3
330
1D
100
AcDbEntity
  8
0
  6
Continuous
100
AcDbLine
 10
0.008867
 20
-0.01014
 30
0.0
 11
0.008867
 21
-0.010286
 31
0.0
  0
LINE
  5
A4
330
1D
100
AcDbEntity
  8
0
  6
Continuous
100
AcDbLine
 10
-0.008718
 20
-0.010213
 30
0.0
 11
-0.008737
 21
-0.009901
 31
0.0
  0
LINE
  5
A5
330
1D
100
AcDbEntity
  8
0
  6
Continuous
100
AcDbLine
 10
-0.008718
 20
-0.009423
 30
0.0
 11
-0.008718
 21
-0.008858
 31
0.0
  0
LINE
  5
A6
330
1D
100
AcDbEntity
  8
0
  6
Continuous
100
AcDbLine
 10
-0.008718
 20
-0.008858
 30
0.0
 11
-0.008718
 21
-0.007963
 31
0.0
  0
LINE
  5
A7
330
1D
100
AcDbEntity
  8
0
  6
Continuous
100
AcDbLine
 10
-0.01389
 20
-0.009751
 30
0.0
 11
-0.01389
 21
-0.010021
 31
0.0
  0
LINE
  5
A8
330
1D
100
AcDbEntity
  8
0
  6
Continuous
100
AcDbLine
 10
-0.01389
 20
-0.008867
 30
0.0
 11
-0.01389
 21
-0.009401
 31
0.0
  0
LINE
  5
A9
330
1D
100
AcDbEntity
  8
0
  6
Continuous
100
AcDbLine
 10
-0.008718
 20
-0.010314
 30
0.0
 11
-0.008718
 21
-0.010213
 31
0.0
  0
LINE
  5
AA
330
1D
100
AcDbEntity
  8
0
  6
Continuous
100
AcDbLine
 10
-0.008791
 20
-0.009751
 30
0.0
 11
-0.008791
 21
-0.009401
 31
0.0
  0
LINE
  5
AB
330
1D
100
AcDbEntity
  8
0
  6
Continuous
100
AcDbLine
 10
-0.01389
 20
-0.007963
 30
0.0
 11
-0.01389
 21
-0.008867
 31
0.0
  0
LINE
  5
AC
330
1D
100
AcDbEntity
  8
0
  6
Continuous
100
AcDbLine
 10
-0.01389
 20
-0.009401
 30
0.0
 11
-0.01389
 21
-0.009751
 31
0.0
  0
LINE
  5
AD
330
1D
100
AcDbEntity
  8
0
  6
Continuous
100
AcDbLine
 10
-0.008791
 20
-0.008867
 30
0.0
 11
-0.008791
 21
-0.007963
 31
0.0
  0
LINE
  5
AE
330
1D
100
AcDbEntity
  8
0
  6
Continuous
100
AcDbLine
 10
-0.008791
 20
-0.009401
 30
0.0
 11
-0.008791
 21
-0.008867
 31
0.0
  0
LINE
  5
AF
330
1D
100
AcDbEntity
  8
0
  6
Continuous
100
AcDbLine
 10
-0.008791
 20
-0.01014
 30
0.0
 11
-0.008791
 21
-0.009751
 31
0.0
  0
LINE
  5
B0
330
1D
100
AcDbEntity
  8
0
  6
Continuous
100
AcDbLine
 10
-0.008613
 20
-0.010286
 30
0.0
 11
-0.008791
 21
-0.010286
 31
0.0
  0
LINE
  5
B1
330
1D
100
AcDbEntity
  8
0
  6
Continuous
100
AcDbLine
 10
-0.01389
 20
-0.010021
 30
0.0
 11
-0.01389
 21
-0.010292
 31
0.0
  0
LINE
  5
B2
330
1D
100
AcDbEntity
  8
0
  6
Continuous
100
AcDbLine
 10
-0.01389
 20
-0.010292
 30
0.0
 11
-0.01389
 21
-0.010341
 31
0.0
  0
LINE
  5
B3
330
1D
100
AcDbEntity
  8
0
  6
Continuous
100
AcDbLine
 10
-0.01389
 20
-0.010341
 30
0.0
 11
-0.01389
 21
-0.012476
 31
0.0
  0
LINE
  5
B4
330
1D
100
AcDbEntity
  8
0
  6
Continuous
100
AcDbLine
 10
-0.008791
 20
-0.010286
 30
0.0
 11
-0.008791
 21
-0.01014
 31
0.0
  0
LINE
  5
B5
330
1D
100
AcDbEntity
  8
0
  6
Continuous
100
AcDbLine
 10
-0.002909
 20
-0.010286
 30
0.0
 11
-0.008613
 21
-0.010286
 31
0.0
  0
LINE
  5
B6
330
1D
100
AcDbEntity
  8
0
  6
Continuous
100
AcDbLine
 10
0.004296
 20
-0.010526
 30
0.0
 11
0.006269
 21
-0.009799
 31
0.0
  0
LINE
  5
B7
330
1D
100
AcDbEntity
  8
0
  6
Continuous
100
AcDbLine
 10
0.00244
 20
-0.010915
 30
0.0
 11
0.004296
 21
-0.010526
 31
0.0
  0
LINE
  5
B8
330
1D
100
AcDbEntity
  8
0
  6
Continuous
100
AcDbLine
 10
0.007998
 20
-0.00882
 30
0.0
 11
0.009418
 21
-0.007627
 31
0.0
  0
LINE
  5
B9
330
1D
100
AcDbEntity
  8
0
  6
Continuous
100
AcDbLine
 10
0.006269
 20
-0.009799
 30
0.0
 11
0.007998
 21
-0.00882
 31
0.0
  0
LINE
  5
BA
330
1D
100
AcDbEntity
  8
0
  6
Continuous
100
AcDbLine
 10
-0.006411
 20
-0.009799
 30
0.0
 11
-0.004438
 21
-0.010526
 31
0.0
  0
LINE
  5
BB
330
1D
100
AcDbEntity
  8
0
  6
Continuous
100
AcDbLine
 10
-0.004438
 20
-0.010526
 30
0.0
 11
-0.002515
 21
-0.010929
 31
0.0
  0
LINE
  5
BC
330
1D
100
AcDbEntity
  8
0
  6
Continuous
100
AcDbLine
 10
-0.00956
 20
-0.007627
 30
0.0
 11
-0.00814
 21
-0.00882
 31
0.0
  0
LINE
  5
BD
330
1D
100
AcDbEntity
  8
0
  6
Continuous
100
AcDbLine
 10
-0.00814
 20
-0.00882
 30
0.0
 11
-0.006411
 21
-0.009799
 31
0.0
  0
LINE
  5
BE
330
1D
100
AcDbEntity
  8
0
  6
Continuous
100
AcDbLine
 10
0.020195
 20
-0.009146
 30
0.0
 11
0.020195
 21
-0.007398
 31
0.0
  0
LINE
  5
BF
330
1D
100
AcDbEntity
  8
0
  6
Continuous
100
AcDbLine
 10
0.015431
 20
-0.007398
 30
0.0
 11
0.015431
 21
-0.009146
 31
0.0
  0
LINE
  5
C0
330
1D
100
AcDbEntity
  8
0
  6
Continuous
100
AcDbLine
 10
0.016069
 20
-0.009291
 30
0.0
 11
0.017175
 21
-0.009291
 31
0.0
  0
LINE
  5
C1
330
1D
100
AcDbEntity
  8
0
  6
Continuous
100
AcDbLine
 10
0.017175
 20
-0.009291
 30
0.0
 11
0.018451
 21
-0.009291
 31
0.0
  0
LINE
  5
C2
330
1D
100
AcDbEntity
  8
0
  6
Continuous
100
AcDbLine
 10
0.018451
 20
-0.009291
 30
0.0
 11
0.019557
 21
-0.009291
 31
0.0
  0
LINE
  5
C3
330
1D
100
AcDbEntity
  8
0
  6
Continuous
100
AcDbLine
 10
0.020195
 20
-0.009291
 30
0.0
 11
0.020195
 21
-0.009146
 31
0.0
  0
LINE
  5
C4
330
1D
100
AcDbEntity
  8
0
  6
Continuous
100
AcDbLine
 10
0.019557
 20
-0.009291
 30
0.0
 11
0.020195
 21
-0.009291
 31
0.0
  0
LINE
  5
C5
330
1D
100
AcDbEntity
  8
0
  6
Continuous
100
AcDbLine
 10
0.015431
 20
-0.009146
 30
0.0
 11
0.015431
 21
-0.009291
 31
0.0
  0
LINE
  5
C6
330
1D
100
AcDbEntity
  8
0
  6
Continuous
100
AcDbLine
 10
0.015431
 20
-0.009291
 30
0.0
 11
0.016069
 21
-0.009291
 31
0.0
  0
LINE
  5
C7
330
1D
100
AcDbEntity
  8
0
  6
Continuous
100
AcDbLine
 10
-0.01543
 20
-0.009146
 30
0.0
 11
-0.01543
 21
-0.007398
 31
0.0
  0
LINE
  5
C8
330
1D
100
AcDbEntity
  8
0
  6
Continuous
100
AcDbLine
 10
-0.020194
 20
-0.007398
 30
0.0
 11
-0.020194
 21
-0.009146
 31
0.0
  0
LINE
  5
C9
330
1D
100
AcDbEntity
  8
0
  6
Continuous
100
AcDbLine
 10
-0.019556
 20
-0.009291
 30
0.0
 11
-0.01845
 21
-0.009291
 31
0.0
  0
LINE
  5
CA
330
1D
100
AcDbEntity
  8
0
  6
Continuous
100
AcDbLine
 10
-0.01845
 20
-0.009291
 30
0.0
 11
-0.017174
 21
-0.009291
 31
0.0
  0
LINE
  5
CB
330
1D
100
AcDbEntity
  8
0
  6
Continuous
100
AcDbLine
 10
-0.017174
 20
-0.009291
 30
0.0
 11
-0.016068
 21
-0.009291
 31
0.0
  0
LINE
  5
CC
330
1D
100
AcDbEntity
  8
0
  6
Continuous
100
AcDbLine
 10
-0.01543
 20
-0.009291
 30
0.0
 11
-0.01543
 21
-0.009146
 31
0.0
  0
LINE
  5
CD
330
1D
100
AcDbEntity
  8
0
  6
Continuous
100
AcDbLine
 10
-0.016068
 20
-0.009291
 30
0.0
 11
-0.01543
 21
-0.009291
 31
0.0
  0
LINE
  5
CE
330
1D
100
AcDbEntity
  8
0
  6
Continuous
100
AcDbLine
 10
-0.020194
 20
-0.009146
 30
0.0
 11
-0.020194
 21
-0.009291
 31
0.0
  0
LINE
  5
CF
330
1D
100
AcDbEntity
  8
0
  6
Continuous
100
AcDbLine
 10
-0.020194
 20
-0.009291
 30
0.0
 11
-0.019556
 21
-0.009291
 31
0.0
  0
LINE
  5
D0
330
1D
100
AcDbEntity
  8
0
  6
Continuous
100
AcDbLine
 10
0.0006
 20
-0.012508
 30
0.0
 11
0.001706
 21
-0.012444
 31
0.0
  0
LINE
  5
D1
330
1D
100
AcDbEntity
  8
0
  6
Continuous
100
AcDbLine
 10
0.001706
 20
-0.012444
 30
0.0
 11
0.002344
 21
-0.012331
 31
0.0
  0
LINE
  5
D2
330
1D
100
AcDbEntity
  8
0
  6
Continuous
100
AcDbLine
 10
0.002344
 20
-0.012331
 30
0.0
 11
0.002344
 21
-0.012201
 31
0.0
  0
LINE
  5
D3
330
1D
100
AcDbEntity
  8
0
  6
Continuous
100
AcDbLine
 10
0.002344
 20
-0.012201
 30
0.0
 11
0.001706
 21
-0.012089
 31
0.0
  0
LINE
  5
D4
330
1D
100
AcDbEntity
  8
0
  6
Continuous
100
AcDbLine
 10
0.001706
 20
-0.012089
 30
0.0
 11
0.0006
 21
-0.012024
 31
0.0
  0
LINE
  5
D5
330
1D
100
AcDbEntity
  8
0
  6
Continuous
100
AcDbLine
 10
0.0006
 20
-0.012024
 30
0.0
 11
-0.000676
 21
-0.012024
 31
0.0
  0
LINE
  5
D6
330
1D
100
AcDbEntity
  8
0
  6
Continuous
100
AcDbLine
 10
-0.000676
 20
-0.012024
 30
0.0
 11
-0.001782
 21
-0.012089
 31
0.0
  0
LINE
  5
D7
330
1D
100
AcDbEntity
  8
0
  6
Continuous
100
AcDbLine
 10
-0.001782
 20
-0.012089
 30
0.0
 11
-0.00242
 21
-0.012201
 31
0.0
  0
LINE
  5
D8
330
1D
100
AcDbEntity
  8
0
  6
Continuous
100
AcDbLine
 10
-0.00242
 20
-0.012201
 30
0.0
 11
-0.00242
 21
-0.012331
 31
0.0
  0
LINE
  5
D9
330
1D
100
AcDbEntity
  8
0
  6
Continuous
100
AcDbLine
 10
-0.00242
 20
-0.012331
 30
0.0
 11
-0.001782
 21
-0.012444
 31
0.0
  0
LINE
  5
DA
330
1D
100
AcDbEntity
  8
0
  6
Continuous
100
AcDbLine
 10
-0.001782
 20
-0.012444
 30
0.0
 11
-0.000676
 21
-0.012508
 31
0.0
  0
LINE
  5
DB
330
1D
100
AcDbEntity
  8
0
  6
Continuous
100
AcDbLine
 10
-0.000676
 20
-0.012508
 30
0.0
 11
0.0006
 21
-0.012508
 31
0.0
  0
LINE
  5
DC
330
1D
100
AcDbEntity
  8
0
  6
Continuous
100
AcDbLine
 10
0.002357
 20
-0.01215
 30
0.0
 11
0.00264
 21
-0.007963
 31
0.0
  0
LINE
  5
DD
330
1D
100
AcDbEntity
  8
0
  6
Continuous
100
AcDbLine
 10
-0.002715
 20
-0.007963
 30
0.0
 11
-0.002432
 21
-0.01215
 31
0.0
  0
LINE
  5
DE
330
1D
100
AcDbEntity
  8
0
  6
Continuous
100
AcDbLine
 10
0.022972
 20
-0.006664
 30
0.0
 11
0.022972
 21
-0.000543
 31
0.0
  0
LINE
  5
DF
330
1D
100
AcDbEntity
  8
0
  6
Continuous
100
AcDbLine
 10
-0.023114
 20
-0.000543
 30
0.0
 11
-0.023114
 21
-0.006664
 31
0.0
  0
LINE
  5
E0
330
1D
100
AcDbEntity
  8
0
  6
Continuous
100
AcDbLine
 10
0.022187
 20
-0.007963
 30
0.0
 11
0.022972
 21
-0.007963
 31
0.0
  0
LINE
  5
E1
330
1D
100
AcDbEntity
  8
0
  6
Continuous
100
AcDbLine
 10
0.022972
 20
-0.007963
 30
0.0
 11
0.022972
 21
-0.006664
 31
0.0
  0
LINE
  5
E2
330
1D
100
AcDbEntity
  8
0
  6
Continuous
100
AcDbLine
 10
0.019885
 20
-0.007963
 30
0.0
 11
0.022187
 21
-0.007963
 31
0.0
  0
LINE
  5
E3
330
1D
100
AcDbEntity
  8
0
  6
Continuous
100
AcDbLine
 10
0.016223
 20
-0.007963
 30
0.0
 11
0.019885
 21
-0.007963
 31
0.0
  0
LINE
  5
E4
330
1D
100
AcDbEntity
  8
0
  6
Continuous
100
AcDbLine
 10
0.01145
 20
-0.007963
 30
0.0
 11
0.016223
 21
-0.007963
 31
0.0
  0
LINE
  5
E5
330
1D
100
AcDbEntity
  8
0
  6
Continuous
100
AcDbLine
 10
0.005893
 20
-0.007963
 30
0.0
 11
0.01145
 21
-0.007963
 31
0.0
  0
LINE
  5
E6
330
1D
100
AcDbEntity
  8
0
  6
Continuous
100
AcDbLine
 10
-0.000071
 20
-0.007963
 30
0.0
 11
0.005893
 21
-0.007963
 31
0.0
  0
LINE
  5
E7
330
1D
100
AcDbEntity
  8
0
  6
Continuous
100
AcDbLine
 10
-0.006035
 20
-0.007963
 30
0.0
 11
-0.000071
 21
-0.007963
 31
0.0
  0
LINE
  5
E8
330
1D
100
AcDbEntity
  8
0
  6
Continuous
100
AcDbLine
 10
-0.011592
 20
-0.007963
 30
0.0
 11
-0.006035
 21
-0.007963
 31
0.0
  0
LINE
  5
E9
330
1D
100
AcDbEntity
  8
0
  6
Continuous
100
AcDbLine
 10
-0.016365
 20
-0.007963
 30
0.0
 11
-0.011592
 21
-0.007963
 31
0.0
  0
LINE
  5
EA
330
1D
100
AcDbEntity
  8
0
  6
Continuous
100
AcDbLine
 10
-0.020026
 20
-0.007963
 30
0.0
 11
-0.016365
 21
-0.007963
 31
0.0
  0
LINE
  5
EB
330
1D
100
AcDbEntity
  8
0
  6
Continuous
100
AcDbLine
 10
-0.022328
 20
-0.007963
 30
0.0
 11
-0.020026
 21
-0.007963
 31
0.0
  0
LINE
  5
EC
330
1D
100
AcDbEntity
  8
0
  6
Continuous
100
AcDbLine
 10
-0.023114
 20
-0.007963
 30
0.0
 11
-0.022328
 21
-0.007963
 31
0.0
  0
LINE
  5
ED
330
1D
100
AcDbEntity
  8
0
  6
Continuous
100
AcDbLine
 10
-0.023114
 20
-0.006664
 30
0.0
 11
-0.023114
 21
-0.007963
 31
0.0
  0
LINE
  5
EE
330
1D
100
AcDbEntity
  8
0
  6
Continuous
100
AcDbLine
 10
-0.028716
 20
-0.012476
 30
0.0
 11
-0.029056
 21
-0.012476
 31
0.0
  0
LINE
  5
EF
330
1D
100
AcDbEntity
  8
0
  6
Continuous
100
AcDbLine
 10
0.029147
 20
-0.012476
 30
0.0
 11
0.028806
 21
-0.012476
 31
0.0
  0
LINE
  5
F0
330
1D
100
AcDbEntity
  8
0
  6
Continuous
100
AcDbLine
 10
-0.031112
 20
-0.01652
 30
0.0
 11
-0.029877
 21
-0.040238
 31
0.0
  0
LINE
  5
F1
330
1D
100
AcDbEntity
  8
0
  6
Continuous
100
AcDbLine
 10
-0.029236
 20
-0.040155
 30
0.0
 11
-0.03047
 21
-0.017041
 31
0.0
  0
LINE
  5
F2
330
1D
100
AcDbEntity
  8
0
  6
Continuous
100
AcDbLine
 10
0.029967
 20
-0.040238
 30
0.0
 11
0.031202
 21
-0.016536
 31
0.0
  0
LINE
  5
F3
330
1D
100
AcDbEntity
  8
0
  6
Continuous
100
AcDbLine
 10
0.029327
 20
-0.040155
 30
0.0
 11
0.03056
 21
-0.017056
 31
0.0
  0
LINE
  5
F4
330
1D
100
AcDbEntity
  8
0
  6
Continuous
100
AcDbLine
 10
0.058505
 20
0.043537
 30
0.0
 11
-0.000115
 21
0.043537
 31
0.0
  0
LINE
  5
F5
330
1D
100
AcDbEntity
  8
0
  6
Continuous
100
AcDbLine
 10
-0.039472
 20
0.023537
 30
0.0
 11
-0.000115
 21
0.023537
 31
0.0
  0
LINE
  5
F6
330
1D
100
AcDbEntity
  8
0
  6
Continuous
100
AcDbLine
 10
-0.000115
 20
0.032537
 30
0.0
 11
-0.065221
 21
0.032537
 31
0.0
  0
LINE
  5
F7
330
1D
100
AcDbEntity
  8
0
  6
Continuous
100
AcDbLine
 10
-0.000115
 20
0.043537
 30
0.0
 11
-0.065221
 21
0.043537
 31
0.0
  0
LINE
  5
F8
330
1D
100
AcDbEntity
  8
0
  6
Continuous
100
AcDbLine
 10
0.060195
 20
0.043537
 30
0.0
 11
0.058505
 21
0.043537
 31
0.0
  0
LINE
  5
F9
330
1D
100
AcDbEntity
  8
0
  6
Continuous
100
AcDbLine
 10
-0.000115
 20
0.043537
 30
0.0
 11
-0.058618
 21
0.043537
 31
0.0
  0
LINE
  5
FA
330
1D
100
AcDbEntity
  8
0
  6
Continuous
100
AcDbLine
 10
-0.058618
 20
0.043537
 30
0.0
 11
-0.060198
 21
0.043537
 31
0.0
  0
LINE
  5
FB
330
1D
100
AcDbEntity
  8
0
  6
Continuous
100
AcDbLine
 10
-0.000115
 20
0.023537
 30
0.0
 11
0.039358
 21
0.023537
 31
0.0
  0
LINE
  5
FC
330
1D
100
AcDbEntity
  8
0
  6
Continuous
100
AcDbLine
 10
0.065107
 20
0.032537
 30
0.0
 11
-0.000115
 21
0.032537
 31
0.0
  0
LINE
  5
FD
330
1D
100
AcDbEntity
  8
0
  6
Continuous
100
AcDbLine
 10
0.065107
 20
0.043537
 30
0.0
 11
-0.000115
 21
0.043537
 31
0.0
  0
LINE
  5
FE
330
1D
100
AcDbEntity
  8
0
  6
Continuous
100
AcDbLine
 10
-0.042275
 20
0.023964
 30
0.0
 11
-0.041052
 21
0.023537
 31
0.0
  0
LINE
  5
FF
330
1D
100
AcDbEntity
  8
0
  6
Continuous
100
AcDbLine
 10
-0.041052
 20
0.023537
 30
0.0
 11
-0.039472
 21
0.023537
 31
0.0
  0
LINE
  5
100
330
1D
100
AcDbEntity
  8
0
  6
Continuous
100
AcDbLine
 10
-0.065514
 20
0.032087
 30
0.0
 11
-0.042275
 21
0.023964
 31
0.0
  0
LINE
  5
101
330
1D
100
AcDbEntity
  8
0
  6
Continuous
100
AcDbLine
 10
-0.066801
 20
0.033032
 30
0.0
 11
-0.066801
 21
0.032537
 31
0.0
  0
LINE
  5
102
330
1D
100
AcDbEntity
  8
0
  6
Continuous
100
AcDbLine
 10
-0.066801
 20
0.042437
 30
0.0
 11
-0.066801
 21
0.033032
 31
0.0
  0
LINE
  5
103
330
1D
100
AcDbEntity
  8
0
  6
Continuous
100
AcDbLine
 10
-0.066801
 20
0.032537
 30
0.0
 11
-0.065514
 21
0.032087
 31
0.0
  0
LINE
  5
104
330
1D
100
AcDbEntity
  8
0
  6
Continuous
100
AcDbLine
 10
-0.065221
 20
0.032537
 30
0.0
 11
-0.066801
 21
0.032537
 31
0.0
  0
LINE
  5
105
330
1D
100
AcDbEntity
  8
0
  6
Continuous
100
AcDbLine
 10
-0.066801
 20
0.043537
 30
0.0
 11
-0.066801
 21
0.042437
 31
0.0
  0
LINE
  5
106
330
1D
100
AcDbEntity
  8
0
  6
Continuous
100
AcDbLine
 10
-0.065221
 20
0.043537
 30
0.0
 11
-0.066801
 21
0.043537
 31
0.0
  0
LINE
  5
107
330
1D
100
AcDbEntity
  8
0
  6
Continuous
100
AcDbLine
 10
0.041049
 20
0.023537
 30
0.0
 11
0.042272
 21
0.023964
 31
0.0
  0
LINE
  5
108
330
1D
100
AcDbEntity
  8
0
  6
Continuous
100
AcDbLine
 10
0.039358
 20
0.023537
 30
0.0
 11
0.041049
 21
0.023537
 31
0.0
  0
LINE
  5
109
330
1D
100
AcDbEntity
  8
0
  6
Continuous
100
AcDbLine
 10
0.042272
 20
0.023964
 30
0.0
 11
0.06551
 21
0.032087
 31
0.0
  0
LINE
  5
10A
330
1D
100
AcDbEntity
  8
0
  6
Continuous
100
AcDbLine
 10
0.066798
 20
0.032537
 30
0.0
 11
0.066798
 21
0.033032
 31
0.0
  0
LINE
  5
10B
330
1D
100
AcDbEntity
  8
0
  6
Continuous
100
AcDbLine
 10
0.066798
 20
0.033032
 30
0.0
 11
0.066798
 21
0.042437
 31
0.0
  0
LINE
  5
10C
330
1D
100
AcDbEntity
  8
0
  6
Continuous
100
AcDbLine
 10
0.066798
 20
0.032537
 30
0.0
 11
0.065107
 21
0.032537
 31
0.0
  0
LINE
  5
10D
330
1D
100
AcDbEntity
  8
0
  6
Continuous
100
AcDbLine
 10
0.066798
 20
0.043537
 30
0.0
 11
0.065107
 21
0.043537
 31
0.0
  0
LINE
  5
10E
330
1D
100
AcDbEntity
  8
0
  6
Continuous
100
AcDbLine
 10
0.066798
 20
0.042437
 30
0.0
 11
0.066798
 21
0.043537
 31
0.0
  0
LINE
  5
10F
330
1D
100
AcDbEntity
  8
0
  6
Continuous
100
AcDbLine
 10
-0.064984
 20
0.023457
 30
0.0
 11
-0.068421
 21
0.023457
 31
0.0
  0
LINE
  5
110
330
1D
100
AcDbEntity
  8
0
  6
Continuous
100
AcDbLine
 10
0.064824
 20
0.023457
 30
0.0
 11
-0.064984
 21
0.023457
 31
0.0
  0
LINE
  5
111
330
1D
100
AcDbEntity
  8
0
  6
Continuous
100
AcDbLine
 10
0.06842
 20
0.023457
 30
0.0
 11
0.064824
 21
0.023457
 31
0.0
  0
LINE
  5
112
330
1D
100
AcDbEntity
  8
0
  6
Continuous
100
AcDbLine
 10
0.071665
 20
0.023457
 30
0.0
 11
0.06842
 21
0.023457
 31
0.0
  0
LINE
  5
113
330
1D
100
AcDbEntity
  8
0
  6
Continuous
100
AcDbLine
 10
0.073833
 20
0.023457
 30
0.0
 11
0.071665
 21
0.023457
 31
0.0
  0
LINE
  5
114
330
1D
100
AcDbEntity
  8
0
  6
Continuous
100
AcDbLine
 10
0.074594
 20
0.023457
 30
0.0
 11
0.073833
 21
0.023457
 31
0.0
  0
LINE
  5
115
330
1D
100
AcDbEntity
  8
0
  6
Continuous
100
AcDbLine
 10
0.074609
 20
0.022573
 30
0.0
 11
0.074594
 21
0.023457
 31
0.0
  0
LINE
  5
116
330
1D
100
AcDbEntity
  8
0
  6
Continuous
100
AcDbLine
 10
-0.074595
 20
0.023457
 30
0.0
 11
-0.07461
 21
0.022573
 31
0.0
  0
LINE
  5
117
330
1D
100
AcDbEntity
  8
0
  6
Continuous
100
AcDbLine
 10
-0.073834
 20
0.023457
 30
0.0
 11
-0.074595
 21
0.023457
 31
0.0
  0
LINE
  5
118
330
1D
100
AcDbEntity
  8
0
  6
Continuous
100
AcDbLine
 10
-0.071666
 20
0.023457
 30
0.0
 11
-0.073834
 21
0.023457
 31
0.0
  0
LINE
  5
119
330
1D
100
AcDbEntity
  8
0
  6
Continuous
100
AcDbLine
 10
-0.068421
 20
0.023457
 30
0.0
 11
-0.071666
 21
0.023457
 31
0.0
  0
LINE
  5
11A
330
1D
100
AcDbEntity
  8
0
  6
Continuous
100
AcDbLine
 10
0.074968
 20
0.000518
 30
0.0
 11
0.074609
 21
0.022573
 31
0.0
  0
LINE
  5
11B
330
1D
100
AcDbEntity
  8
0
  6
Continuous
100
AcDbLine
 10
-0.07461
 20
0.022573
 30
0.0
 11
-0.074969
 21
0.000518
 31
0.0
  0
LINE
  5
11C
330
1D
100
AcDbEntity
  8
0
  6
Continuous
100
AcDbLine
 10
-0.068812
 20
-0.000543
 30
0.0
 11
-0.064984
 21
-0.000543
 31
0.0
  0
LINE
  5
11D
330
1D
100
AcDbEntity
  8
0
  6
Continuous
100
AcDbLine
 10
-0.064984
 20
-0.000543
 30
0.0
 11
0.064824
 21
-0.000543
 31
0.0
  0
LINE
  5
11E
330
1D
100
AcDbEntity
  8
0
  6
Continuous
100
AcDbLine
 10
0.064824
 20
-0.000543
 30
0.0
 11
0.068812
 21
-0.000543
 31
0.0
  0
LINE
  5
11F
330
1D
100
AcDbEntity
  8
0
  6
Continuous
100
AcDbLine
 10
0.068812
 20
-0.000543
 30
0.0
 11
0.072056
 21
-0.000543
 31
0.0
  0
LINE
  5
120
330
1D
100
AcDbEntity
  8
0
  6
Continuous
100
AcDbLine
 10
0.072056
 20
-0.000543
 30
0.0
 11
0.074224
 21
-0.000543
 31
0.0
  0
LINE
  5
121
330
1D
100
AcDbEntity
  8
0
  6
Continuous
100
AcDbLine
 10
0.074224
 20
-0.000543
 30
0.0
 11
0.074986
 21
-0.000543
 31
0.0
  0
LINE
  5
122
330
1D
100
AcDbEntity
  8
0
  6
Continuous
100
AcDbLine
 10
0.074986
 20
-0.000543
 30
0.0
 11
0.074968
 21
0.000518
 31
0.0
  0
LINE
  5
123
330
1D
100
AcDbEntity
  8
0
  6
Continuous
100
AcDbLine
 10
-0.074986
 20
-0.000543
 30
0.0
 11
-0.074224
 21
-0.000543
 31
0.0
  0
LINE
  5
124
330
1D
100
AcDbEntity
  8
0
  6
Continuous
100
AcDbLine
 10
-0.074969
 20
0.000518
 30
0.0
 11
-0.074986
 21
-0.000543
 31
0.0
  0
LINE
  5
125
330
1D
100
AcDbEntity
  8
0
  6
Continuous
100
AcDbLine
 10
-0.074224
 20
-0.000543
 30
0.0
 11
-0.072056
 21
-0.000543
 31
0.0
  0
LINE
  5
126
330
1D
100
AcDbEntity
  8
0
  6
Continuous
100
AcDbLine
 10
-0.072056
 20
-0.000543
 30
0.0
 11
-0.068812
 21
-0.000543
 31
0.0
  0
LINE
  5
127
330
1D
100
AcDbEntity
  8
0
  6
Continuous
100
AcDbLine
 10
-0.007383
 20
-0.016903
 30
0.0
 11
-0.007047
 21
-0.0155
 31
0.0
  0
LINE
  5
128
330
1D
100
AcDbEntity
  8
0
  6
Continuous
100
AcDbLine
 10
-0.007634
 20
-0.018935
 30
0.0
 11
-0.007485
 21
-0.017276
 31
0.0
  0
LINE
  5
129
330
1D
100
AcDbEntity
  8
0
  6
Continuous
100
AcDbLine
 10
-0.005019
 20
-0.024948
 30
0.0
 11
-0.003459
 21
-0.026005
 31
0.0
  0
LINE
  5
2CE
330
1D
100
AcDbEntity
  8
0
  6
Continuous
100
AcDbLine
 10
0.3257827866781429
 20
0.049537
 30
0.0
 11
0.2308467866781429
 21
0.049537
 31
0.0
  0
LINE
  5
2CF
330
1D
100
AcDbEntity
  8
0
  6
Continuous
100
AcDbLine
 10
0.3350207866781429
 20
0.049537
 30
0.0
 11
0.3328537866781429
 21
0.049537
 31
0.0
  0
LINE
  5
2D0
330
1D
100
AcDbEntity
  8
0
  6
Continuous
100
AcDbLine
 10
0.3328537866781429
 20
0.049537
 30
0.0
 11
0.3296087866781429
 21
0.049537
 31
0.0
  0
LINE
  5
2D1
330
1D
100
AcDbEntity
  8
0
  6
Continuous
100
AcDbLine
 10
0.3296087866781429
 20
0.049537
 30
0.0
 11
0.3257827866781429
 21
0.049537
 31
0.0
  0
LINE
  5
2D2
330
1D
100
AcDbEntity
  8
0
  6
Continuous
100
AcDbLine
 10
0.2308467866781429
 20
0.049537
 30
0.0
 11
0.2302147866781429
 21
0.049537
 31
0.0
  0
LINE
  5
2D3
330
1D
100
AcDbEntity
  8
0
  6
Continuous
100
AcDbLine
 10
0.3303917866781429
 20
0.023537
 30
0.0
 11
0.3297557866781429
 21
0.023537
 31
0.0
  0
LINE
  5
2D4
330
1D
100
AcDbEntity
  8
0
  6
Continuous
100
AcDbLine
 10
0.3324617866781429
 20
0.023537
 30
0.0
 11
0.3336357866781429
 21
0.023537
 31
0.0
  0
LINE
  5
2D5
330
1D
100
AcDbEntity
  8
0
  6
Continuous
100
AcDbLine
 10
0.3297557866781429
 20
0.023537
 30
0.0
 11
0.3324617866781429
 21
0.023537
 31
0.0
  0
LINE
  5
2D6
330
1D
100
AcDbEntity
  8
0
  6
Continuous
100
AcDbLine
 10
0.3336357866781429
 20
0.023537
 30
0.0
 11
0.3324617866781429
 21
0.023537
 31
0.0
  0
LINE
  5
2D7
330
1D
100
AcDbEntity
  8
0
  6
Continuous
100
AcDbLine
 10
0.3303917866781429
 20
0.023537
 30
0.0
 11
0.3336357866781429
 21
0.023537
 31
0.0
  0
LINE
  5
2D8
330
1D
100
AcDbEntity
  8
0
  6
Continuous
100
AcDbLine
 10
0.3297557866781429
 20
0.023537
 30
0.0
 11
0.3303917866781429
 21
0.023537
 31
0.0
  0
LINE
  5
2D9
330
1D
100
AcDbEntity
  8
0
  6
Continuous
100
AcDbLine
 10
0.3324617866781429
 20
0.023537
 30
0.0
 11
0.3297557866781429
 21
0.023537
 31
0.0
  0
LINE
  5
2DA
330
1D
100
AcDbEntity
  8
0
  6
Continuous
100
AcDbLine
 10
0.3357827866781429
 20
0.049537
 30
0.0
 11
0.3350207866781429
 21
0.049537
 31
0.0
  0
LINE
  5
2DB
330
1D
100
AcDbEntity
  8
0
  6
Continuous
100
AcDbLine
 10
0.3357787866781429
 20
0.048476
 30
0.0
 11
0.3357827866781429
 21
0.049537
 31
0.0
  0
LINE
  5
2DC
330
1D
100
AcDbEntity
  8
0
  6
Continuous
100
AcDbLine
 10
0.3365677866781429
 20
0.024422
 30
0.0
 11
0.3357787866781429
 21
0.048476
 31
0.0
  0
LINE
  5
2DD
330
1D
100
AcDbEntity
  8
0
  6
Continuous
100
AcDbLine
 10
0.2288397866781429
 20
0.023537
 30
0.0
 11
0.2294727866781429
 21
0.023537
 31
0.0
  0
LINE
  5
2DE
330
1D
100
AcDbEntity
  8
0
  6
Continuous
100
AcDbLine
 10
0.2294727866781429
 20
0.023537
 30
0.0
 11
0.3265647866781429
 21
0.023537
 31
0.0
  0
LINE
  5
2DF
330
1D
100
AcDbEntity
  8
0
  6
Continuous
100
AcDbLine
 10
0.3336357866781429
 20
0.023537
 30
0.0
 11
0.3358037866781429
 21
0.023537
 31
0.0
  0
LINE
  5
2E0
330
1D
100
AcDbEntity
  8
0
  6
Continuous
100
AcDbLine
 10
0.3303917866781429
 20
0.023537
 30
0.0
 11
0.3336357866781429
 21
0.023537
 31
0.0
  0
LINE
  5
2E1
330
1D
100
AcDbEntity
  8
0
  6
Continuous
100
AcDbLine
 10
0.3265647866781429
 20
0.023537
 30
0.0
 11
0.3303917866781429
 21
0.023537
 31
0.0
  0
LINE
  5
2E2
330
1D
100
AcDbEntity
  8
0
  6
Continuous
100
AcDbLine
 10
0.3358037866781429
 20
0.023537
 30
0.0
 11
0.3365647866781429
 21
0.023537
 31
0.0
  0
LINE
  5
2E3
330
1D
100
AcDbEntity
  8
0
  6
Continuous
100
AcDbLine
 10
0.3365647866781429
 20
0.023537
 30
0.0
 11
0.3365677866781429
 21
0.024422
 31
0.0
  0
LINE
  5
2E4
330
1D
100
AcDbEntity
  8
0
  6
Continuous
100
AcDbLine
 10
0.2302147866781429
 20
0.049537
 30
0.0
 11
0.2285527866781429
 21
0.049537
 31
0.0
  0
LINE
  5
2E5
330
1D
100
AcDbEntity
  8
0
  6
Continuous
100
AcDbLine
 10
0.2280267866781429
 20
0.049537
 30
0.0
 11
0.2280267866781429
 21
0.048476
 31
0.0
  0
LINE
  5
2E6
330
1D
100
AcDbEntity
  8
0
  6
Continuous
100
AcDbLine
 10
0.2285527866781429
 20
0.049537
 30
0.0
 11
0.2280267866781429
 21
0.049537
 31
0.0
  0
LINE
  5
2E7
330
1D
100
AcDbEntity
  8
0
  6
Continuous
100
AcDbLine
 10
0.2285527866781429
 20
0.048476
 30
0.0
 11
0.2285527866781429
 21
0.049537
 31
0.0
  0
LINE
  5
2E8
330
1D
100
AcDbEntity
  8
0
  6
Continuous
100
AcDbLine
 10
0.2266527866781429
 20
0.023537
 30
0.0
 11
0.2271787866781429
 21
0.023537
 31
0.0
  0
LINE
  5
2E9
330
1D
100
AcDbEntity
  8
0
  6
Continuous
100
AcDbLine
 10
0.2266527866781429
 20
0.024421
 30
0.0
 11
0.2266527866781429
 21
0.023537
 31
0.0
  0
LINE
  5
2EA
330
1D
100
AcDbEntity
  8
0
  6
Continuous
100
AcDbLine
 10
0.2271787866781429
 20
0.023537
 30
0.0
 11
0.2288397866781429
 21
0.023537
 31
0.0
  0
LINE
  5
2EB
330
1D
100
AcDbEntity
  8
0
  6
Continuous
100
AcDbLine
 10
0.2271787866781429
 20
0.024421
 30
0.0
 11
0.2271787866781429
 21
0.023537
 31
0.0
  0
LINE
  5
2EC
330
1D
100
AcDbEntity
  8
0
  6
Continuous
100
AcDbLine
 10
0.2280267866781429
 20
0.048476
 30
0.0
 11
0.2266527866781429
 21
0.024421
 31
0.0
  0
LINE
  5
2ED
330
1D
100
AcDbEntity
  8
0
  6
Continuous
100
AcDbLine
 10
0.2271787866781429
 20
0.024421
 30
0.0
 11
0.2285527866781429
 21
0.048476
 31
0.0
  0
LINE
  5
2EE
330
1D
100
AcDbEntity
  8
0
  6
Continuous
100
AcDbLine
 10
0.2580767866781429
 20
-0.049537
 30
0.0
 11
0.2597977866781429
 21
-0.049537
 31
0.0
  0
LINE
  5
2EF
330
1D
100
AcDbEntity
  8
0
  6
Continuous
100
AcDbLine
 10
0.262200786678143
 20
-0.04413
 30
0.0
 11
0.2623287866781429
 21
-0.03991
 31
0.0
  0
LINE
  5
2F0
330
1D
100
AcDbEntity
  8
0
  6
Continuous
100
AcDbLine
 10
0.2623057866781429
 20
-0.015092
 30
0.0
 11
0.2607907866781429
 21
-0.013893
 31
0.0
  0
LINE
  5
2F1
330
1D
100
AcDbEntity
  8
0
  6
Continuous
100
AcDbLine
 10
0.2619637866781429
 20
-0.015309
 30
0.0
 11
0.2607037866781429
 21
-0.014581
 31
0.0
  0
LINE
  5
2F2
330
1D
100
AcDbEntity
  8
0
  6
Continuous
100
AcDbLine
 10
0.2619637866781429
 20
-0.015309
 30
0.0
 11
0.262165786678143
 21
-0.016709
 31
0.0
  0
LINE
  5
2F3
330
1D
100
AcDbEntity
  8
0
  6
Continuous
100
AcDbLine
 10
0.2628587866781429
 20
-0.016903
 30
0.0
 11
0.2623057866781429
 21
-0.015092
 31
0.0
  0
LINE
  5
2F4
330
1D
100
AcDbEntity
  8
0
  6
Continuous
100
AcDbLine
 10
0.2555587866781429
 20
-0.012494
 30
0.0
 11
0.2550097866781429
 21
-0.013864
 31
0.0
  0
LINE
  5
2F5
330
1D
100
AcDbEntity
  8
0
  6
Continuous
100
AcDbLine
 10
0.2559177866781429
 20
-0.01299
 30
0.0
 11
0.2557227866781429
 21
-0.014228
 31
0.0
  0
LINE
  5
2F6
330
1D
100
AcDbEntity
  8
0
  6
Continuous
100
AcDbLine
 10
0.2559177866781429
 20
-0.01299
 30
0.0
 11
0.2571887866781429
 21
-0.013246
 31
0.0
  0
LINE
  5
2F7
330
1D
100
AcDbEntity
  8
0
  6
Continuous
100
AcDbLine
 10
0.2555587866781429
 20
-0.012494
 30
0.0
 11
0.2559177866781429
 21
-0.01299
 31
0.0
  0
LINE
  5
2F8
330
1D
100
AcDbEntity
  8
0
  6
Continuous
100
AcDbLine
 10
0.2570837866781429
 20
-0.012476
 30
0.0
 11
0.2555587866781429
 21
-0.012494
 31
0.0
  0
LINE
  5
2F9
330
1D
100
AcDbEntity
  8
0
  6
Continuous
100
AcDbLine
 10
0.2607907866781429
 20
-0.013893
 30
0.0
 11
0.2570837866781429
 21
-0.012476
 31
0.0
  0
LINE
  5
2FA
330
1D
100
AcDbEntity
  8
0
  6
Continuous
100
AcDbLine
 10
0.2607037866781429
 20
-0.014581
 30
0.0
 11
0.2571887866781429
 21
-0.013246
 31
0.0
  0
LINE
  5
2FB
330
1D
100
AcDbEntity
  8
0
  6
Continuous
100
AcDbLine
 10
0.2557457866781429
 20
-0.047337
 30
0.0
 11
0.2564487866781429
 21
-0.048893
 31
0.0
  0
LINE
  5
2FC
330
1D
100
AcDbEntity
  8
0
  6
Continuous
100
AcDbLine
 10
0.2557367866781429
 20
-0.046961
 30
0.0
 11
0.2557457866781429
 21
-0.047337
 31
0.0
  0
LINE
  5
2FD
330
1D
100
AcDbEntity
  8
0
  6
Continuous
100
AcDbLine
 10
0.2564487866781429
 20
-0.048893
 30
0.0
 11
0.2580767866781429
 21
-0.049537
 31
0.0
  0
LINE
  5
2FE
330
1D
100
AcDbEntity
  8
0
  6
Continuous
100
AcDbLine
 10
0.2564387866781429
 20
-0.048461
 30
0.0
 11
0.2564487866781429
 21
-0.048893
 31
0.0
  0
LINE
  5
2FF
330
1D
100
AcDbEntity
  8
0
  6
Continuous
100
AcDbLine
 10
0.2614257866781429
 20
-0.048893
 30
0.0
 11
0.2621297866781429
 21
-0.047337
 31
0.0
  0
LINE
  5
300
330
1D
100
AcDbEntity
  8
0
  6
Continuous
100
AcDbLine
 10
0.2597977866781429
 20
-0.049537
 30
0.0
 11
0.2614257866781429
 21
-0.048893
 31
0.0
  0
LINE
  5
301
330
1D
100
AcDbEntity
  8
0
  6
Continuous
100
AcDbLine
 10
0.2614257866781429
 20
-0.048893
 30
0.0
 11
0.2614357866781429
 21
-0.048461
 31
0.0
  0
LINE
  5
302
330
1D
100
AcDbEntity
  8
0
  6
Continuous
100
AcDbLine
 10
0.2557147866781429
 20
-0.045939
 30
0.0
 11
0.2557367866781429
 21
-0.046961
 31
0.0
  0
LINE
  5
303
330
1D
100
AcDbEntity
  8
0
  6
Continuous
100
AcDbLine
 10
0.2564117866781429
 20
-0.047227
 30
0.0
 11
0.2564387866781429
 21
-0.048461
 31
0.0
  0
LINE
  5
304
330
1D
100
AcDbEntity
  8
0
  6
Continuous
100
AcDbLine
 10
0.2614357866781429
 20
-0.048461
 30
0.0
 11
0.2614627866781429
 21
-0.047227
 31
0.0
  0
LINE
  5
305
330
1D
100
AcDbEntity
  8
0
  6
Continuous
100
AcDbLine
 10
0.2556787866781429
 20
-0.04434
 30
0.0
 11
0.2557147866781429
 21
-0.045939
 31
0.0
  0
LINE
  5
306
330
1D
100
AcDbEntity
  8
0
  6
Continuous
100
AcDbLine
 10
0.2563687866781429
 20
-0.045304
 30
0.0
 11
0.2564117866781429
 21
-0.047227
 31
0.0
  0
LINE
  5
307
330
1D
100
AcDbEntity
  8
0
  6
Continuous
100
AcDbLine
 10
0.2614627866781429
 20
-0.047227
 30
0.0
 11
0.2615057866781429
 21
-0.045304
 31
0.0
  0
LINE
  5
308
330
1D
100
AcDbEntity
  8
0
  6
Continuous
100
AcDbLine
 10
0.2556347866781429
 20
-0.042334
 30
0.0
 11
0.2556787866781429
 21
-0.04434
 31
0.0
  0
LINE
  5
309
330
1D
100
AcDbEntity
  8
0
  6
Continuous
100
AcDbLine
 10
0.2563147866781429
 20
-0.042884
 30
0.0
 11
0.2563687866781429
 21
-0.045304
 31
0.0
  0
LINE
  5
30A
330
1D
100
AcDbEntity
  8
0
  6
Continuous
100
AcDbLine
 10
0.2615057866781429
 20
-0.045304
 30
0.0
 11
0.2615597866781429
 21
-0.042884
 31
0.0
  0
LINE
  5
30B
330
1D
100
AcDbEntity
  8
0
  6
Continuous
100
AcDbLine
 10
0.2562557866781429
 20
-0.040156
 30
0.0
 11
0.2563147866781429
 21
-0.042884
 31
0.0
  0
LINE
  5
30C
330
1D
100
AcDbEntity
  8
0
  6
Continuous
100
AcDbLine
 10
0.2622397866781429
 20
-0.042334
 30
0.0
 11
0.262327786678143
 21
-0.039954
 31
0.0
  0
LINE
  5
30D
330
1D
100
AcDbEntity
  8
0
  6
Continuous
100
AcDbLine
 10
0.2615597866781429
 20
-0.042884
 30
0.0
 11
0.2616297866781429
 21
-0.040155
 31
0.0
  0
LINE
  5
30E
330
1D
100
AcDbEntity
  8
0
  6
Continuous
100
AcDbLine
 10
0.2621587866781429
 20
-0.017041
 30
0.0
 11
0.262165786678143
 21
-0.016709
 31
0.0
  0
LINE
  5
30F
330
1D
100
AcDbEntity
  8
0
  6
Continuous
100
AcDbLine
 10
0.2550177866781429
 20
-0.014233
 30
0.0
 11
0.2555847866781429
 21
-0.03996
 31
0.0
  0
LINE
  5
310
330
1D
100
AcDbEntity
  8
0
  6
Continuous
100
AcDbLine
 10
0.2557307866781429
 20
-0.014594
 30
0.0
 11
0.2562557866781429
 21
-0.040156
 31
0.0
  0
LINE
  5
311
330
1D
100
AcDbEntity
  8
0
  6
Continuous
100
AcDbLine
 10
0.2626167866781429
 20
-0.026861
 30
0.0
 11
0.2628487866781429
 21
-0.026877
 31
0.0
  0
LINE
  5
312
330
1D
100
AcDbEntity
  8
0
  6
Continuous
100
AcDbLine
 10
0.2704057866781429
 20
-0.017169
 30
0.0
 11
0.2699597866781429
 21
-0.015692
 31
0.0
  0
LINE
  5
313
330
1D
100
AcDbEntity
  8
0
  6
Continuous
100
AcDbLine
 10
0.2692747866781429
 20
-0.023163
 30
0.0
 11
0.2699847866781429
 21
-0.02177
 31
0.0
  0
LINE
  5
314
330
1D
100
AcDbEntity
  8
0
  6
Continuous
100
AcDbLine
 10
0.2643597866781429
 20
-0.026681
 30
0.0
 11
0.2658107866781429
 21
-0.026188
 31
0.0
  0
LINE
  5
315
330
1D
100
AcDbEntity
  8
0
  6
Continuous
100
AcDbLine
 10
0.2699597866781429
 20
-0.015692
 30
0.0
 11
0.2692377866781429
 21
-0.014339
 31
0.0
  0
LINE
  5
316
330
1D
100
AcDbEntity
  8
0
  6
Continuous
100
AcDbLine
 10
0.2699847866781429
 20
-0.02177
 30
0.0
 11
0.2704187866781429
 21
-0.020267
 31
0.0
  0
LINE
  5
317
330
1D
100
AcDbEntity
  8
0
  6
Continuous
100
AcDbLine
 10
0.2658107866781429
 20
-0.026188
 30
0.0
 11
0.2671467866781429
 21
-0.025416
 31
0.0
  0
LINE
  5
318
330
1D
100
AcDbEntity
  8
0
  6
Continuous
100
AcDbLine
 10
0.2671467866781429
 20
-0.025416
 30
0.0
 11
0.2683157866781429
 21
-0.024394
 31
0.0
  0
LINE
  5
319
330
1D
100
AcDbEntity
  8
0
  6
Continuous
100
AcDbLine
 10
0.2692377866781429
 20
-0.014339
 30
0.0
 11
0.2682697866781429
 21
-0.013164
 31
0.0
  0
LINE
  5
31A
330
1D
100
AcDbEntity
  8
0
  6
Continuous
100
AcDbLine
 10
0.2704187866781429
 20
-0.020267
 30
0.0
 11
0.2705617866781429
 21
-0.018714
 31
0.0
  0
LINE
  5
31B
330
1D
100
AcDbEntity
  8
0
  6
Continuous
100
AcDbLine
 10
0.2705617866781429
 20
-0.018714
 30
0.0
 11
0.2704057866781429
 21
-0.017169
 31
0.0
  0
LINE
  5
31C
330
1D
100
AcDbEntity
  8
0
  6
Continuous
100
AcDbLine
 10
0.2683157866781429
 20
-0.024394
 30
0.0
 11
0.2692747866781429
 21
-0.023163
 31
0.0
  0
LINE
  5
31D
330
1D
100
AcDbEntity
  8
0
  6
Continuous
100
AcDbLine
 10
0.2628487866781429
 20
-0.026877
 30
0.0
 11
0.2643597866781429
 21
-0.026681
 31
0.0
  0
LINE
  5
31E
330
1D
100
AcDbEntity
  8
0
  6
Continuous
100
AcDbLine
 10
0.2682697866781429
 20
-0.013164
 30
0.0
 11
0.2670917866781429
 21
-0.01221
 31
0.0
  0
LINE
  5
31F
330
1D
100
AcDbEntity
  8
0
  6
Continuous
100
AcDbLine
 10
0.2598207866781429
 20
-0.011684
 30
0.0
 11
0.2584847866781429
 21
-0.012457
 31
0.0
  0
LINE
  5
320
330
1D
100
AcDbEntity
  8
0
  6
Continuous
100
AcDbLine
 10
0.2612717866781429
 20
-0.011191
 30
0.0
 11
0.2598207866781429
 21
-0.011684
 31
0.0
  0
LINE
  5
321
330
1D
100
AcDbEntity
  8
0
  6
Continuous
100
AcDbLine
 10
0.2627827866781429
 20
-0.010995
 30
0.0
 11
0.2612717866781429
 21
-0.011191
 31
0.0
  0
LINE
  5
322
330
1D
100
AcDbEntity
  8
0
  6
Continuous
100
AcDbLine
 10
0.2642947866781429
 20
-0.011104
 30
0.0
 11
0.2627827866781429
 21
-0.010995
 31
0.0
  0
LINE
  5
323
330
1D
100
AcDbEntity
  8
0
  6
Continuous
100
AcDbLine
 10
0.2584847866781429
 20
-0.012457
 30
0.0
 11
0.2580387866781429
 21
-0.012846
 31
0.0
  0
LINE
  5
324
330
1D
100
AcDbEntity
  8
0
  6
Continuous
100
AcDbLine
 10
0.2670917866781429
 20
-0.01221
 30
0.0
 11
0.2657497866781429
 21
-0.011514
 31
0.0
  0
LINE
  5
325
330
1D
100
AcDbEntity
  8
0
  6
Continuous
100
AcDbLine
 10
0.2657497866781429
 20
-0.011514
 30
0.0
 11
0.2642947866781429
 21
-0.011104
 31
0.0
  0
LINE
  5
326
330
1D
100
AcDbEntity
  8
0
  6
Continuous
100
AcDbLine
 10
0.2505857866781429
 20
-0.008867
 30
0.0
 11
0.2505567866781429
 21
-0.007963
 31
0.0
  0
LINE
  5
327
330
1D
100
AcDbEntity
  8
0
  6
Continuous
100
AcDbLine
 10
0.2476397866781429
 20
-0.013
 30
0.0
 11
0.2488087866781429
 21
-0.013494
 31
0.0
  0
LINE
  5
328
330
1D
100
AcDbEntity
  8
0
  6
Continuous
100
AcDbLine
 10
0.2476427866781429
 20
-0.012784
 30
0.0
 11
0.2476397866781429
 21
-0.013
 31
0.0
  0
LINE
  5
329
330
1D
100
AcDbEntity
  8
0
  6
Continuous
100
AcDbLine
 10
0.2476857866781429
 20
-0.008498
 30
0.0
 11
0.2476447866781429
 21
-0.012677
 31
0.0
  0
LINE
  5
32A
330
1D
100
AcDbEntity
  8
0
  6
Continuous
100
AcDbLine
 10
0.2580387866781429
 20
-0.012846
 30
0.0
 11
0.2518397866781429
 21
-0.010341
 31
0.0
  0
LINE
  5
32B
330
1D
100
AcDbEntity
  8
0
  6
Continuous
100
AcDbLine
 10
0.2476957866781429
 20
-0.008088
 30
0.0
 11
0.2476857866781429
 21
-0.008498
 31
0.0
  0
LINE
  5
32C
330
1D
100
AcDbEntity
  8
0
  6
Continuous
100
AcDbLine
 10
0.2476447866781429
 20
-0.012677
 30
0.0
 11
0.2476427866781429
 21
-0.012784
 31
0.0
  0
LINE
  5
32D
330
1D
100
AcDbEntity
  8
0
  6
Continuous
100
AcDbLine
 10
0.2512927866781429
 20
-0.010021
 30
0.0
 11
0.2508617866781429
 21
-0.009751
 31
0.0
  0
LINE
  5
32E
330
1D
100
AcDbEntity
  8
0
  6
Continuous
100
AcDbLine
 10
0.2476987866781429
 20
-0.007963
 30
0.0
 11
0.2476957866781429
 21
-0.008088
 31
0.0
  0
LINE
  5
32F
330
1D
100
AcDbEntity
  8
0
  6
Continuous
100
AcDbLine
 10
0.2510197866781429
 20
-0.014413
 30
0.0
 11
0.2511477866781429
 21
-0.014464
 31
0.0
  0
LINE
  5
330
330
1D
100
AcDbEntity
  8
0
  6
Continuous
100
AcDbLine
 10
0.2506177866781429
 20
-0.009401
 30
0.0
 11
0.2505857866781429
 21
-0.008867
 31
0.0
  0
LINE
  5
331
330
1D
100
AcDbEntity
  8
0
  6
Continuous
100
AcDbLine
 10
0.2506867866781429
 20
-0.009401
 30
0.0
 11
0.2505857866781429
 21
-0.008867
 31
0.0
  0
LINE
  5
332
330
1D
100
AcDbEntity
  8
0
  6
Continuous
100
AcDbLine
 10
0.2508827866781429
 20
-0.009751
 30
0.0
 11
0.2506867866781429
 21
-0.009401
 31
0.0
  0
LINE
  5
333
330
1D
100
AcDbEntity
  8
0
  6
Continuous
100
AcDbLine
 10
0.2488087866781429
 20
-0.013494
 30
0.0
 11
0.2506217866781429
 21
-0.014251
 31
0.0
  0
LINE
  5
334
330
1D
100
AcDbEntity
  8
0
  6
Continuous
100
AcDbLine
 10
0.2518397866781429
 20
-0.010341
 30
0.0
 11
0.2517227866781429
 21
-0.010292
 31
0.0
  0
LINE
  5
335
330
1D
100
AcDbEntity
  8
0
  6
Continuous
100
AcDbLine
 10
0.2511477866781429
 20
-0.014464
 30
0.0
 11
0.2550577866781429
 21
-0.016035
 31
0.0
  0
LINE
  5
336
330
1D
100
AcDbEntity
  8
0
  6
Continuous
100
AcDbLine
 10
0.2506647866781429
 20
-0.01427
 30
0.0
 11
0.2508427866781429
 21
-0.014342
 31
0.0
  0
LINE
  5
337
330
1D
100
AcDbEntity
  8
0
  6
Continuous
100
AcDbLine
 10
0.2508427866781429
 20
-0.014342
 30
0.0
 11
0.2510197866781429
 21
-0.014413
 31
0.0
  0
LINE
  5
338
330
1D
100
AcDbEntity
  8
0
  6
Continuous
100
AcDbLine
 10
0.2518397866781429
 20
-0.010341
 30
0.0
 11
0.2580317866781429
 21
-0.012852
 31
0.0
  0
LINE
  5
339
330
1D
100
AcDbEntity
  8
0
  6
Continuous
100
AcDbLine
 10
0.2506217866781429
 20
-0.014251
 30
0.0
 11
0.2506647866781429
 21
-0.01427
 31
0.0
  0
LINE
  5
33A
330
1D
100
AcDbEntity
  8
0
  6
Continuous
100
AcDbLine
 10
0.2517227866781429
 20
-0.010292
 30
0.0
 11
0.2512927866781429
 21
-0.010021
 31
0.0
  0
LINE
  5
33B
330
1D
100
AcDbEntity
  8
0
  6
Continuous
100
AcDbLine
 10
0.2506177866781429
 20
-0.013937
 30
0.0
 11
0.2506177866781429
 21
-0.014075
 31
0.0
  0
LINE
  5
33C
330
1D
100
AcDbEntity
  8
0
  6
Continuous
100
AcDbLine
 10
0.2506177866781429
 20
-0.014075
 30
0.0
 11
0.2506647866781429
 21
-0.01427
 31
0.0
  0
LINE
  5
33D
330
1D
100
AcDbEntity
  8
0
  6
Continuous
100
AcDbLine
 10
0.2506177866781429
 20
-0.009401
 30
0.0
 11
0.2506177866781429
 21
-0.013937
 31
0.0
  0
LINE
  5
33E
330
1D
100
AcDbEntity
  8
0
  6
Continuous
100
AcDbLine
 10
0.2508617866781429
 20
-0.009751
 30
0.0
 11
0.2506177866781429
 21
-0.009401
 31
0.0
  0
LINE
  5
33F
330
1D
100
AcDbEntity
  8
0
  6
Continuous
100
AcDbLine
 10
0.2747107866781429
 20
-0.00882
 30
0.0
 11
0.2761307866781429
 21
-0.007627
 31
0.0
  0
LINE
  5
340
330
1D
100
AcDbEntity
  8
0
  6
Continuous
100
AcDbLine
 10
0.2729817866781429
 20
-0.009799
 30
0.0
 11
0.2747107866781429
 21
-0.00882
 31
0.0
  0
LINE
  5
341
330
1D
100
AcDbEntity
  8
0
  6
Continuous
100
AcDbLine
 10
0.2710087866781429
 20
-0.010526
 30
0.0
 11
0.2729817866781429
 21
-0.009799
 31
0.0
  0
LINE
  5
342
330
1D
100
AcDbEntity
  8
0
  6
Continuous
100
AcDbLine
 10
0.2688677866781429
 20
-0.010974
 30
0.0
 11
0.2710087866781429
 21
-0.010526
 31
0.0
  0
LINE
  5
343
330
1D
100
AcDbEntity
  8
0
  6
Continuous
100
AcDbLine
 10
0.2571527866781429
 20
-0.007627
 30
0.0
 11
0.2585727866781429
 21
-0.00882
 31
0.0
  0
LINE
  5
344
330
1D
100
AcDbEntity
  8
0
  6
Continuous
100
AcDbLine
 10
0.2585727866781429
 20
-0.00882
 30
0.0
 11
0.2603017866781429
 21
-0.009799
 31
0.0
  0
LINE
  5
345
330
1D
100
AcDbEntity
  8
0
  6
Continuous
100
AcDbLine
 10
0.2603017866781429
 20
-0.009799
 30
0.0
 11
0.2622747866781429
 21
-0.010526
 31
0.0
  0
LINE
  5
346
330
1D
100
AcDbEntity
  8
0
  6
Continuous
100
AcDbLine
 10
0.2622747866781429
 20
-0.010526
 30
0.0
 11
0.2644157866781429
 21
-0.010974
 31
0.0
  0
LINE
  5
347
330
1D
100
AcDbEntity
  8
0
  6
Continuous
100
AcDbLine
 10
0.2666417866781429
 20
-0.011126
 30
0.0
 11
0.2688677866781429
 21
-0.010974
 31
0.0
  0
LINE
  5
348
330
1D
100
AcDbEntity
  8
0
  6
Continuous
100
AcDbLine
 10
0.2644157866781429
 20
-0.010974
 30
0.0
 11
0.2666417866781429
 21
-0.011126
 31
0.0
  0
LINE
  5
349
330
1D
100
AcDbEntity
  8
0
  6
Continuous
100
AcDbLine
 10
0.2640237866781429
 20
-0.009146
 30
0.0
 11
0.2640237866781429
 21
-0.007963
 31
0.0
  0
LINE
  5
34A
330
1D
100
AcDbEntity
  8
0
  6
Continuous
100
AcDbLine
 10
0.2592847866781429
 20
-0.007398
 30
0.0
 11
0.2592847866781429
 21
-0.009146
 31
0.0
  0
LINE
  5
34B
330
1D
100
AcDbEntity
  8
0
  6
Continuous
100
AcDbLine
 10
0.2640237866781429
 20
-0.009291
 30
0.0
 11
0.2640237866781429
 21
-0.009146
 31
0.0
  0
LINE
  5
34C
330
1D
100
AcDbEntity
  8
0
  6
Continuous
100
AcDbLine
 10
0.2633887866781429
 20
-0.009291
 30
0.0
 11
0.2640237866781429
 21
-0.009291
 31
0.0
  0
LINE
  5
34D
330
1D
100
AcDbEntity
  8
0
  6
Continuous
100
AcDbLine
 10
0.2592847866781429
 20
-0.009146
 30
0.0
 11
0.2592847866781429
 21
-0.009291
 31
0.0
  0
LINE
  5
34E
330
1D
100
AcDbEntity
  8
0
  6
Continuous
100
AcDbLine
 10
0.2592847866781429
 20
-0.009291
 30
0.0
 11
0.2599197866781429
 21
-0.009291
 31
0.0
  0
LINE
  5
34F
330
1D
100
AcDbEntity
  8
0
  6
Continuous
100
AcDbLine
 10
0.2599197866781429
 20
-0.009291
 30
0.0
 11
0.2610187866781429
 21
-0.009291
 31
0.0
  0
LINE
  5
350
330
1D
100
AcDbEntity
  8
0
  6
Continuous
100
AcDbLine
 10
0.2610187866781429
 20
-0.009291
 30
0.0
 11
0.2622887866781429
 21
-0.009291
 31
0.0
  0
LINE
  5
351
330
1D
100
AcDbEntity
  8
0
  6
Continuous
100
AcDbLine
 10
0.2622887866781429
 20
-0.009291
 30
0.0
 11
0.2633887866781429
 21
-0.009291
 31
0.0
  0
LINE
  5
352
330
1D
100
AcDbEntity
  8
0
  6
Continuous
100
AcDbLine
 10
0.2865417866781429
 20
-0.012024
 30
0.0
 11
0.2865347866781429
 21
-0.011841
 31
0.0
  0
LINE
  5
353
330
1D
100
AcDbEntity
  8
0
  6
Continuous
100
AcDbLine
 10
0.2859067866781429
 20
-0.012089
 30
0.0
 11
0.2865417866781429
 21
-0.012024
 31
0.0
  0
LINE
  5
354
330
1D
100
AcDbEntity
  8
0
  6
Continuous
100
AcDbLine
 10
0.2817707866781429
 20
-0.012328
 30
0.0
 11
0.2818017866781429
 21
-0.012508
 31
0.0
  0
LINE
  5
355
330
1D
100
AcDbEntity
  8
0
  6
Continuous
100
AcDbLine
 10
0.2859067866781429
 20
-0.012089
 30
0.0
 11
0.2848067866781429
 21
-0.012201
 31
0.0
  0
LINE
  5
356
330
1D
100
AcDbEntity
  8
0
  6
Continuous
100
AcDbLine
 10
0.2848067866781429
 20
-0.012201
 30
0.0
 11
0.2835367866781429
 21
-0.012331
 31
0.0
  0
LINE
  5
357
330
1D
100
AcDbEntity
  8
0
  6
Continuous
100
AcDbLine
 10
0.2835367866781429
 20
-0.012331
 30
0.0
 11
0.2824367866781429
 21
-0.012444
 31
0.0
  0
LINE
  5
358
330
1D
100
AcDbEntity
  8
0
  6
Continuous
100
AcDbLine
 10
0.2824367866781429
 20
-0.012444
 30
0.0
 11
0.2818017866781429
 21
-0.012508
 31
0.0
  0
LINE
  5
359
330
1D
100
AcDbEntity
  8
0
  6
Continuous
100
AcDbLine
 10
0.2865347866781429
 20
-0.011841
 30
0.0
 11
0.2863997866781429
 21
-0.007963
 31
0.0
  0
LINE
  5
35A
330
1D
100
AcDbEntity
  8
0
  6
Continuous
100
AcDbLine
 10
0.2810267866781429
 20
-0.007963
 30
0.0
 11
0.2817707866781429
 21
-0.012328
 31
0.0
  0
LINE
  5
35B
330
1D
100
AcDbEntity
  8
0
  6
Continuous
100
AcDbLine
 10
0.2896847866781429
 20
-0.006664
 30
0.0
 11
0.2896847866781429
 21
-0.000543
 31
0.0
  0
LINE
  5
35C
330
1D
100
AcDbEntity
  8
0
  6
Continuous
100
AcDbLine
 10
0.2435987866781429
 20
-0.000543
 30
0.0
 11
0.2435987866781429
 21
-0.006664
 31
0.0
  0
LINE
  5
35D
330
1D
100
AcDbEntity
  8
0
  6
Continuous
100
AcDbLine
 10
0.2888997866781429
 20
-0.007963
 30
0.0
 11
0.2896847866781429
 21
-0.007963
 31
0.0
  0
LINE
  5
35E
330
1D
100
AcDbEntity
  8
0
  6
Continuous
100
AcDbLine
 10
0.2896847866781429
 20
-0.007963
 30
0.0
 11
0.2896847866781429
 21
-0.006664
 31
0.0
  0
LINE
  5
35F
330
1D
100
AcDbEntity
  8
0
  6
Continuous
100
AcDbLine
 10
0.2865977866781429
 20
-0.007963
 30
0.0
 11
0.2888997866781429
 21
-0.007963
 31
0.0
  0
LINE
  5
360
330
1D
100
AcDbEntity
  8
0
  6
Continuous
100
AcDbLine
 10
0.2829357866781429
 20
-0.007963
 30
0.0
 11
0.2865977866781429
 21
-0.007963
 31
0.0
  0
LINE
  5
361
330
1D
100
AcDbEntity
  8
0
  6
Continuous
100
AcDbLine
 10
0.2781627866781429
 20
-0.007963
 30
0.0
 11
0.2829357866781429
 21
-0.007963
 31
0.0
  0
LINE
  5
362
330
1D
100
AcDbEntity
  8
0
  6
Continuous
100
AcDbLine
 10
0.272605786678143
 20
-0.007963
 30
0.0
 11
0.2781627866781429
 21
-0.007963
 31
0.0
  0
LINE
  5
363
330
1D
100
AcDbEntity
  8
0
  6
Continuous
100
AcDbLine
 10
0.2666417866781429
 20
-0.007963
 30
0.0
 11
0.272605786678143
 21
-0.007963
 31
0.0
  0
LINE
  5
364
330
1D
100
AcDbEntity
  8
0
  6
Continuous
100
AcDbLine
 10
0.2606777866781429
 20
-0.007963
 30
0.0
 11
0.2666417866781429
 21
-0.007963
 31
0.0
  0
LINE
  5
365
330
1D
100
AcDbEntity
  8
0
  6
Continuous
100
AcDbLine
 10
0.2551207866781429
 20
-0.007963
 30
0.0
 11
0.2606777866781429
 21
-0.007963
 31
0.0
  0
LINE
  5
366
330
1D
100
AcDbEntity
  8
0
  6
Continuous
100
AcDbLine
 10
0.2503477866781429
 20
-0.007963
 30
0.0
 11
0.2551207866781429
 21
-0.007963
 31
0.0
  0
LINE
  5
367
330
1D
100
AcDbEntity
  8
0
  6
Continuous
100
AcDbLine
 10
0.2466867866781429
 20
-0.007963
 30
0.0
 11
0.2503477866781429
 21
-0.007963
 31
0.0
  0
LINE
  5
368
330
1D
100
AcDbEntity
  8
0
  6
Continuous
100
AcDbLine
 10
0.2435987866781429
 20
-0.007963
 30
0.0
 11
0.2443847866781429
 21
-0.007963
 31
0.0
  0
LINE
  5
369
330
1D
100
AcDbEntity
  8
0
  6
Continuous
100
AcDbLine
 10
0.2435987866781429
 20
-0.006664
 30
0.0
 11
0.2435987866781429
 21
-0.007963
 31
0.0
  0
LINE
  5
36A
330
1D
100
AcDbEntity
  8
0
  6
Continuous
100
AcDbLine
 10
0.2443847866781429
 20
-0.007963
 30
0.0
 11
0.2466867866781429
 21
-0.007963
 31
0.0
  0
LINE
  5
36B
330
1D
100
AcDbEntity
  8
0
  6
Continuous
100
AcDbLine
 10
0.2521247866781429
 20
-0.009247
 30
0.0
 11
0.2521247866781429
 21
-0.007963
 31
0.0
  0
LINE
  5
36C
330
1D
100
AcDbEntity
  8
0
  6
Continuous
100
AcDbLine
 10
0.2521247866781429
 20
-0.009459
 30
0.0
 11
0.2521247866781429
 21
-0.009247
 31
0.0
  0
LINE
  5
36D
330
1D
100
AcDbEntity
  8
0
  6
Continuous
100
AcDbLine
 10
0.2511967866781429
 20
-0.009459
 30
0.0
 11
0.2521247866781429
 21
-0.009459
 31
0.0
  0
LINE
  5
36E
330
1D
100
AcDbEntity
  8
0
  6
Continuous
100
AcDbLine
 10
0.2451987866781429
 20
-0.009247
 30
0.0
 11
0.2451987866781429
 21
-0.009459
 31
0.0
  0
LINE
  5
36F
330
1D
100
AcDbEntity
  8
0
  6
Continuous
100
AcDbLine
 10
0.2451987866781429
 20
-0.009459
 30
0.0
 11
0.2461257866781429
 21
-0.009459
 31
0.0
  0
LINE
  5
370
330
1D
100
AcDbEntity
  8
0
  6
Continuous
100
AcDbLine
 10
0.2461257866781429
 20
-0.009459
 30
0.0
 11
0.2477337866781429
 21
-0.009459
 31
0.0
  0
LINE
  5
371
330
1D
100
AcDbEntity
  8
0
  6
Continuous
100
AcDbLine
 10
0.2457507866781429
 20
-0.011216
 30
0.0
 11
0.2459107866781429
 21
-0.011907
 31
0.0
  0
LINE
  5
372
330
1D
100
AcDbEntity
  8
0
  6
Continuous
100
AcDbLine
 10
0.2457587866781429
 20
-0.009459
 30
0.0
 11
0.2457507866781429
 21
-0.011216
 31
0.0
  0
LINE
  5
373
330
1D
100
AcDbEntity
  8
0
  6
Continuous
100
AcDbLine
 10
0.2459107866781429
 20
-0.011907
 30
0.0
 11
0.2462767866781429
 21
-0.012684
 31
0.0
  0
LINE
  5
374
330
1D
100
AcDbEntity
  8
0
  6
Continuous
100
AcDbLine
 10
0.2483677866781429
 20
-0.013822
 30
0.0
 11
0.2489547866781429
 21
-0.013822
 31
0.0
  0
LINE
  5
375
330
1D
100
AcDbEntity
  8
0
  6
Continuous
100
AcDbLine
 10
0.2462767866781429
 20
-0.012684
 30
0.0
 11
0.2468497866781429
 21
-0.013347
 31
0.0
  0
LINE
  5
376
330
1D
100
AcDbEntity
  8
0
  6
Continuous
100
AcDbLine
 10
0.2489547866781429
 20
-0.013822
 30
0.0
 11
0.2494637866781429
 21
-0.013822
 31
0.0
  0
LINE
  5
377
330
1D
100
AcDbEntity
  8
0
  6
Continuous
100
AcDbLine
 10
0.2475647866781429
 20
-0.013822
 30
0.0
 11
0.2478587866781429
 21
-0.013822
 31
0.0
  0
LINE
  5
378
330
1D
100
AcDbEntity
  8
0
  6
Continuous
100
AcDbLine
 10
0.2468497866781429
 20
-0.013347
 30
0.0
 11
0.2475647866781429
 21
-0.013822
 31
0.0
  0
LINE
  5
379
330
1D
100
AcDbEntity
  8
0
  6
Continuous
100
AcDbLine
 10
0.2478587866781429
 20
-0.013822
 30
0.0
 11
0.2483677866781429
 21
-0.013822
 31
0.0
  0
LINE
  5
37A
330
1D
100
AcDbEntity
  8
0
  6
Continuous
100
AcDbLine
 10
0.2555847866781429
 20
-0.03996
 30
0.0
 11
0.2555837866781429
 21
-0.039917
 31
0.0
  0
LINE
  5
37B
330
1D
100
AcDbEntity
  8
0
  6
Continuous
100
AcDbLine
 10
0.2556317866781429
 20
-0.042213
 30
0.0
 11
0.2556347866781429
 21
-0.042334
 31
0.0
  0
LINE
  5
37C
330
1D
100
AcDbEntity
  8
0
  6
Continuous
100
AcDbLine
 10
0.2556317866781429
 20
-0.042213
 30
0.0
 11
0.2556347866781429
 21
-0.042334
 31
0.0
  0
LINE
  5
37D
330
1D
100
AcDbEntity
  8
0
  6
Continuous
100
AcDbLine
 10
0.2616297866781429
 20
-0.040155
 30
0.0
 11
0.2621587866781429
 21
-0.017041
 31
0.0
  0
LINE
  5
37E
330
1D
100
AcDbEntity
  8
0
  6
Continuous
100
AcDbLine
 10
0.2550097866781429
 20
-0.013864
 30
0.0
 11
0.2550177866781429
 21
-0.014233
 31
0.0
  0
LINE
  5
37F
330
1D
100
AcDbEntity
  8
0
  6
Continuous
100
AcDbLine
 10
0.2557227866781429
 20
-0.014228
 30
0.0
 11
0.2557307866781429
 21
-0.014594
 31
0.0
  0
LINE
  5
380
330
1D
100
AcDbEntity
  8
0
  6
Continuous
100
AcDbLine
 10
0.262327786678143
 20
-0.039954
 30
0.0
 11
0.2623287866781429
 21
-0.03991
 31
0.0
  0
LINE
  5
381
330
1D
100
AcDbEntity
  8
0
  6
Continuous
100
AcDbLine
 10
0.2623287866781429
 20
-0.03991
 30
0.0
 11
0.2628517866781429
 21
-0.017228
 31
0.0
  0
LINE
  5
382
330
1D
100
AcDbEntity
  8
0
  6
Continuous
100
AcDbLine
 10
0.3218497866781429
 20
0.043537
 30
0.0
 11
0.3203427866781429
 21
0.043537
 31
0.0
  0
LINE
  5
383
330
1D
100
AcDbEntity
  8
0
  6
Continuous
100
AcDbLine
 10
0.3203427866781429
 20
0.043537
 30
0.0
 11
0.2432197866781429
 21
0.043537
 31
0.0
  0
LINE
  5
384
330
1D
100
AcDbEntity
  8
0
  6
Continuous
100
AcDbLine
 10
0.2432197866781429
 20
0.043537
 30
0.0
 11
0.2419127866781429
 21
0.043537
 31
0.0
  0
LINE
  5
385
330
1D
100
AcDbEntity
  8
0
  6
Continuous
100
AcDbLine
 10
0.2446057866781429
 20
0.023537
 30
0.0
 11
0.3006137866781429
 21
0.023537
 31
0.0
  0
LINE
  5
386
330
1D
100
AcDbEntity
  8
0
  6
Continuous
100
AcDbLine
 10
0.3269447866781429
 20
0.032537
 30
0.0
 11
0.2366177866781429
 21
0.032537
 31
0.0
  0
LINE
  5
387
330
1D
100
AcDbEntity
  8
0
  6
Continuous
100
AcDbLine
 10
0.3269447866781429
 20
0.043537
 30
0.0
 11
0.2366177866781429
 21
0.043537
 31
0.0
  0
LINE
  5
388
330
1D
100
AcDbEntity
  8
0
  6
Continuous
100
AcDbLine
 10
0.2429187866781429
 20
0.023964
 30
0.0
 11
0.2432977866781429
 21
0.023537
 31
0.0
  0
LINE
  5
389
330
1D
100
AcDbEntity
  8
0
  6
Continuous
100
AcDbLine
 10
0.2432977866781429
 20
0.023537
 30
0.0
 11
0.2446057866781429
 21
0.023537
 31
0.0
  0
LINE
  5
38A
330
1D
100
AcDbEntity
  8
0
  6
Continuous
100
AcDbLine
 10
0.2357087866781429
 20
0.032087
 30
0.0
 11
0.2429187866781429
 21
0.023964
 31
0.0
  0
LINE
  5
38B
330
1D
100
AcDbEntity
  8
0
  6
Continuous
100
AcDbLine
 10
0.2353097866781429
 20
0.033032
 30
0.0
 11
0.2353097866781429
 21
0.032537
 31
0.0
  0
LINE
  5
38C
330
1D
100
AcDbEntity
  8
0
  6
Continuous
100
AcDbLine
 10
0.2353097866781429
 20
0.042437
 30
0.0
 11
0.2353097866781429
 21
0.033032
 31
0.0
  0
LINE
  5
38D
330
1D
100
AcDbEntity
  8
0
  6
Continuous
100
AcDbLine
 10
0.2353097866781429
 20
0.032537
 30
0.0
 11
0.2357087866781429
 21
0.032087
 31
0.0
  0
LINE
  5
38E
330
1D
100
AcDbEntity
  8
0
  6
Continuous
100
AcDbLine
 10
0.2366177866781429
 20
0.032537
 30
0.0
 11
0.2353097866781429
 21
0.032537
 31
0.0
  0
LINE
  5
38F
330
1D
100
AcDbEntity
  8
0
  6
Continuous
100
AcDbLine
 10
0.2353097866781429
 20
0.043537
 30
0.0
 11
0.2353097866781429
 21
0.042437
 31
0.0
  0
LINE
  5
390
330
1D
100
AcDbEntity
  8
0
  6
Continuous
100
AcDbLine
 10
0.2366177866781429
 20
0.043537
 30
0.0
 11
0.2353097866781429
 21
0.043537
 31
0.0
  0
LINE
  5
391
330
1D
100
AcDbEntity
  8
0
  6
Continuous
100
AcDbLine
 10
0.3006137866781429
 20
0.023537
 30
0.0
 11
0.3021207866781429
 21
0.023537
 31
0.0
  0
LINE
  5
392
330
1D
100
AcDbEntity
  8
0
  6
Continuous
100
AcDbLine
 10
0.3284527866781429
 20
0.032537
 30
0.0
 11
0.3284527866781429
 21
0.033032
 31
0.0
  0
LINE
  5
393
330
1D
100
AcDbEntity
  8
0
  6
Continuous
100
AcDbLine
 10
0.3284527866781429
 20
0.033032
 30
0.0
 11
0.3284527866781429
 21
0.042437
 31
0.0
  0
LINE
  5
394
330
1D
100
AcDbEntity
  8
0
  6
Continuous
100
AcDbLine
 10
0.3284527866781429
 20
0.032537
 30
0.0
 11
0.3269447866781429
 21
0.032537
 31
0.0
  0
LINE
  5
395
330
1D
100
AcDbEntity
  8
0
  6
Continuous
100
AcDbLine
 10
0.3271357866781429
 20
0.032087
 30
0.0
 11
0.3284527866781429
 21
0.032537
 31
0.0
  0
LINE
  5
396
330
1D
100
AcDbEntity
  8
0
  6
Continuous
100
AcDbLine
 10
0.3284527866781429
 20
0.043537
 30
0.0
 11
0.3269447866781429
 21
0.043537
 31
0.0
  0
LINE
  5
397
330
1D
100
AcDbEntity
  8
0
  6
Continuous
100
AcDbLine
 10
0.3284527866781429
 20
0.042437
 30
0.0
 11
0.3284527866781429
 21
0.043537
 31
0.0
  0
LINE
  5
398
330
1D
100
AcDbEntity
  8
0
  6
Continuous
100
AcDbLine
 10
0.3365647866781429
 20
0.023457
 30
0.0
 11
0.3358037866781429
 21
0.023457
 31
0.0
  0
LINE
  5
399
330
1D
100
AcDbEntity
  8
0
  6
Continuous
100
AcDbLine
 10
0.3365677866781429
 20
0.022573
 30
0.0
 11
0.3365647866781429
 21
0.023457
 31
0.0
  0
LINE
  5
39A
330
1D
100
AcDbEntity
  8
0
  6
Continuous
100
AcDbLine
 10
0.2266527866781429
 20
0.023457
 30
0.0
 11
0.2266527866781429
 21
0.022573
 31
0.0
  0
LINE
  5
39B
330
1D
100
AcDbEntity
  8
0
  6
Continuous
100
AcDbLine
 10
0.2282827866781429
 20
0.023457
 30
0.0
 11
0.2266527866781429
 21
0.023457
 31
0.0
  0
LINE
  5
39C
330
1D
100
AcDbEntity
  8
0
  6
Continuous
100
AcDbLine
 10
0.3303917866781429
 20
0.023457
 30
0.0
 11
0.3265647866781429
 21
0.023457
 31
0.0
  0
LINE
  5
39D
330
1D
100
AcDbEntity
  8
0
  6
Continuous
100
AcDbLine
 10
0.3336357866781429
 20
0.023457
 30
0.0
 11
0.3303917866781429
 21
0.023457
 31
0.0
  0
LINE
  5
39E
330
1D
100
AcDbEntity
  8
0
  6
Continuous
100
AcDbLine
 10
0.3358037866781429
 20
0.023457
 30
0.0
 11
0.3336357866781429
 21
0.023457
 31
0.0
  0
LINE
  5
39F
330
1D
100
AcDbEntity
  8
0
  6
Continuous
100
AcDbLine
 10
0.3265647866781429
 20
0.023457
 30
0.0
 11
0.2282827866781429
 21
0.023457
 31
0.0
  0
LINE
  5
3A0
330
1D
100
AcDbEntity
  8
0
  6
Continuous
100
AcDbLine
 10
0.3366447866781429
 20
0.000518
 30
0.0
 11
0.3365677866781429
 21
0.022573
 31
0.0
  0
LINE
  5
3A1
330
1D
100
AcDbEntity
  8
0
  6
Continuous
100
AcDbLine
 10
0.2266527866781429
 20
0.022573
 30
0.0
 11
0.2266527866781429
 21
0.000518
 31
0.0
  0
LINE
  5
3A2
330
1D
100
AcDbEntity
  8
0
  6
Continuous
100
AcDbLine
 10
0.3358877866781429
 20
-0.000543
 30
0.0
 11
0.3366487866781429
 21
-0.000543
 31
0.0
  0
LINE
  5
3A3
330
1D
100
AcDbEntity
  8
0
  6
Continuous
100
AcDbLine
 10
0.3366487866781429
 20
-0.000543
 30
0.0
 11
0.3366447866781429
 21
0.000518
 31
0.0
  0
LINE
  5
3A4
330
1D
100
AcDbEntity
  8
0
  6
Continuous
100
AcDbLine
 10
0.2266527866781429
 20
-0.000543
 30
0.0
 11
0.2282827866781429
 21
-0.000543
 31
0.0
  0
LINE
  5
3A5
330
1D
100
AcDbEntity
  8
0
  6
Continuous
100
AcDbLine
 10
0.2266527866781429
 20
0.000518
 30
0.0
 11
0.2266527866781429
 21
-0.000543
 31
0.0
  0
LINE
  5
3A6
330
1D
100
AcDbEntity
  8
0
  6
Continuous
100
AcDbLine
 10
0.3266487866781429
 20
-0.000543
 30
0.0
 11
0.3304757866781429
 21
-0.000543
 31
0.0
  0
LINE
  5
3A7
330
1D
100
AcDbEntity
  8
0
  6
Continuous
100
AcDbLine
 10
0.3304757866781429
 20
-0.000543
 30
0.0
 11
0.3337197866781429
 21
-0.000543
 31
0.0
  0
LINE
  5
3A8
330
1D
100
AcDbEntity
  8
0
  6
Continuous
100
AcDbLine
 10
0.3337197866781429
 20
-0.000543
 30
0.0
 11
0.3358877866781429
 21
-0.000543
 31
0.0
  0
LINE
  5
3A9
330
1D
100
AcDbEntity
  8
0
  6
Continuous
100
AcDbLine
 10
0.2282827866781429
 20
-0.000543
 30
0.0
 11
0.3266487866781429
 21
-0.000543
 31
0.0
  0
LINE
  5
434
330
1D
100
AcDbEntity
  8
0
  6
Continuous
100
AcDbLine
 10
0.07113
 20
0.303666638368606
 30
0.0
 11
-0.071415
 21
0.303666638368606
 31
0.0
  0
LINE
  5
435
330
1D
100
AcDbEntity
  8
0
  6
Continuous
100
AcDbLine
 10
-0.067971
 20
0.196672638368606
 30
0.0
 11
-0.064143
 21
0.195910638368606
 31
0.0
  0
LINE
  5
436
330
1D
100
AcDbEntity
  8
0
  6
Continuous
100
AcDbLine
 10
-0.071215
 20
0.198839638368606
 30
0.0
 11
-0.067971
 21
0.196672638368606
 31
0.0
  0
LINE
  5
437
330
1D
100
AcDbEntity
  8
0
  6
Continuous
100
AcDbLine
 10
-0.073383
 20
0.2020846383686059
 30
0.0
 11
-0.071215
 21
0.198839638368606
 31
0.0
  0
LINE
  5
438
330
1D
100
AcDbEntity
  8
0
  6
Continuous
100
AcDbLine
 10
-0.074145
 20
0.205910638368606
 30
0.0
 11
-0.073383
 21
0.2020846383686059
 31
0.0
  0
LINE
  5
439
330
1D
100
AcDbEntity
  8
0
  6
Continuous
100
AcDbLine
 10
0.07338
 20
0.2020846383686059
 30
0.0
 11
0.074142
 21
0.205910638368606
 31
0.0
  0
LINE
  5
43A
330
1D
100
AcDbEntity
  8
0
  6
Continuous
100
AcDbLine
 10
0.071212
 20
0.198839638368606
 30
0.0
 11
0.07338
 21
0.2020846383686059
 31
0.0
  0
LINE
  5
43B
330
1D
100
AcDbEntity
  8
0
  6
Continuous
100
AcDbLine
 10
0.067968
 20
0.196672638368606
 30
0.0
 11
0.071212
 21
0.198839638368606
 31
0.0
  0
LINE
  5
43C
330
1D
100
AcDbEntity
  8
0
  6
Continuous
100
AcDbLine
 10
0.06414
 20
0.195910638368606
 30
0.0
 11
0.067968
 21
0.196672638368606
 31
0.0
  0
LINE
  5
43D
330
1D
100
AcDbEntity
  8
0
  6
Continuous
100
AcDbLine
 10
-0.064143
 20
0.195910638368606
 30
0.0
 11
0.06414
 21
0.195910638368606
 31
0.0
  0
LINE
  5
43E
330
1D
100
AcDbEntity
  8
0
  6
Continuous
100
AcDbLine
 10
0.074142
 20
0.205910638368606
 30
0.0
 11
0.074142
 21
0.300919638368606
 31
0.0
  0
LINE
  5
43F
330
1D
100
AcDbEntity
  8
0
  6
Continuous
100
AcDbLine
 10
-0.074145
 20
0.300846638368606
 30
0.0
 11
-0.074145
 21
0.205910638368606
 31
0.0
  0
LINE
  5
440
330
1D
100
AcDbEntity
  8
0
  6
Continuous
100
AcDbLine
 10
-0.071941
 20
0.303666638368606
 30
0.0
 11
-0.071401
 21
0.303666638368606
 31
0.0
  0
LINE
  5
441
330
1D
100
AcDbEntity
  8
0
  6
Continuous
100
AcDbLine
 10
-0.071943
 20
0.3050406383686059
 30
0.0
 11
-0.072424
 21
0.3050406383686059
 31
0.0
  0
LINE
  5
442
330
1D
100
AcDbEntity
  8
0
  6
Continuous
100
AcDbLine
 10
0.074609
 20
0.205125638368606
 30
0.0
 11
0.074609
 21
0.3022936383686059
 31
0.0
  0
LINE
  5
443
330
1D
100
AcDbEntity
  8
0
  6
Continuous
100
AcDbLine
 10
0.074124
 20
0.300919638368606
 30
0.0
 11
0.074124
 21
0.2059146383686059
 31
0.0
  0
LINE
  5
444
330
1D
100
AcDbEntity
  8
0
  6
Continuous
100
AcDbLine
 10
-0.07461
 20
0.3022206383686059
 30
0.0
 11
-0.07461
 21
0.205125638368606
 31
0.0
  0
LINE
  5
445
330
1D
100
AcDbEntity
  8
0
  6
Continuous
100
AcDbLine
 10
-0.074127
 20
0.2059146383686059
 30
0.0
 11
-0.074127
 21
0.300846638368606
 31
0.0
  0
LINE
  5
446
330
1D
100
AcDbEntity
  8
0
  6
Continuous
100
AcDbLine
 10
-0.07168
 20
0.198053638368606
 30
0.0
 11
-0.068436
 21
0.195886638368606
 31
0.0
  0
LINE
  5
447
330
1D
100
AcDbEntity
  8
0
  6
Continuous
100
AcDbLine
 10
-0.067953
 20
0.1966756383686059
 30
0.0
 11
-0.071198
 21
0.198843638368606
 31
0.0
  0
LINE
  5
448
330
1D
100
AcDbEntity
  8
0
  6
Continuous
100
AcDbLine
 10
-0.073848
 20
0.2012986383686059
 30
0.0
 11
-0.07168
 21
0.198053638368606
 31
0.0
  0
LINE
  5
449
330
1D
100
AcDbEntity
  8
0
  6
Continuous
100
AcDbLine
 10
-0.071198
 20
0.198843638368606
 30
0.0
 11
-0.073366
 21
0.202087638368606
 31
0.0
  0
LINE
  5
44A
330
1D
100
AcDbEntity
  8
0
  6
Continuous
100
AcDbLine
 10
-0.07461
 20
0.205125638368606
 30
0.0
 11
-0.073848
 21
0.2012986383686059
 31
0.0
  0
LINE
  5
44B
330
1D
100
AcDbEntity
  8
0
  6
Continuous
100
AcDbLine
 10
-0.073366
 20
0.202087638368606
 30
0.0
 11
-0.074127
 21
0.2059146383686059
 31
0.0
  0
LINE
  5
44C
330
1D
100
AcDbEntity
  8
0
  6
Continuous
100
AcDbLine
 10
0.073848
 20
0.2012986383686059
 30
0.0
 11
0.074609
 21
0.205125638368606
 31
0.0
  0
LINE
  5
44D
330
1D
100
AcDbEntity
  8
0
  6
Continuous
100
AcDbLine
 10
0.074124
 20
0.2059146383686059
 30
0.0
 11
0.073363
 21
0.202087638368606
 31
0.0
  0
LINE
  5
44E
330
1D
100
AcDbEntity
  8
0
  6
Continuous
100
AcDbLine
 10
0.07168
 20
0.198053638368606
 30
0.0
 11
0.073848
 21
0.2012986383686059
 31
0.0
  0
LINE
  5
44F
330
1D
100
AcDbEntity
  8
0
  6
Continuous
100
AcDbLine
 10
0.073363
 20
0.202087638368606
 30
0.0
 11
0.071195
 21
0.198843638368606
 31
0.0
  0
LINE
  5
450
330
1D
100
AcDbEntity
  8
0
  6
Continuous
100
AcDbLine
 10
0.068435
 20
0.195886638368606
 30
0.0
 11
0.07168
 21
0.198053638368606
 31
0.0
  0
LINE
  5
451
330
1D
100
AcDbEntity
  8
0
  6
Continuous
100
AcDbLine
 10
0.071195
 20
0.198843638368606
 30
0.0
 11
0.06795
 21
0.1966756383686059
 31
0.0
  0
LINE
  5
452
330
1D
100
AcDbEntity
  8
0
  6
Continuous
100
AcDbLine
 10
0.064608
 20
0.195125638368606
 30
0.0
 11
0.068435
 21
0.195886638368606
 31
0.0
  0
LINE
  5
453
330
1D
100
AcDbEntity
  8
0
  6
Continuous
100
AcDbLine
 10
0.06795
 20
0.1966756383686059
 30
0.0
 11
0.064123
 21
0.1959146383686059
 31
0.0
  0
LINE
  5
454
330
1D
100
AcDbEntity
  8
0
  6
Continuous
100
AcDbLine
 10
-0.074145
 20
0.301478638368606
 30
0.0
 11
-0.074145
 21
0.300846638368606
 31
0.0
  0
LINE
  5
455
330
1D
100
AcDbEntity
  8
0
  6
Continuous
100
AcDbLine
 10
-0.073619
 20
0.3031406383686059
 30
0.0
 11
-0.074145
 21
0.301478638368606
 31
0.0
  0
LINE
  5
456
330
1D
100
AcDbEntity
  8
0
  6
Continuous
100
AcDbLine
 10
0.071113
 20
0.303666638368606
 30
0.0
 11
0.071938
 21
0.303666638368606
 31
0.0
  0
LINE
  5
457
330
1D
100
AcDbEntity
  8
0
  6
Continuous
100
AcDbLine
 10
0.072423
 20
0.3050406383686059
 30
0.0
 11
0.071597
 21
0.3050406383686059
 31
0.0
  0
LINE
  5
458
330
1D
100
AcDbEntity
  8
0
  6
Continuous
100
AcDbLine
 10
-0.064608
 20
0.195125638368606
 30
0.0
 11
0.064608
 21
0.195125638368606
 31
0.0
  0
LINE
  5
459
330
1D
100
AcDbEntity
  8
0
  6
Continuous
100
AcDbLine
 10
0.064123
 20
0.1959146383686059
 30
0.0
 11
-0.064126
 21
0.1959146383686059
 31
0.0
  0
LINE
  5
45A
330
1D
100
AcDbEntity
  8
0
  6
Continuous
100
AcDbLine
 10
-0.068436
 20
0.195886638368606
 30
0.0
 11
-0.064608
 21
0.195125638368606
 31
0.0
  0
LINE
  5
45B
330
1D
100
AcDbEntity
  8
0
  6
Continuous
100
AcDbLine
 10
-0.064126
 20
0.1959146383686059
 30
0.0
 11
-0.067953
 21
0.1966756383686059
 31
0.0
  0
LINE
  5
45C
330
1D
100
AcDbEntity
  8
0
  6
Continuous
100
AcDbLine
 10
-0.071401
 20
0.303666638368606
 30
0.0
 11
0.071113
 21
0.303666638368606
 31
0.0
  0
LINE
  5
45D
330
1D
100
AcDbEntity
  8
0
  6
Continuous
100
AcDbLine
 10
0.071597
 20
0.3050406383686059
 30
0.0
 11
-0.071943
 21
0.3050406383686059
 31
0.0
  0
LINE
  5
45E
330
1D
100
AcDbEntity
  8
0
  6
Continuous
100
AcDbLine
 10
0.071956
 20
0.303666638368606
 30
0.0
 11
0.07113
 21
0.303666638368606
 31
0.0
  0
LINE
  5
45F
330
1D
100
AcDbEntity
  8
0
  6
Continuous
100
AcDbLine
 10
0.073616
 20
0.3031406383686059
 30
0.0
 11
0.071956
 21
0.303666638368606
 31
0.0
  0
LINE
  5
460
330
1D
100
AcDbEntity
  8
0
  6
Continuous
100
AcDbLine
 10
-0.07461
 20
0.302853638368606
 30
0.0
 11
-0.07461
 21
0.3022206383686059
 31
0.0
  0
LINE
  5
461
330
1D
100
AcDbEntity
  8
0
  6
Continuous
100
AcDbLine
 10
-0.074127
 20
0.300846638368606
 30
0.0
 11
-0.074127
 21
0.301478638368606
 31
0.0
  0
LINE
  5
462
330
1D
100
AcDbEntity
  8
0
  6
Continuous
100
AcDbLine
 10
0.074609
 20
0.3022936383686059
 30
0.0
 11
0.074609
 21
0.302853638368606
 31
0.0
  0
LINE
  5
463
330
1D
100
AcDbEntity
  8
0
  6
Continuous
100
AcDbLine
 10
0.074124
 20
0.301478638368606
 30
0.0
 11
0.074124
 21
0.300919638368606
 31
0.0
  0
LINE
  5
464
330
1D
100
AcDbEntity
  8
0
  6
Continuous
100
AcDbLine
 10
-0.074084
 20
0.3045146383686059
 30
0.0
 11
-0.07461
 21
0.302853638368606
 31
0.0
  0
LINE
  5
465
330
1D
100
AcDbEntity
  8
0
  6
Continuous
100
AcDbLine
 10
-0.074127
 20
0.301478638368606
 30
0.0
 11
-0.073602
 21
0.3031406383686059
 31
0.0
  0
LINE
  5
466
330
1D
100
AcDbEntity
  8
0
  6
Continuous
100
AcDbLine
 10
-0.072424
 20
0.3050406383686059
 30
0.0
 11
-0.074084
 21
0.3045146383686059
 31
0.0
  0
LINE
  5
467
330
1D
100
AcDbEntity
  8
0
  6
Continuous
100
AcDbLine
 10
-0.073602
 20
0.3031406383686059
 30
0.0
 11
-0.071941
 21
0.303666638368606
 31
0.0
  0
LINE
  5
468
330
1D
100
AcDbEntity
  8
0
  6
Continuous
100
AcDbLine
 10
-0.074084
 20
0.3045146383686059
 30
0.0
 11
-0.073602
 21
0.3031406383686059
 31
0.0
  0
LINE
  5
469
330
1D
100
AcDbEntity
  8
0
  6
Continuous
100
AcDbLine
 10
-0.071959
 20
0.303666638368606
 30
0.0
 11
-0.073619
 21
0.3031406383686059
 31
0.0
  0
LINE
  5
46A
330
1D
100
AcDbEntity
  8
0
  6
Continuous
100
AcDbLine
 10
-0.071415
 20
0.303666638368606
 30
0.0
 11
-0.071959
 21
0.303666638368606
 31
0.0
  0
LINE
  5
46B
330
1D
100
AcDbEntity
  8
0
  6
Continuous
100
AcDbLine
 10
0.074083
 20
0.3045146383686059
 30
0.0
 11
0.072423
 21
0.3050406383686059
 31
0.0
  0
LINE
  5
46C
330
1D
100
AcDbEntity
  8
0
  6
Continuous
100
AcDbLine
 10
0.071938
 20
0.303666638368606
 30
0.0
 11
0.073599
 21
0.3031406383686059
 31
0.0
  0
LINE
  5
46D
330
1D
100
AcDbEntity
  8
0
  6
Continuous
100
AcDbLine
 10
0.074609
 20
0.302853638368606
 30
0.0
 11
0.074083
 21
0.3045146383686059
 31
0.0
  0
LINE
  5
46E
330
1D
100
AcDbEntity
  8
0
  6
Continuous
100
AcDbLine
 10
0.073599
 20
0.3031406383686059
 30
0.0
 11
0.074124
 21
0.301478638368606
 31
0.0
  0
LINE
  5
46F
330
1D
100
AcDbEntity
  8
0
  6
Continuous
100
AcDbLine
 10
0.074083
 20
0.3045146383686059
 30
0.0
 11
0.073599
 21
0.3031406383686059
 31
0.0
  0
LINE
  5
470
330
1D
100
AcDbEntity
  8
0
  6
Continuous
100
AcDbLine
 10
0.074142
 20
0.301478638368606
 30
0.0
 11
0.073616
 21
0.3031406383686059
 31
0.0
  0
LINE
  5
471
330
1D
100
AcDbEntity
  8
0
  6
Continuous
100
AcDbLine
 10
0.074142
 20
0.300919638368606
 30
0.0
 11
0.074142
 21
0.301478638368606
 31
0.0
  0
LINE
  5
472
330
1D
100
AcDbEntity
  8
0
  6
Continuous
100
AcDbLine
 10
0.058505
 20
0.209843638368606
 30
0.0
 11
-0.000115
 21
0.209843638368606
 31
0.0
  0
LINE
  5
473
330
1D
100
AcDbEntity
  8
0
  6
Continuous
100
AcDbLine
 10
-0.000115
 20
0.2897806383686059
 30
0.0
 11
0.058505
 21
0.2897806383686059
 31
0.0
  0
LINE
  5
474
330
1D
100
AcDbEntity
  8
0
  6
Continuous
100
AcDbLine
 10
-0.000115
 20
0.203240638368606
 30
0.0
 11
0.065107
 21
0.203240638368606
 31
0.0
  0
LINE
  5
475
330
1D
100
AcDbEntity
  8
0
  6
Continuous
100
AcDbLine
 10
0.065107
 20
0.2963836383686059
 30
0.0
 11
-0.000115
 21
0.2963836383686059
 31
0.0
  0
LINE
  5
476
330
1D
100
AcDbEntity
  8
0
  6
Continuous
100
AcDbLine
 10
-0.000115
 20
0.209843638368606
 30
0.0
 11
-0.058618
 21
0.209843638368606
 31
0.0
  0
LINE
  5
477
330
1D
100
AcDbEntity
  8
0
  6
Continuous
100
AcDbLine
 10
-0.058618
 20
0.2897806383686059
 30
0.0
 11
-0.000115
 21
0.2897806383686059
 31
0.0
  0
LINE
  5
478
330
1D
100
AcDbEntity
  8
0
  6
Continuous
100
AcDbLine
 10
-0.065221
 20
0.203240638368606
 30
0.0
 11
-0.000115
 21
0.203240638368606
 31
0.0
  0
LINE
  5
479
330
1D
100
AcDbEntity
  8
0
  6
Continuous
100
AcDbLine
 10
-0.000115
 20
0.2963836383686059
 30
0.0
 11
-0.065221
 21
0.2963836383686059
 31
0.0
  0
LINE
  5
47A
330
1D
100
AcDbEntity
  8
0
  6
Continuous
100
AcDbLine
 10
-0.058618
 20
0.209843638368606
 30
0.0
 11
-0.060198
 21
0.209843638368606
 31
0.0
  0
LINE
  5
47B
330
1D
100
AcDbEntity
  8
0
  6
Continuous
100
AcDbLine
 10
-0.060198
 20
0.2897806383686059
 30
0.0
 11
-0.058618
 21
0.2897806383686059
 31
0.0
  0
LINE
  5
47C
330
1D
100
AcDbEntity
  8
0
  6
Continuous
100
AcDbLine
 10
-0.066801
 20
0.203240638368606
 30
0.0
 11
-0.065221
 21
0.203240638368606
 31
0.0
  0
LINE
  5
47D
330
1D
100
AcDbEntity
  8
0
  6
Continuous
100
AcDbLine
 10
-0.065221
 20
0.2963836383686059
 30
0.0
 11
-0.066801
 21
0.2963836383686059
 31
0.0
  0
LINE
  5
47E
330
1D
100
AcDbEntity
  8
0
  6
Continuous
100
AcDbLine
 10
0.060195
 20
0.288473638368606
 30
0.0
 11
0.060195
 21
0.2113506383686059
 31
0.0
  0
LINE
  5
47F
330
1D
100
AcDbEntity
  8
0
  6
Continuous
100
AcDbLine
 10
-0.060198
 20
0.2113506383686059
 30
0.0
 11
-0.060198
 21
0.288473638368606
 31
0.0
  0
LINE
  5
480
330
1D
100
AcDbEntity
  8
0
  6
Continuous
100
AcDbLine
 10
0.066798
 20
0.2047486383686059
 30
0.0
 11
0.066798
 21
0.2950756383686059
 31
0.0
  0
LINE
  5
481
330
1D
100
AcDbEntity
  8
0
  6
Continuous
100
AcDbLine
 10
-0.066801
 20
0.2950756383686059
 30
0.0
 11
-0.066801
 21
0.2047486383686059
 31
0.0
  0
LINE
  5
482
330
1D
100
AcDbEntity
  8
0
  6
Continuous
100
AcDbLine
 10
0.060195
 20
0.2897806383686059
 30
0.0
 11
0.060195
 21
0.288473638368606
 31
0.0
  0
LINE
  5
483
330
1D
100
AcDbEntity
  8
0
  6
Continuous
100
AcDbLine
 10
-0.060198
 20
0.288473638368606
 30
0.0
 11
-0.060198
 21
0.2897806383686059
 31
0.0
  0
LINE
  5
484
330
1D
100
AcDbEntity
  8
0
  6
Continuous
100
AcDbLine
 10
0.066798
 20
0.2950756383686059
 30
0.0
 11
0.066798
 21
0.2963836383686059
 31
0.0
  0
LINE
  5
485
330
1D
100
AcDbEntity
  8
0
  6
Continuous
100
AcDbLine
 10
-0.066801
 20
0.2963836383686059
 30
0.0
 11
-0.066801
 21
0.2950756383686059
 31
0.0
  0
LINE
  5
486
330
1D
100
AcDbEntity
  8
0
  6
Continuous
100
AcDbLine
 10
0.060195
 20
0.2113506383686059
 30
0.0
 11
0.060195
 21
0.209843638368606
 31
0.0
  0
LINE
  5
487
330
1D
100
AcDbEntity
  8
0
  6
Continuous
100
AcDbLine
 10
-0.060198
 20
0.209843638368606
 30
0.0
 11
-0.060198
 21
0.2113506383686059
 31
0.0
  0
LINE
  5
488
330
1D
100
AcDbEntity
  8
0
  6
Continuous
100
AcDbLine
 10
0.060195
 20
0.209843638368606
 30
0.0
 11
0.058505
 21
0.209843638368606
 31
0.0
  0
LINE
  5
489
330
1D
100
AcDbEntity
  8
0
  6
Continuous
100
AcDbLine
 10
0.058505
 20
0.2897806383686059
 30
0.0
 11
0.060195
 21
0.2897806383686059
 31
0.0
  0
LINE
  5
48A
330
1D
100
AcDbEntity
  8
0
  6
Continuous
100
AcDbLine
 10
0.066798
 20
0.203240638368606
 30
0.0
 11
0.066798
 21
0.2047486383686059
 31
0.0
  0
LINE
  5
48B
330
1D
100
AcDbEntity
  8
0
  6
Continuous
100
AcDbLine
 10
-0.066801
 20
0.2047486383686059
 30
0.0
 11
-0.066801
 21
0.203240638368606
 31
0.0
  0
LINE
  5
48C
330
1D
100
AcDbEntity
  8
0
  6
Continuous
100
AcDbLine
 10
0.065107
 20
0.203240638368606
 30
0.0
 11
0.066798
 21
0.203240638368606
 31
0.0
  0
LINE
  5
48D
330
1D
100
AcDbEntity
  8
0
  6
Continuous
100
AcDbLine
 10
0.066798
 20
0.2963836383686059
 30
0.0
 11
0.065107
 21
0.2963836383686059
 31
0.0
  0
LINE
  5
48E
330
1D
100
AcDbEntity
  8
0
  6
Continuous
100
AcDbLine
 10
-0.000115
 20
0.284227638368606
 30
0.0
 11
-0.033496
 21
0.284227638368606
 31
0.0
  0
LINE
  5
48F
330
1D
100
AcDbEntity
  8
0
  6
Continuous
100
AcDbLine
 10
-0.035076
 20
0.284227638368606
 30
0.0
 11
-0.035674
 21
0.284359638368606
 31
0.0
  0
LINE
  5
490
330
1D
100
AcDbEntity
  8
0
  6
Continuous
100
AcDbLine
 10
0.035073
 20
0.284227638368606
 30
0.0
 11
0.035671
 21
0.284359638368606
 31
0.0
  0
LINE
  5
491
330
1D
100
AcDbEntity
  8
0
  6
Continuous
100
AcDbLine
 10
-0.035674
 20
0.284359638368606
 30
0.0
 11
-0.059803
 21
0.2896936383686059
 31
0.0
  0
LINE
  5
492
330
1D
100
AcDbEntity
  8
0
  6
Continuous
100
AcDbLine
 10
0.035671
 20
0.284359638368606
 30
0.0
 11
0.0598
 21
0.2896936383686059
 31
0.0
  0
LINE
  5
493
330
1D
100
AcDbEntity
  8
0
  6
Continuous
100
AcDbLine
 10
0.033383
 20
0.284227638368606
 30
0.0
 11
-0.000115
 21
0.284227638368606
 31
0.0
  0
LINE
  5
494
330
1D
100
AcDbEntity
  8
0
  6
Continuous
100
AcDbLine
 10
-0.033496
 20
0.284227638368606
 30
0.0
 11
-0.035076
 21
0.284227638368606
 31
0.0
  0
LINE
  5
495
330
1D
100
AcDbEntity
  8
0
  6
Continuous
100
AcDbLine
 10
0.035073
 20
0.284227638368606
 30
0.0
 11
0.033383
 21
0.284227638368606
 31
0.0
  0
LINE
  5
496
330
1D
100
AcDbEntity
  8
0
  6
Continuous
100
AcDbLine
 10
-0.059803
 20
0.2896936383686059
 30
0.0
 11
-0.060198
 21
0.2897806383686059
 31
0.0
  0
LINE
  5
497
330
1D
100
AcDbEntity
  8
0
  6
Continuous
100
AcDbLine
 10
0.0598
 20
0.2896936383686059
 30
0.0
 11
0.060195
 21
0.2897806383686059
 31
0.0
  0
LINE
  5
498
330
1D
100
AcDbEntity
  8
0
  6
Continuous
100
AcDbLine
 10
0.072965
 20
0.3050406383686059
 30
0.0
 11
0.064824
 21
0.3050406383686059
 31
0.0
  0
LINE
  5
499
330
1D
100
AcDbEntity
  8
0
  6
Continuous
100
AcDbLine
 10
0.064824
 20
0.3050406383686059
 30
0.0
 11
-0.064984
 21
0.3050406383686059
 31
0.0
  0
LINE
  5
49A
330
1D
100
AcDbEntity
  8
0
  6
Continuous
100
AcDbLine
 10
0.074968
 20
0.3050406383686059
 30
0.0
 11
0.074609
 21
0.3050406383686059
 31
0.0
  0
LINE
  5
49B
330
1D
100
AcDbEntity
  8
0
  6
Continuous
100
AcDbLine
 10
-0.07461
 20
0.3050406383686059
 30
0.0
 11
-0.074969
 21
0.3050406383686059
 31
0.0
  0
LINE
  5
49C
330
1D
100
AcDbEntity
  8
0
  6
Continuous
100
AcDbLine
 10
0.074594
 20
0.3050406383686059
 30
0.0
 11
0.072965
 21
0.3050406383686059
 31
0.0
  0
LINE
  5
49D
330
1D
100
AcDbEntity
  8
0
  6
Continuous
100
AcDbLine
 10
0.074594
 20
0.3034106383686059
 30
0.0
 11
0.074594
 21
0.3050406383686059
 31
0.0
  0
LINE
  5
49E
330
1D
100
AcDbEntity
  8
0
  6
Continuous
100
AcDbLine
 10
0.074594
 20
0.2051286383686059
 30
0.0
 11
0.074594
 21
0.3034106383686059
 31
0.0
  0
LINE
  5
49F
330
1D
100
AcDbEntity
  8
0
  6
Continuous
100
AcDbLine
 10
-0.068812
 20
0.195805638368606
 30
0.0
 11
-0.064984
 21
0.195044638368606
 31
0.0
  0
LINE
  5
4A0
330
1D
100
AcDbEntity
  8
0
  6
Continuous
100
AcDbLine
 10
-0.064984
 20
0.195128638368606
 30
0.0
 11
0.064824
 21
0.195128638368606
 31
0.0
  0
LINE
  5
4A1
330
1D
100
AcDbEntity
  8
0
  6
Continuous
100
AcDbLine
 10
-0.074595
 20
0.3050406383686059
 30
0.0
 11
-0.074595
 21
0.3034106383686059
 31
0.0
  0
LINE
  5
4A2
330
1D
100
AcDbEntity
  8
0
  6
Continuous
100
AcDbLine
 10
-0.073031
 20
0.3050406383686059
 30
0.0
 11
-0.074595
 21
0.3050406383686059
 31
0.0
  0
LINE
  5
4A3
330
1D
100
AcDbEntity
  8
0
  6
Continuous
100
AcDbLine
 10
0.064824
 20
0.195128638368606
 30
0.0
 11
0.06842
 21
0.195889638368606
 31
0.0
  0
LINE
  5
4A4
330
1D
100
AcDbEntity
  8
0
  6
Continuous
100
AcDbLine
 10
0.06842
 20
0.195889638368606
 30
0.0
 11
0.071665
 21
0.1980576383686059
 31
0.0
  0
LINE
  5
4A5
330
1D
100
AcDbEntity
  8
0
  6
Continuous
100
AcDbLine
 10
0.071665
 20
0.1980576383686059
 30
0.0
 11
0.073833
 21
0.201301638368606
 31
0.0
  0
LINE
  5
4A6
330
1D
100
AcDbEntity
  8
0
  6
Continuous
100
AcDbLine
 10
0.073833
 20
0.201301638368606
 30
0.0
 11
0.074594
 21
0.2051286383686059
 31
0.0
  0
LINE
  5
4A7
330
1D
100
AcDbEntity
  8
0
  6
Continuous
100
AcDbLine
 10
-0.074595
 20
0.2051286383686059
 30
0.0
 11
-0.073834
 21
0.201301638368606
 31
0.0
  0
LINE
  5
4A8
330
1D
100
AcDbEntity
  8
0
  6
Continuous
100
AcDbLine
 10
-0.073834
 20
0.201301638368606
 30
0.0
 11
-0.071666
 21
0.1980576383686059
 31
0.0
  0
LINE
  5
4A9
330
1D
100
AcDbEntity
  8
0
  6
Continuous
100
AcDbLine
 10
-0.071666
 20
0.1980576383686059
 30
0.0
 11
-0.068421
 21
0.195889638368606
 31
0.0
  0
LINE
  5
4AA
330
1D
100
AcDbEntity
  8
0
  6
Continuous
100
AcDbLine
 10
-0.068421
 20
0.195889638368606
 30
0.0
 11
-0.064984
 21
0.195128638368606
 31
0.0
  0
LINE
  5
4AB
330
1D
100
AcDbEntity
  8
0
  6
Continuous
100
AcDbLine
 10
-0.064984
 20
0.3050406383686059
 30
0.0
 11
-0.073031
 21
0.3050406383686059
 31
0.0
  0
LINE
  5
4AC
330
1D
100
AcDbEntity
  8
0
  6
Continuous
100
AcDbLine
 10
-0.074595
 20
0.3034106383686059
 30
0.0
 11
-0.074595
 21
0.2051286383686059
 31
0.0
  0
LINE
  5
4AD
330
1D
100
AcDbEntity
  8
0
  6
Continuous
100
AcDbLine
 10
-0.064984
 20
0.195044638368606
 30
0.0
 11
0.064824
 21
0.195044638368606
 31
0.0
  0
LINE
  5
4AE
330
1D
100
AcDbEntity
  8
0
  6
Continuous
100
AcDbLine
 10
0.074986
 20
0.3034106383686059
 30
0.0
 11
0.074986
 21
0.3050406383686059
 31
0.0
  0
LINE
  5
4AF
330
1D
100
AcDbEntity
  8
0
  6
Continuous
100
AcDbLine
 10
-0.074986
 20
0.3050406383686059
 30
0.0
 11
-0.074986
 21
0.3034106383686059
 31
0.0
  0
LINE
  5
4B0
330
1D
100
AcDbEntity
  8
0
  6
Continuous
100
AcDbLine
 10
0.064824
 20
0.195044638368606
 30
0.0
 11
0.068812
 21
0.195805638368606
 31
0.0
  0
LINE
  5
4B1
330
1D
100
AcDbEntity
  8
0
  6
Continuous
100
AcDbLine
 10
0.068812
 20
0.195805638368606
 30
0.0
 11
0.072056
 21
0.1979736383686059
 31
0.0
  0
LINE
  5
4B2
330
1D
100
AcDbEntity
  8
0
  6
Continuous
100
AcDbLine
 10
0.072056
 20
0.1979736383686059
 30
0.0
 11
0.074224
 21
0.2012176383686059
 31
0.0
  0
LINE
  5
4B3
330
1D
100
AcDbEntity
  8
0
  6
Continuous
100
AcDbLine
 10
0.074224
 20
0.2012176383686059
 30
0.0
 11
0.074986
 21
0.2050446383686059
 31
0.0
  0
LINE
  5
4B4
330
1D
100
AcDbEntity
  8
0
  6
Continuous
100
AcDbLine
 10
-0.074986
 20
0.2050446383686059
 30
0.0
 11
-0.074224
 21
0.2012176383686059
 31
0.0
  0
LINE
  5
4B5
330
1D
100
AcDbEntity
  8
0
  6
Continuous
100
AcDbLine
 10
-0.074224
 20
0.2012176383686059
 30
0.0
 11
-0.072056
 21
0.1979736383686059
 31
0.0
  0
LINE
  5
4B6
330
1D
100
AcDbEntity
  8
0
  6
Continuous
100
AcDbLine
 10
-0.072056
 20
0.1979736383686059
 30
0.0
 11
-0.068812
 21
0.195805638368606
 31
0.0
  0
LINE
  5
4B7
330
1D
100
AcDbEntity
  8
0
  6
Continuous
100
AcDbLine
 10
-0.074986
 20
0.3034106383686059
 30
0.0
 11
-0.074986
 21
0.2050446383686059
 31
0.0
  0
LINE
  5
4B8
330
1D
100
AcDbEntity
  8
0
  6
Continuous
100
AcDbLine
 10
0.074986
 20
0.2050446383686059
 30
0.0
 11
0.074986
 21
0.3034106383686059
 31
0.0
  0
ENDSEC
  0
SECTION
  2
OBJECTS
  0
DICTIONARY
  5
C
330
0
100
AcDbDictionary
281
     1
  3
ACAD_2007HEADERVARS_RT
350
52E
  3
ACAD_CIP_PREVIOUS_PRODUCT_INFO
350
181
  3
ACAD_COLOR
350
162
  3
ACAD_DETAILVIEWSTYLE
350
17C
  3
ACAD_GROUP
350
D
  3
ACAD_LAYOUT
350
1A
  3
ACAD_MATERIAL
350
130
  3
ACAD_MLEADERSTYLE
350
177
  3
ACAD_MLINESTYLE
350
17
  3
ACAD_PLOTSETTINGS
350
19
  3
ACAD_PLOTSTYLENAME
350
E
  3
ACAD_SCALELIST
350
165
  3
ACAD_SECTIONVIEWSTYLE
350
179
  3
ACAD_TABLESTYLE
350
163
  3
ACAD_VISUALSTYLE
350
149
  3
ACDB_RECOMPOSE_DATA
350
52C
  3
AcDbVariableDictionary
350
51D
  3
AcmDictionary
350
1AE
  3
AMG
350
183
  3
AMGSNAPSETTINGS
350
1E3
  3
DWGPROPS
350
52D
  0
DICTIONARY
  5
519
330
10
100
AcDbDictionary
280
     1
281
     1
  3
ADSK_XREC_LAYER_RECONCILED
360
51A
  0
DICTIONARY
  5
51B
330
4B9
100
AcDbDictionary
280
     1
281
     1
  3
ADSK_XREC_LAYER_RECONCILED
360
51C
  0
DICTIONARY
  5
4BC
330
1D
100
AcDbDictionary
280
     1
281
     1
  3
ACAD_SORTENTS
360
4BD
  0
DICTIONARY
  5
52E
102
{ACAD_REACTORS
330
C
102
}
330
C
100
AcDbDictionary
281
     1
  3
INTERFERECOLOR
350
52F
  0
XRECORD
  5
181
102
{ACAD_REACTORS
330
C
102
}
330
C
100
AcDbXrecord
280
     1
300
AMECH_PP
300
2013
300
PDSS_F_S
  0
DICTIONARY
  5
162
102
{ACAD_REACTORS
330
C
102
}
330
C
100
AcDbDictionary
281
     1
  0
DICTIONARY
  5
17C
102
{ACAD_REACTORS
330
C
102
}
330
C
100
AcDbDictionary
281
     1
  3
Imperial24
350
17D
  0
DICTIONARY
  5
D
102
{ACAD_REACTORS
330
C
102
}
330
C
100
AcDbDictionary
281
     1
  0
DICTIONARY
  5
1A
102
{ACAD_REACTORS
330
C
102
}
330
C
100
AcDbDictionary
281
     1
  3
Layout1
350
1C
  3
Model
350
1E
  0
DICTIONARY
  5
130
102
{ACAD_REACTORS
330
C
102
}
330
C
100
AcDbDictionary
281
     1
  3
ByBlock
350
139
  3
ByLayer
350
131
  3
Global
350
141
  0
DICTIONARY
  5
177
102
{ACAD_REACTORS
330
C
102
}
330
C
100
AcDbDictionary
281
     1
  3
Standard
350
178
  0
DICTIONARY
  5
17
102
{ACAD_REACTORS
330
C
102
}
330
C
100
AcDbDictionary
281
     1
  3
Standard
350
18
  0
DICTIONARY
  5
19
102
{ACAD_REACTORS
330
C
102
}
330
C
100
AcDbDictionary
281
     1
  0
ACDBDICTIONARYWDFLT
  5
E
102
{ACAD_REACTORS
330
C
102
}
330
C
100
AcDbDictionary
281
     1
  3
Normal
350
F
100
AcDbDictionaryWithDefault
340
F
  0
DICTIONARY
  5
165
102
{ACAD_REACTORS
330
C
102
}
330
C
100
AcDbDictionary
281
     1
  3
A0
350
166
  3
A1
350
167
  3
A2
350
168
  3
A3
350
169
  3
A4
350
16A
  3
A5
350
16B
  3
A6
350
16C
  3
A7
350
16D
  3
A8
350
16E
  3
A9
350
16F
  3
B0
350
170
  3
B1
350
171
  3
B2
350
172
  3
B3
350
173
  3
B4
350
174
  3
B5
350
175
  3
B6
350
176
  0
DICTIONARY
  5
179
102
{ACAD_REACTORS
330
C
102
}
330
C
100
AcDbDictionary
281
     1
  3
Imperial24
350
17B
  0
DICTIONARY
  5
163
102
{ACAD_REACTORS
330
C
102
}
330
C
100
AcDbDictionary
281
     1
  3
Standard
350
164
  0
DICTIONARY
  5
149
102
{ACAD_REACTORS
330
C
102
}
330
C
100
AcDbDictionary
281
     1
  3
2dWireframe
350
14F
  3
Basic
350
14E
  3
Brighten
350
155
  3
ColorChange
350
159
  3
Conceptual
350
152
  3
Dim
350
154
  3
EdgeColorOff
350
161
  3
Facepattern
350
158
  3
Flat
350
14A
  3
FlatWithEdges
350
14B
  3
Gouraud
350
14C
  3
GouraudWithEdges
350
14D
  3
Hidden
350
151
  3
JitterOff
350
15F
  3
Linepattern
350
157
  3
OverhangOff
350
160
  3
Realistic
350
153
  3
Shaded
350
15E
  3
Shaded with edges
350
15D
  3
Shades of Gray
350
15A
  3
Sketchy
350
15B
  3
Thicken
350
156
  3
Wireframe
350
150
  3
X-Ray
350
15C
  0
XRECORD
  5
52C
102
{ACAD_REACTORS
330
C
102
}
330
C
100
AcDbXrecord
280
     1
 90
        1
330
164
  0
DICTIONARY
  5
51D
102
{ACAD_REACTORS
330
C
102
}
330
C
100
AcDbDictionary
281
     1
  3
CANNOSCALE
350
522
  3
CMLEADERSTYLE
350
51F
  3
CTABLESTYLE
350
51E
  3
CVIEWDETAILSTYLE
350
520
  3
CVIEWSECTIONSTYLE
350
521
  3
DGNFRAME
350
529
  3
DIMASSOC
350
527
  3
HIDETEXT
350
525
  3
INDEXCTL
350
524
  3
SOLIDHIST
350
528
  3
SORTENTS
350
523
  3
XCLIPFRAME
350
526
  0
DICTIONARY
  5
1AE
102
{ACAD_REACTORS
330
C
102
}
330
C
100
AcDbDictionary
281
     1
  3
AcmStdDictionary
350
1B5
  0
DICTIONARY
  5
183
102
{ACAD_REACTORS
330
C
102
}
330
C
100
AcDbDictionary
281
     1
  0
DICTIONARY
  5
1E3
102
{ACAD_REACTORS
330
C
102
}
330
C
100
AcDbDictionary
281
     1
  0
XRECORD
  5
52D
102
{ACAD_REACTORS
330
C
102
}
330
C
100
AcDbXrecord
280
     1
  1
DWGPROPS COOKIE
  2

  3

  4

  6

  7

  8
tomitais
  9

300
=
301
=
302
=
303
=
304
=
305
=
306
=
307
=
308
=
309
=
 40
0.001048599537037
 41
2456806.656927662
 42
2457347.645149005
  1

 90
        0
  0
XRECORD
  5
51A
102
{ACAD_REACTORS
330
519
102
}
330
519
100
AcDbXrecord
280
     1
290
     1
  0
XRECORD
  5
51C
102
{ACAD_REACTORS
330
51B
102
}
330
51B
100
AcDbXrecord
280
     1
290
     1
  0
SORTENTSTABLE
  5
4BD
102
{ACAD_REACTORS
330
4BC
102
}
330
4BC
100
AcDbSortentsTable
330
1D
331
310
  5
314
331
70
  5
74
331
3A8
  5
436
331
C8
  5
CC
331
321
  5
325
331
332
  5
336
331
D9
  5
DD
331
343
  5
347
331
EA
  5
EE
331
43E
  5
442
331
105
  5
109
331
44F
  5
453
331
116
  5
11A
331
493
  5
497
331
482
  5
486
331
471
  5
475
331
460
  5
464
331
353
  5
357
331
4A4
  5
4A8
331
364
  5
368
331
84
  5
88
331
2DD
  5
2E1
331
375
  5
379
331
95
  5
99
331
3D
  5
41
331
2C
  5
30
331
127
  5
2CF
331
F4
  5
F8
331
2EE
  5
2F2
331
386
  5
38A
331
A6
  5
AA
331
2FF
  5
303
331
397
  5
39B
331
B7
  5
BB
331
5F
  5
63
331
4E
  5
52
331
60
  5
64
331
300
  5
304
331
398
  5
39C
331
B8
  5
BC
331
311
  5
315
331
71
  5
75
331
3A9
  5
437
331
C9
  5
CD
331
322
  5
326
331
333
  5
337
331
DA
  5
DE
331
344
  5
348
331
43F
  5
443
331
106
  5
10A
331
F5
  5
F9
331
450
  5
454
331
117
  5
11B
331
494
  5
498
331
483
  5
487
331
472
  5
476
331
461
  5
465
331
354
  5
358
331
4A5
  5
4A9
331
365
  5
369
331
85
  5
89
331
2DE
  5
2E2
331
376
  5
37A
331
96
  5
9A
331
3E
  5
42
331
2D
  5
31
331
128
  5
2D0
331
EB
  5
EF
331
2EF
  5
2F3
331
387
  5
38B
331
A7
  5
AB
331
4F
  5
53
331
4B0
  5
4B4
331
50
  5
54
331
2F0
  5
2F4
331
388
  5
38C
331
A8
  5
AC
331
301
  5
305
331
61
  5
65
331
399
  5
39D
331
B9
  5
BD
331
312
  5
316
331
72
  5
76
331
323
  5
327
331
CA
  5
CE
331
334
  5
338
331
345
  5
349
331
EC
  5
F0
331
440
  5
444
331
107
  5
10B
331
451
  5
455
331
118
  5
11C
331
495
  5
499
331
484
  5
488
331
473
  5
477
331
462
  5
466
331
355
  5
359
331
4A6
  5
4AA
331
366
  5
36A
331
86
  5
8A
331
2DF
  5
2E3
331
377
  5
37B
331
97
  5
9B
331
3F
  5
43
331
2E
  5
32
331
129
  5
2D1
331
F6
  5
FA
331
DB
  5
DF
331
2E0
  5
2E4
331
40
  5
44
331
378
  5
37C
331
98
  5
9C
331
4B1
  5
4B5
331
51
  5
55
331
2F1
  5
2F5
331
389
  5
38D
331
A9
  5
AD
331
302
  5
306
331
62
  5
66
331
39A
  5
39E
331
313
  5
317
331
73
  5
77
331
324
  5
328
331
CB
  5
CF
331
335
  5
339
331
346
  5
34A
331
ED
  5
F1
331
441
  5
445
331
108
  5
10C
331
496
  5
49A
331
485
  5
489
331
474
  5
478
331
463
  5
467
331
452
  5
456
331
119
  5
11D
331
4A7
  5
4AB
331
2F
  5
33
331
367
  5
36B
331
87
  5
8B
331
356
  5
35A
331
F7
  5
FB
331
DC
  5
E0
331
BA
  5
BE
331
4A8
  5
4AC
331
30
  5
34
331
2D0
  5
2D4
331
368
  5
36C
331
88
  5
8C
331
2E1
  5
2E5
331
41
  5
45
331
379
  5
37D
331
99
  5
9D
331
4B2
  5
4B6
331
52
  5
56
331
2F2
  5
2F6
331
38A
  5
38E
331
303
  5
307
331
63
  5
67
331
39B
  5
39F
331
314
  5
318
331
74
  5
78
331
325
  5
329
331
CC
  5
D0
331
336
  5
33A
331
347
  5
34B
331
EE
  5
F2
331
442
  5
446
331
109
  5
10D
331
497
  5
49B
331
486
  5
48A
331
475
  5
479
331
464
  5
468
331
453
  5
457
331
11A
  5
11E
331
357
  5
35B
331
F8
  5
FC
331
DD
  5
E1
331
BB
  5
BF
331
AA
  5
AE
331
498
  5
49C
331
358
  5
35C
331
78
  5
7C
331
4A9
  5
4AD
331
31
  5
35
331
2D1
  5
2D5
331
369
  5
36D
331
89
  5
8D
331
2E2
  5
2E6
331
42
  5
46
331
37A
  5
37E
331
4B3
  5
4B7
331
53
  5
57
331
2F3
  5
2F7
331
38B
  5
38F
331
304
  5
308
331
64
  5
68
331
39C
  5
3A0
331
315
  5
319
331
75
  5
79
331
326
  5
32A
331
CD
  5
D1
331
337
  5
33B
331
443
  5
447
331
10A
  5
10E
331
F9
  5
FD
331
EF
  5
F3
331
487
  5
48B
331
476
  5
47A
331
465
  5
469
331
454
  5
458
331
11B
  5
11F
331
DE
  5
E2
331
BC
  5
C0
331
AB
  5
AF
331
9A
  5
9E
331
488
  5
48C
331
499
  5
49D
331
348
  5
34C
331
359
  5
35D
331
79
  5
7D
331
4AA
  5
4AE
331
32
  5
36
331
2D2
  5
2D6
331
36A
  5
36E
331
8A
  5
8E
331
2E3
  5
2E7
331
43
  5
47
331
37B
  5
37F
331
4B4
  5
4B8
331
54
  5
58
331
2F4
  5
2F8
331
38C
  5
390
331
305
  5
309
331
65
  5
69
331
39D
  5
3A1
331
316
  5
31A
331
76
  5
7A
331
327
  5
32B
331
CE
  5
D2
331
338
  5
33C
331
444
  5
448
331
10B
  5
10F
331
FA
  5
FE
331
477
  5
47B
331
466
  5
46A
331
455
  5
459
331
11C
  5
120
331
DF
  5
E3
331
BD
  5
C1
331
AC
  5
B0
331
9B
  5
9F
331
489
  5
48D
331
478
  5
47C
331
349
  5
34D
331
49A
  5
49E
331
22
  5
26
331
35A
  5
35E
331
7A
  5
7E
331
4AB
  5
4AF
331
33
  5
37
331
2D3
  5
2D7
331
36B
  5
36F
331
2E4
  5
2E8
331
44
  5
48
331
37C
  5
380
331
4B5
  5
4BB
331
55
  5
59
331
2F5
  5
2F9
331
38D
  5
391
331
306
  5
30A
331
66
  5
6A
331
39E
  5
3A2
331
317
  5
31B
331
77
  5
7B
331
328
  5
32C
331
CF
  5
D3
331
339
  5
33D
331
445
  5
449
331
10C
  5
110
331
FB
  5
FF
331
467
  5
46B
331
456
  5
45A
331
11D
  5
121
331
E0
  5
E4
331
BE
  5
C2
331
AD
  5
B1
331
9C
  5
A0
331
8B
  5
8F
331
48A
  5
48E
331
479
  5
47D
331
468
  5
46C
331
34A
  5
34E
331
49B
  5
49F
331
23
  5
27
331
35B
  5
35F
331
7B
  5
7F
331
4AC
  5
4B0
331
34
  5
38
331
2D4
  5
2D8
331
36C
  5
370
331
2E5
  5
2E9
331
45
  5
49
331
37D
  5
381
331
4B6
  5
4BE
331
56
  5
5A
331
2F6
  5
2FA
331
38E
  5
392
331
307
  5
30B
331
67
  5
6B
331
39F
  5
3A3
331
318
  5
31C
331
329
  5
32D
331
D0
  5
D4
331
33A
  5
33E
331
446
  5
44A
331
10D
  5
111
331
FC
  5
100
331
457
  5
45B
331
11E
  5
122
331
E1
  5
E5
331
BF
  5
C3
331
AE
  5
B2
331
9D
  5
A1
331
8C
  5
90
331
48B
  5
48F
331
47A
  5
47E
331
469
  5
46D
331
458
  5
45C
331
34B
  5
34F
331
49C
  5
4A0
331
24
  5
28
331
35C
  5
360
331
7C
  5
80
331
4AD
  5
4B1
331
35
  5
39
331
2D5
  5
2D9
331
36D
  5
371
331
2E6
  5
2EA
331
46
  5
4A
331
37E
  5
382
331
4B7
  5
4BF
331
57
  5
5B
331
2F7
  5
2FB
331
38F
  5
393
331
308
  5
30C
331
68
  5
6C
331
3A0
  5
3A4
331
319
  5
31D
331
32A
  5
32E
331
D1
  5
D5
331
33B
  5
33F
331
447
  5
44B
331
10E
  5
112
331
FD
  5
101
331
11F
  5
123
331
E2
  5
E6
331
C0
  5
C4
331
AF
  5
B3
331
9E
  5
A2
331
8D
  5
91
331
448
  5
44C
331
48C
  5
490
331
47B
  5
47F
331
46A
  5
46E
331
459
  5
45D
331
120
  5
124
331
34C
  5
350
331
49D
  5
4A1
331
25
  5
29
331
35D
  5
361
331
7D
  5
81
331
4AE
  5
4B2
331
2D6
  5
2DA
331
36
  5
3A
331
36E
  5
372
331
2E7
  5
2EB
331
47
  5
4B
331
37F
  5
383
331
4B8
  5
4C0
331
58
  5
5C
331
2F8
  5
2FC
331
390
  5
394
331
309
  5
30D
331
69
  5
6D
331
3A1
  5
3A5
331
31A
  5
31E
331
32B
  5
32F
331
D2
  5
D6
331
33C
  5
340
331
10F
  5
113
331
FE
  5
102
331
E3
  5
E7
331
C1
  5
C5
331
B0
  5
B4
331
9F
  5
A3
331
8E
  5
92
331
438
  5
43C
331
449
  5
44D
331
110
  5
114
331
47C
  5
480
331
46B
  5
46F
331
45A
  5
45E
331
121
  5
125
331
48D
  5
491
331
434
  5
438
331
34D
  5
351
331
49E
  5
4A2
331
35E
  5
362
331
7E
  5
82
331
4AF
  5
4B3
331
37
  5
3B
331
2D7
  5
2DB
331
26
  5
2A
331
36F
  5
373
331
2E8
  5
2EC
331
48
  5
4C
331
380
  5
384
331
2F9
  5
2FD
331
59
  5
5D
331
391
  5
395
331
B1
  5
B5
331
30A
  5
30E
331
3A2
  5
3A6
331
C2
  5
C6
331
32C
  5
330
331
D3
  5
D7
331
33D
  5
341
331
FF
  5
103
331
E4
  5
E8
331
31B
  5
31F
331
6A
  5
6E
331
A0
  5
A4
331
8F
  5
93
331
439
  5
43D
331
100
  5
104
331
44A
  5
44E
331
111
  5
115
331
47D
  5
481
331
46C
  5
470
331
45B
  5
45F
331
122
  5
126
331
48E
  5
492
331
435
  5
439
331
34E
  5
352
331
2CE
  5
2D2
331
49F
  5
4A3
331
35F
  5
363
331
7F
  5
83
331
2D8
  5
2DC
331
38
  5
3C
331
370
  5
374
331
90
  5
94
331
27
  5
2B
331
2E9
  5
2ED
331
381
  5
385
331
A1
  5
A5
331
2FA
  5
2FE
331
392
  5
396
331
B2
  5
B6
331
30B
  5
30F
331
3A3
  5
3A7
331
C3
  5
C7
331
32D
  5
331
331
D4
  5
D8
331
33E
  5
342
331
E5
  5
E9
331
31C
  5
320
331
6B
  5
6F
331
5A
  5
5E
331
49
  5
4D
331
43A
  5
43E
331
101
  5
105
331
F0
  5
F4
331
44B
  5
44F
331
112
  5
116
331
47E
  5
482
331
46D
  5
471
331
45C
  5
460
331
123
  5
127
331
48F
  5
493
331
436
  5
43A
331
34F
  5
353
331
4A0
  5
4A4
331
28
  5
2C
331
360
  5
364
331
2D9
  5
2DD
331
39
  5
3D
331
371
  5
375
331
91
  5
95
331
80
  5
84
331
2CF
  5
2D3
331
2EA
  5
2EE
331
382
  5
386
331
A2
  5
A6
331
2FB
  5
2FF
331
393
  5
397
331
30C
  5
310
331
6C
  5
70
331
3A4
  5
3A8
331
31D
  5
321
331
32E
  5
332
331
D5
  5
D9
331
33F
  5
343
331
E6
  5
EA
331
C4
  5
C8
331
B3
  5
B7
331
5B
  5
5F
331
4A
  5
4E
331
340
  5
344
331
43B
  5
43F
331
102
  5
106
331
F1
  5
F5
331
44C
  5
450
331
113
  5
117
331
47F
  5
483
331
46E
  5
472
331
45D
  5
461
331
124
  5
128
331
490
  5
494
331
437
  5
43B
331
4A1
  5
4A5
331
29
  5
2D
331
361
  5
365
331
2DA
  5
2DE
331
3A
  5
3E
331
372
  5
376
331
92
  5
96
331
81
  5
85
331
350
  5
354
331
2EB
  5
2EF
331
383
  5
387
331
A3
  5
A7
331
2FC
  5
300
331
394
  5
398
331
B4
  5
B8
331
30D
  5
311
331
3A5
  5
3A9
331
C5
  5
C9
331
32F
  5
333
331
D6
  5
DA
331
E7
  5
EB
331
31E
  5
322
331
6D
  5
71
331
5C
  5
60
331
4B
  5
4F
331
330
  5
334
331
341
  5
345
331
E8
  5
EC
331
43C
  5
440
331
103
  5
107
331
F2
  5
F6
331
44D
  5
451
331
114
  5
118
331
491
  5
495
331
480
  5
484
331
46F
  5
473
331
45E
  5
462
331
125
  5
129
331
4A2
  5
4A6
331
2A
  5
2E
331
362
  5
366
331
82
  5
86
331
2DB
  5
2DF
331
373
  5
377
331
93
  5
97
331
3B
  5
3F
331
351
  5
355
331
2EC
  5
2F0
331
384
  5
388
331
A4
  5
A8
331
2FD
  5
301
331
395
  5
399
331
B5
  5
B9
331
30E
  5
312
331
3A6
  5
434
331
C6
  5
CA
331
D7
  5
DB
331
31F
  5
323
331
6E
  5
72
331
5D
  5
61
331
4C
  5
50
331
320
  5
324
331
331
  5
335
331
D8
  5
DC
331
342
  5
346
331
E9
  5
ED
331
43D
  5
441
331
104
  5
108
331
F3
  5
F7
331
44E
  5
452
331
115
  5
119
331
492
  5
496
331
481
  5
485
331
470
  5
474
331
45F
  5
463
331
352
  5
356
331
4A3
  5
4A7
331
363
  5
367
331
83
  5
87
331
2DC
  5
2E0
331
374
  5
378
331
94
  5
98
331
3C
  5
40
331
2B
  5
2F
331
126
  5
2CE
331
2ED
  5
2F1
331
385
  5
389
331
A5
  5
A9
331
2FE
  5
302
331
396
  5
39A
331
30F
  5
313
331
6F
  5
73
331
3A7
  5
435
331
C7
  5
CB
331
B6
  5
BA
331
5E
  5
62
331
4D
  5
51
  0
XRECORD
  5
52F
102
{ACAD_REACTORS
330
52E
102
}
330
52E
100
AcDbXrecord
280
     1
1004
1800000001000000000000C0000000000000000000000000
  0
ACDBDETAILVIEWSTYLE
  5
17D
102
{ACAD_REACTORS
330
17C
102
}
330
17C
100
AcDbModelDocViewStyle
 70
     0
  3
Imperial24
290
     0
100
AcDbDetailViewStyle
 70
     0
 71
     0
 90
        3
 71
     1
340
11
 40
0.24
340
0
 40
0.24
300

 40
0.36
280
     3
 71
     2
340
16
 90
       25
 71
     3
340
11
 40
0.24
 90
        1
 40
0.75
 90
        1
300
%<\AcVar ViewType \f "%tc1">% %<\AcVar ViewDetailId>%\PSCALE %<\AcVar ViewScale \f "%sn">%
 71
     4
340
16
 90
       25
340
16
 90
       25
280
     0
  0
LAYOUT
  5
1C
102
{ACAD_XDICTIONARY
360
530
102
}
102
{ACAD_REACTORS
330
1A
102
}
330
1A
100
AcDbPlotSettings
  1

  2
none_device
  4

  6

 40
0.0
 41
0.0
 42
0.0
 43
0.0
 44
0.0
 45
0.0
 46
0.0
 47
0.0
 48
0.0
 49
0.0
140
0.0
141
0.0
142
1.0
143
1.0
 70
   688
 72
     0
 73
     0
 74
     5
  7

 75
    16
147
1.0
148
0.0
149
0.0
100
AcDbLayout
  1
Layout1
 70
     1
 71
     1
 10
0.0
 20
0.0
 11
12.0
 21
9.0
 12
0.0
 22
0.0
 32
0.0
 14
1.000000000000000E+20
 24
1.000000000000000E+20
 34
1.000000000000000E+20
 15
-1.000000000000000E+20
 25
-1.000000000000000E+20
 35
-1.000000000000000E+20
146
0.0
 13
0.0
 23
0.0
 33
0.0
 16
1.0
 26
0.0
 36
0.0
 17
0.0
 27
1.0
 37
0.0
 76
     0
330
1B
  0
LAYOUT
  5
1E
102
{ACAD_XDICTIONARY
360
532
102
}
102
{ACAD_REACTORS
330
1A
102
}
330
1A
100
AcDbPlotSettings
  1

  2
none_device
  4

  6

 40
0.0
 41
0.0
 42
0.0
 43
0.0
 44
0.0
 45
0.0
 46
0.0
 47
0.0
 48
0.0
 49
0.0
140
0.0
141
0.0
142
1.0
143
1.0
 70
  1712
 72
     0
 73
     0
 74
     0
  7

 75
     0
147
1.0
148
0.0
149
0.0
100
AcDbLayout
  1
Model
 70
     1
 71
     0
 10
0.0
 20
0.0
 11
12.0
 21
9.0
 12
0.0
 22
0.0
 32
0.0
 14
1.000000000000000E+20
 24
1.000000000000000E+20
 34
1.000000000000000E+20
 15
-1.000000000000000E+20
 25
-1.000000000000000E+20
 35
-1.000000000000000E+20
146
0.0
 13
0.0
 23
0.0
 33
0.0
 16
1.0
 26
0.0
 36
0.0
 17
0.0
 27
1.0
 37
0.0
 76
     0
330
1D
331
12A
  0
MATERIAL
  5
139
102
{ACAD_XDICTIONARY
360
13A
102
}
102
{ACAD_REACTORS
330
130
102
}
330
130
100
AcDbMaterial
  1
ByBlock
 72
     0
 43
0.0208333333333333
 43
0.0
 43
0.0
 43
0.0
 43
0.0
 43
0.0208333333333333
 43
0.0
 43
0.0
 43
0.0
 43
0.0
 43
1.0
 43
0.0
 43
0.0
 43
0.0
 43
0.0
 43
1.0
 77
     0
 47
0.0208333333333333
 47
0.0
 47
0.0
 47
0.0
 47
0.0
 47
0.0208333333333333
 47
0.0
 47
0.0
 47
0.0
 47
0.0
 47
1.0
 47
0.0
 47
0.0
 47
0.0
 47
0.0
 47
1.0
171
     0
 49
0.0208333333333333
 49
0.0
 49
0.0
 49
0.0
 49
0.0
 49
0.0208333333333333
 49
0.0
 49
0.0
 49
0.0
 49
0.0
 49
1.0
 49
0.0
 49
0.0
 49
0.0
 49
0.0
 49
1.0
175
     0
142
0.0208333333333333
142
0.0
142
0.0
142
0.0
142
0.0
142
0.0208333333333333
142
0.0
142
0.0
142
0.0
142
0.0
142
1.0
142
0.0
142
0.0
142
0.0
142
0.0
142
1.0
179
     0
144
0.0208333333333333
144
0.0
144
0.0
144
0.0
144
0.0
144
0.0208333333333333
144
0.0
144
0.0
144
0.0
144
0.0
144
1.0
144
0.0
144
0.0
144
0.0
144
0.0
144
1.0
147
0.0208333333333333
147
0.0
147
0.0
147
0.0
147
0.0
147
0.0208333333333333
147
0.0
147
0.0
147
0.0
147
0.0
147
1.0
147
0.0
147
0.0
147
0.0
147
0.0
147
1.0
  0
MATERIAL
  5
131
102
{ACAD_XDICTIONARY
360
132
102
}
102
{ACAD_REACTORS
330
130
102
}
330
130
100
AcDbMaterial
  1
ByLayer
 72
     0
 43
0.0208333333333333
 43
0.0
 43
0.0
 43
0.0
 43
0.0
 43
0.0208333333333333
 43
0.0
 43
0.0
 43
0.0
 43
0.0
 43
1.0
 43
0.0
 43
0.0
 43
0.0
 43
0.0
 43
1.0
 77
     0
 47
0.0208333333333333
 47
0.0
 47
0.0
 47
0.0
 47
0.0
 47
0.0208333333333333
 47
0.0
 47
0.0
 47
0.0
 47
0.0
 47
1.0
 47
0.0
 47
0.0
 47
0.0
 47
0.0
 47
1.0
171
     0
 49
0.0208333333333333
 49
0.0
 49
0.0
 49
0.0
 49
0.0
 49
0.0208333333333333
 49
0.0
 49
0.0
 49
0.0
 49
0.0
 49
1.0
 49
0.0
 49
0.0
 49
0.0
 49
0.0
 49
1.0
175
     0
142
0.0208333333333333
142
0.0
142
0.0
142
0.0
142
0.0
142
0.0208333333333333
142
0.0
142
0.0
142
0.0
142
0.0
142
1.0
142
0.0
142
0.0
142
0.0
142
0.0
142
1.0
179
     0
144
0.0208333333333333
144
0.0
144
0.0
144
0.0
144
0.0
144
0.0208333333333333
144
0.0
144
0.0
144
0.0
144
0.0
144
1.0
144
0.0
144
0.0
144
0.0
144
0.0
144
1.0
147
0.0208333333333333
147
0.0
147
0.0
147
0.0
147
0.0
147
0.0208333333333333
147
0.0
147
0.0
147
0.0
147
0.0
147
1.0
147
0.0
147
0.0
147
0.0
147
0.0
147
1.0
  0
MATERIAL
  5
141
102
{ACAD_XDICTIONARY
360
142
102
}
102
{ACAD_REACTORS
330
130
102
}
330
130
100
AcDbMaterial
  1
Global
 72
     0
 43
0.0208333333333333
 43
0.0
 43
0.0
 43
0.0
 43
0.0
 43
0.0208333333333333
 43
0.0
 43
0.0
 43
0.0
 43
0.0
 43
1.0
 43
0.0
 43
0.0
 43
0.0
 43
0.0
 43
1.0
 77
     0
 47
0.0208333333333333
 47
0.0
 47
0.0
 47
0.0
 47
0.0
 47
0.0208333333333333
 47
0.0
 47
0.0
 47
0.0
 47
0.0
 47
1.0
 47
0.0
 47
0.0
 47
0.0
 47
0.0
 47
1.0
171
     0
 49
0.0208333333333333
 49
0.0
 49
0.0
 49
0.0
 49
0.0
 49
0.0208333333333333
 49
0.0
 49
0.0
 49
0.0
 49
0.0
 49
1.0
 49
0.0
 49
0.0
 49
0.0
 49
0.0
 49
1.0
175
     0
142
0.0208333333333333
142
0.0
142
0.0
142
0.0
142
0.0
142
0.0208333333333333
142
0.0
142
0.0
142
0.0
142
0.0
142
1.0
142
0.0
142
0.0
142
0.0
142
0.0
142
1.0
179
     0
144
0.0208333333333333
144
0.0
144
0.0
144
0.0
144
0.0
144
0.0208333333333333
144
0.0
144
0.0
144
0.0
144
0.0
144
1.0
144
0.0
144
0.0
144
0.0
144
0.0
144
1.0
147
0.0208333333333333
147
0.0
147
0.0
147
0.0
147
0.0
147
0.0208333333333333
147
0.0
147
0.0
147
0.0
147
0.0
147
1.0
147
0.0
147
0.0
147
0.0
147
0.0
147
1.0
  0
MLEADERSTYLE
  5
178
102
{ACAD_XDICTIONARY
360
569
102
}
102
{ACAD_REACTORS
330
177
102
}
330
177
100
AcDbMLeaderStyle
170
     2
171
     1
172
     0
 90
        2
 40
0.0
 41
0.0
173
     1
 91
-1056964608
340
14
 92
       -2
290
     1
 42
0.09
291
     1
 43
0.36
  3
Standard
 44
0.18
300

342
11
174
     1
178
     6
175
     1
176
     0
 93
-1056964608
 45
0.18
292
     0
297
     0
 46
0.18
 94
-1056964608
 47
1.0
 49
1.0
140
1.0
293
     1
141
0.0
294
     1
177
     0
142
1.0
295
     0
296
     0
143
0.125
1001
ACAD_MLEADERVER
1070
     2
  0
MLINESTYLE
  5
18
102
{ACAD_REACTORS
330
17
102
}
330
17
100
AcDbMlineStyle
  2
STANDARD
 70
     0
  3

 62
   256
 51
90.0
 52
90.0
 71
     2
 49
0.5
 62
   256
  6
BYLAYER
 49
-0.5
 62
   256
  6
BYLAYER
  0
ACDBPLACEHOLDER
  5
F
102
{ACAD_REACTORS
330
E
102
}
330
E
  0
SCALE
  5
166
102
{ACAD_REACTORS
330
165
102
}
330
165
100
AcDbScale
 70
     0
300
1:1
140
1.0
141
1.0
290
     1
  0
SCALE
  5
167
102
{ACAD_REACTORS
330
165
102
}
330
165
100
AcDbScale
 70
     0
300
1/128" = 1'-0"
140
0.0078125
141
12.0
290
     0
  0
SCALE
  5
168
102
{ACAD_REACTORS
330
165
102
}
330
165
100
AcDbScale
 70
     0
300
1/64" = 1'-0"
140
0.015625
141
12.0
290
     0
  0
SCALE
  5
169
102
{ACAD_REACTORS
330
165
102
}
330
165
100
AcDbScale
 70
     0
300
1/32" = 1'-0"
140
0.03125
141
12.0
290
     0
  0
SCALE
  5
16A
102
{ACAD_REACTORS
330
165
102
}
330
165
100
AcDbScale
 70
     0
300
1/16" = 1'-0"
140
0.0625
141
12.0
290
     0
  0
SCALE
  5
16B
102
{ACAD_REACTORS
330
165
102
}
330
165
100
AcDbScale
 70
     0
300
3/32" = 1'-0"
140
0.09375
141
12.0
290
     0
  0
SCALE
  5
16C
102
{ACAD_REACTORS
330
165
102
}
330
165
100
AcDbScale
 70
     0
300
1/8" = 1'-0"
140
0.125
141
12.0
290
     0
  0
SCALE
  5
16D
102
{ACAD_REACTORS
330
165
102
}
330
165
100
AcDbScale
 70
     0
300
3/16" = 1'-0"
140
0.1875
141
12.0
290
     0
  0
SCALE
  5
16E
102
{ACAD_REACTORS
330
165
102
}
330
165
100
AcDbScale
 70
     0
300
1/4" = 1'-0"
140
0.25
141
12.0
290
     0
  0
SCALE
  5
16F
102
{ACAD_REACTORS
330
165
102
}
330
165
100
AcDbScale
 70
     0
300
3/8" = 1'-0"
140
0.375
141
12.0
290
     0
  0
SCALE
  5
170
102
{ACAD_REACTORS
330
165
102
}
330
165
100
AcDbScale
 70
     0
300
1/2" = 1'-0"
140
0.5
141
12.0
290
     0
  0
SCALE
  5
171
102
{ACAD_REACTORS
330
165
102
}
330
165
100
AcDbScale
 70
     0
300
3/4" = 1'-0"
140
0.75
141
12.0
290
     0
  0
SCALE
  5
172
102
{ACAD_REACTORS
330
165
102
}
330
165
100
AcDbScale
 70
     0
300
1" = 1'-0"
140
1.0
141
12.0
290
     0
  0
SCALE
  5
173
102
{ACAD_REACTORS
330
165
102
}
330
165
100
AcDbScale
 70
     0
300
1-1/2" = 1'-0"
140
1.5
141
12.0
290
     0
  0
SCALE
  5
174
102
{ACAD_REACTORS
330
165
102
}
330
165
100
AcDbScale
 70
     0
300
3" = 1'-0"
140
3.0
141
12.0
290
     0
  0
SCALE
  5
175
102
{ACAD_REACTORS
330
165
102
}
330
165
100
AcDbScale
 70
     0
300
6" = 1'-0"
140
6.0
141
12.0
290
     0
  0
SCALE
  5
176
102
{ACAD_REACTORS
330
165
102
}
330
165
100
AcDbScale
 70
     0
300
1'-0" = 1'-0"
140
12.0
141
12.0
290
     0
  0
ACDBSECTIONVIEWSTYLE
  5
17B
102
{ACAD_REACTORS
330
179
102
}
330
179
100
AcDbModelDocViewStyle
 70
     0
  3
Imperial24
290
     0
100
AcDbSectionViewStyle
 70
     0
 71
     0
 90
       78
 71
     1
340
11
 40
0.24
340
0
340
0
 40
0.24
300
I, O, Q, S, X, Z
 40
0.48
 90
        3
 40
0.18
 90
        1
 71
     2
340
17A
 90
       25
340
16
 90
       50
 40
0.24
 40
0.0
 40
0.24
 71
     3
340
11
 40
0.24
 90
        1
 40
0.75
 90
        1
300
%<\AcVar ViewType \f "%tc1">% %<\AcVar ViewSectionStartId>%-%<\AcVar ViewSectionEndId>%\PSCALE %<\AcVar ViewScale \f "%sn">%
 71
     4
300
ANSI31
 40
1.0
 90
        0
290
     0
290
     0
 90
        6
 40
0.0
 40
1.570796326794896
 40
0.2617993877991494
 40
1.308996938995747
 40
-0.2617993877991494
 40
1.832595714594046
  0
TABLESTYLE
  5
164
102
{ACAD_XDICTIONARY
360
52A
102
}
102
{ACAD_REACTORS
330
163
102
}
330
163
100
AcDbTableStyle
  3
Standard
 70
     0
 71
     0
 40
0.06
 41
0.06
280
     0
281
     0
  7
Standard
140
0.18
170
     2
 62
     0
 63
     7
283
     0
274
    -2
284
     1
 64
     0
275
    -2
285
     1
 65
     0
276
    -2
286
     1
 66
     0
277
    -2
287
     1
 67
     0
278
    -2
288
     1
 68
     0
279
    -2
289
     1
 69
     0
  7
Standard
140
0.25
170
     5
 62
     0
 63
     7
283
     0
274
    -2
284
     1
 64
     0
275
    -2
285
     1
 65
     0
276
    -2
286
     1
 66
     0
277
    -2
287
     1
 67
     0
278
    -2
288
     1
 68
     0
279
    -2
289
     1
 69
     0
  7
Standard
140
0.18
170
     5
 62
     0
 63
     7
283
     0
274
    -2
284
     1
 64
     0
275
    -2
285
     1
 65
     0
276
    -2
286
     1
 66
     0
277
    -2
287
     1
 67
     0
278
    -2
288
     1
 68
     0
279
    -2
289
     1
 69
     0
  0
VISUALSTYLE
  5
14F
102
{ACAD_XDICTIONARY
360
541
102
}
102
{ACAD_REACTORS
330
149
102
}
330
149
100
AcDbVisualStyle
  2
2dWireframe
 70
     4
 71
     0
 72
     2
 73
     0
 90
        0
 40
-0.6
 41
-30.0
 62
     5
 63
     7
 74
     1
 91
        4
 64
     7
 65
   257
 75
     1
175
     1
 42
1.0
 92
        0
 66
   257
 43
1.0
 76
     1
 77
     6
 78
     2
 67
     7
 79
     5
170
     0
171
     0
290
     0
174
     0
 93
        1
 44
0.0
173
     0
291
     0
 45
0.0
1001
ACAD
1000
AcDbSavedByObjectVersion
1070
     0
  0
VISUALSTYLE
  5
14E
102
{ACAD_XDICTIONARY
360
53F
102
}
102
{ACAD_REACTORS
330
149
102
}
330
149
100
AcDbVisualStyle
  2
Basic
 70
     7
 71
     1
 72
     0
 73
     1
 90
        0
 40
-0.6
 41
-30.0
 62
     5
 63
     7
 74
     0
 91
        4
 64
     7
 65
   257
 75
     1
175
     1
 42
1.0
 92
        8
 66
     7
 43
1.0
 76
     1
 77
     6
 78
     2
 67
     7
 79
     5
170
     0
171
     0
290
     0
174
     0
 93
        1
 44
0.0
173
     0
291
     1
 45
0.0
1001
ACAD
1000
AcDbSavedByObjectVersion
1070
     0
  0
VISUALSTYLE
  5
155
102
{ACAD_XDICTIONARY
360
54D
102
}
102
{ACAD_REACTORS
330
149
102
}
330
149
100
AcDbVisualStyle
  2
Brighten
 70
    12
 71
     2
 72
     2
 73
     0
 90
        0
 40
-0.6
 41
-30.0
 62
     5
 63
     7
 74
     1
 91
        4
 64
     7
 65
   257
 75
     1
175
     1
 42
1.0
 92
        8
 66
     7
 43
1.0
 76
     1
 77
     6
 78
     2
 67
     7
 79
     5
170
     0
171
     0
290
     0
174
     0
 93
        1
 44
50.0
173
     0
291
     1
 45
0.0
1001
ACAD
1000
AcDbSavedByObjectVersion
1070
     0
  0
VISUALSTYLE
  5
159
102
{ACAD_XDICTIONARY
360
555
102
}
102
{ACAD_REACTORS
330
149
102
}
330
149
100
AcDbVisualStyle
  2
ColorChange
 70
    16
 71
     2
 72
     2
 73
     3
 90
        0
 40
-0.6
 41
-30.0
 62
     5
 63
     8
 74
     1
 91
        4
 64
     7
 65
   257
 75
     1
175
     1
 42
1.0
 92
        8
 66
     8
 43
1.0
 76
     1
 77
     6
 78
     2
 67
     7
 79
     5
170
     0
171
     0
290
     0
174
     0
 93
        1
 44
0.0
173
     0
291
     1
 45
0.0
1001
ACAD
1000
AcDbSavedByObjectVersion
1070
     0
  0
VISUALSTYLE
  5
152
102
{ACAD_XDICTIONARY
360
547
102
}
102
{ACAD_REACTORS
330
149
102
}
330
149
100
AcDbVisualStyle
  2
Conceptual
 70
     9
 71
     3
 72
     2
 73
     0
 90
        0
 40
-0.6
 41
-30.0
 62
     5
 63
     7
 74
     2
 91
        2
 64
     7
 65
   257
 75
     1
175
     1
 42
179.0
 92
        8
 66
     7
 43
1.0
 76
     1
 77
     6
 78
     2
 67
     7
 79
     3
170
     0
171
     0
290
     0
174
     0
 93
        1
 44
0.0
173
     0
291
     0
 45
0.0
1001
ACAD
1000
AcDbSavedByObjectVersion
1070
     0
  0
VISUALSTYLE
  5
154
102
{ACAD_XDICTIONARY
360
54B
102
}
102
{ACAD_REACTORS
330
149
102
}
330
149
100
AcDbVisualStyle
  2
Dim
 70
    11
 71
     2
 72
     2
 73
     0
 90
        0
 40
-0.6
 41
-30.0
 62
     5
 63
     7
 74
     1
 91
        4
 64
     7
 65
   257
 75
     1
175
     1
 42
1.0
 92
        8
 66
     7
 43
1.0
 76
     1
 77
     6
 78
     2
 67
     7
 79
     5
170
     0
171
     0
290
     0
174
     0
 93
        1
 44
-50.0
173
     0
291
     1
 45
0.0
1001
ACAD
1000
AcDbSavedByObjectVersion
1070
     0
  0
VISUALSTYLE
  5
161
102
{ACAD_XDICTIONARY
360
565
102
}
102
{ACAD_REACTORS
330
149
102
}
330
149
100
AcDbVisualStyle
  2
EdgeColorOff
 70
    22
 71
     2
 72
     2
 73
     0
 90
        0
 40
-0.6
 41
-30.0
 62
     5
 63
     7
 74
     1
 91
        4
 64
     7
 65
   257
 75
     1
175
     1
 42
1.0
 92
        8
 66
     7
 43
1.0
 76
     1
 77
     6
 78
     2
 67
     7
 79
     5
170
     0
171
     0
290
     0
174
     0
 93
        1
 44
0.0
173
     0
291
     1
 45
0.0
1001
ACAD
1000
AcDbSavedByObjectVersion
1070
     0
  0
VISUALSTYLE
  5
158
102
{ACAD_XDICTIONARY
360
553
102
}
102
{ACAD_REACTORS
330
149
102
}
330
149
100
AcDbVisualStyle
  2
Facepattern
 70
    15
 71
     2
 72
     2
 73
     0
 90
        0
 40
-0.6
 41
-30.0
 62
     5
 63
     7
 74
     1
 91
        4
 64
     7
 65
   257
 75
     1
175
     1
 42
1.0
 92
        8
 66
     7
 43
1.0
 76
     1
 77
     6
 78
     2
 67
     7
 79
     5
170
     0
171
     0
290
     0
174
     0
 93
        1
 44
0.0
173
     0
291
     1
 45
0.0
1001
ACAD
1000
AcDbSavedByObjectVersion
1070
     0
  0
VISUALSTYLE
  5
14A
102
{ACAD_XDICTIONARY
360
537
102
}
102
{ACAD_REACTORS
330
149
102
}
330
149
100
AcDbVisualStyle
  2
Flat
 70
     0
 71
     2
 72
     1
 73
     1
 90
        2
 40
-0.6
 41
30.0
 62
     5
 63
     7
 74
     0
 91
        0
 64
     7
 65
   257
 75
     1
175
     1
 42
1.0
 92
        8
 66
     7
 43
1.0
 76
     1
 77
     6
 78
     2
 67
     7
 79
     5
170
     0
171
     0
290
     0
174
     0
 93
       13
 44
0.0
173
     0
291
     1
 45
0.0
1001
ACAD
1000
AcDbSavedByObjectVersion
1070
     0
  0
VISUALSTYLE
  5
14B
102
{ACAD_XDICTIONARY
360
539
102
}
102
{ACAD_REACTORS
330
149
102
}
330
149
100
AcDbVisualStyle
  2
FlatWithEdges
 70
     1
 71
     2
 72
     1
 73
     1
 90
        2
 40
-0.6
 41
30.0
 62
     5
 63
     7
 74
     1
 91
        0
 64
     7
 65
   257
 75
     1
175
     1
 42
1.0
 92
        0
 66
   257
 43
1.0
 76
     1
 77
     6
 78
     2
 67
     7
 79
     5
170
     0
171
     0
290
     0
174
     0
 93
       13
 44
0.0
173
     0
291
     1
 45
0.0
1001
ACAD
1000
AcDbSavedByObjectVersion
1070
     0
  0
VISUALSTYLE
  5
14C
102
{ACAD_XDICTIONARY
360
53B
102
}
102
{ACAD_REACTORS
330
149
102
}
330
149
100
AcDbVisualStyle
  2
Gouraud
 70
     2
 71
     2
 72
     2
 73
     1
 90
        2
 40
-0.6
 41
30.0
 62
     5
 63
     7
 74
     0
 91
        0
 64
     7
 65
   257
 75
     1
175
     1
 42
1.0
 92
        0
 66
     7
 43
1.0
 76
     1
 77
     6
 78
     2
 67
     7
 79
     5
170
     0
171
     0
290
     0
174
     0
 93
       13
 44
0.0
173
     0
291
     1
 45
0.0
1001
ACAD
1000
AcDbSavedByObjectVersion
1070
     0
  0
VISUALSTYLE
  5
14D
102
{ACAD_XDICTIONARY
360
53D
102
}
102
{ACAD_REACTORS
330
149
102
}
330
149
100
AcDbVisualStyle
  2
GouraudWithEdges
 70
     3
 71
     2
 72
     2
 73
     1
 90
        2
 40
-0.6
 41
30.0
 62
     5
 63
     7
 74
     1
 91
        0
 64
     7
 65
   257
 75
     1
175
     1
 42
1.0
 92
        0
 66
   257
 43
1.0
 76
     1
 77
     6
 78
     2
 67
     7
 79
     5
170
     0
171
     0
290
     0
174
     0
 93
       13
 44
0.0
173
     0
291
     1
 45
0.0
1001
ACAD
1000
AcDbSavedByObjectVersion
1070
     0
  0
VISUALSTYLE
  5
151
102
{ACAD_XDICTIONARY
360
545
102
}
102
{ACAD_REACTORS
330
149
102
}
330
149
100
AcDbVisualStyle
  2
Hidden
 70
     6
 71
     1
 72
     2
 73
     2
 90
        0
 40
-0.6
 41
-30.0
 62
     5
 63
     7
 74
     2
 91
        2
 64
     7
 65
   257
 75
     2
175
     1
 42
40.0
 92
        0
 66
   257
 43
1.0
 76
     1
 77
     6
 78
     2
 67
     7
 79
     3
170
     0
171
     0
290
     0
174
     0
 93
        1
 44
0.0
173
     0
291
     0
 45
0.0
1001
ACAD
1000
AcDbSavedByObjectVersion
1070
     0
  0
VISUALSTYLE
  5
15F
102
{ACAD_XDICTIONARY
360
561
102
}
102
{ACAD_REACTORS
330
149
102
}
330
149
100
AcDbVisualStyle
  2
JitterOff
 70
    20
 71
     2
 72
     2
 73
     0
 90
        0
 40
-0.6
 41
-30.0
 62
     5
 63
     7
 74
     1
 91
        4
 64
     7
 65
   257
 75
     1
175
     1
 42
1.0
 92
       10
 66
     7
 43
1.0
 76
     1
 77
     6
 78
     2
 67
     7
 79
     5
170
     0
171
     0
290
     0
174
     0
 93
        1
 44
0.0
173
     0
291
     1
 45
0.0
1001
ACAD
1000
AcDbSavedByObjectVersion
1070
     0
  0
VISUALSTYLE
  5
157
102
{ACAD_XDICTIONARY
360
551
102
}
102
{ACAD_REACTORS
330
149
102
}
330
149
100
AcDbVisualStyle
  2
Linepattern
 70
    14
 71
     2
 72
     2
 73
     0
 90
        0
 40
-0.6
 41
-30.0
 62
     5
 63
     7
 74
     1
 91
        4
 64
     7
 65
   257
 75
     7
175
     7
 42
1.0
 92
        8
 66
     7
 43
1.0
 76
     1
 77
     6
 78
     2
 67
     7
 79
     5
170
     0
171
     0
290
     0
174
     0
 93
        1
 44
0.0
173
     0
291
     1
 45
0.0
1001
ACAD
1000
AcDbSavedByObjectVersion
1070
     0
  0
VISUALSTYLE
  5
160
102
{ACAD_XDICTIONARY
360
563
102
}
102
{ACAD_REACTORS
330
149
102
}
330
149
100
AcDbVisualStyle
  2
OverhangOff
 70
    21
 71
     2
 72
     2
 73
     0
 90
        0
 40
-0.6
 41
-30.0
 62
     5
 63
     7
 74
     1
 91
        4
 64
     7
 65
   257
 75
     1
175
     1
 42
1.0
 92
        9
 66
     7
 43
1.0
 76
     1
 77
     6
 78
     2
 67
     7
 79
     5
170
     0
171
     0
290
     0
174
     0
 93
        1
 44
0.0
173
     0
291
     1
 45
0.0
1001
ACAD
1000
AcDbSavedByObjectVersion
1070
     0
  0
VISUALSTYLE
  5
153
102
{ACAD_XDICTIONARY
360
549
102
}
102
{ACAD_REACTORS
330
149
102
}
330
149
100
AcDbVisualStyle
  2
Realistic
 70
     8
 71
     2
 72
     3
 73
     0
 90
        2
 40
-0.6
 41
30.0
 62
     5
 63
     7
 74
     0
 91
        0
 64
     7
 65
   257
 75
     1
175
     1
 42
1.0
 92
        8
 66
   257
 43
1.0
 76
     1
 77
     6
 78
     2
 67
     7
 79
     3
170
     0
171
     0
290
     0
174
     0
 93
       13
 44
0.0
173
     0
291
     0
 45
0.0
1001
ACAD
1000
AcDbSavedByObjectVersion
1070
     0
  0
VISUALSTYLE
  5
15E
102
{ACAD_XDICTIONARY
360
55F
102
}
102
{ACAD_REACTORS
330
149
102
}
330
149
100
AcDbVisualStyle
  2
Shaded
 70
    27
 71
     2
 72
     2
 73
     1
 90
        2
 40
-0.6
 41
30.0
 62
     5
 63
     7
 74
     0
 91
        4
 64
     7
 65
   257
 75
     1
175
     1
 42
1.0
 92
        8
 66
   257
 43
1.0
 76
     1
 77
     6
 78
     2
 67
     8
 79
     3
170
     0
171
     0
290
     0
174
     0
 93
        5
 44
0.0
173
     0
291
     0
 45
0.0
1001
ACAD
1000
AcDbSavedByObjectVersion
1070
     0
  0
VISUALSTYLE
  5
15D
102
{ACAD_XDICTIONARY
360
55D
102
}
102
{ACAD_REACTORS
330
149
102
}
330
149
100
AcDbVisualStyle
  2
Shaded with edges
 70
    26
 71
     2
 72
     2
 73
     1
 90
        2
 40
-0.6
 41
30.0
 62
     5
 63
     7
 74
     1
 91
       10
 64
     7
 65
   257
 75
     2
175
     1
 42
1.0
 92
        8
 66
   257
 43
1.0
 76
     1
 77
     6
 78
     2
 67
     7
 79
     3
170
     0
171
     0
290
     0
174
     0
 93
        5
 44
0.0
173
     0
291
     0
 45
0.0
1001
ACAD
1000
AcDbSavedByObjectVersion
1070
     0
  0
VISUALSTYLE
  5
15A
102
{ACAD_XDICTIONARY
360
557
102
}
102
{ACAD_REACTORS
330
149
102
}
330
149
100
AcDbVisualStyle
  2
Shades of Gray
 70
    23
 71
     2
 72
     2
 73
     3
 90
        0
 40
-0.6
 41
-30.0
 62
     5
 63
     7
 74
     2
 91
        2
 64
     7
 65
     7
 75
     1
175
     1
 42
40.0
 92
        8
 66
     7
 43
1.0
 76
     1
 77
     6
 78
     2
 67
     7
 79
     3
170
     0
171
     0
290
     0
174
     0
 93
        1
 44
0.0
173
     0
291
     0
 45
0.0
1001
ACAD
1000
AcDbSavedByObjectVersion
1070
     0
  0
VISUALSTYLE
  5
15B
102
{ACAD_XDICTIONARY
360
559
102
}
102
{ACAD_REACTORS
330
149
102
}
330
149
100
AcDbVisualStyle
  2
Sketchy
 70
    24
 71
     1
 72
     2
 73
     2
 90
        0
 40
-0.6
 41
-30.0
 62
     5
 63
     7
 74
     2
 91
        2
 64
     7
 65
     7
 75
     1
175
     1
 42
40.0
 92
       11
 66
     7
 43
1.0
 76
     1
 77
     6
 78
     2
 67
     7
 79
     6
170
     0
171
     0
290
     0
174
     0
 93
        1
 44
0.0
173
     0
291
     0
 45
0.0
1001
ACAD
1000
AcDbSavedByObjectVersion
1070
     0
  0
VISUALSTYLE
  5
156
102
{ACAD_XDICTIONARY
360
54F
102
}
102
{ACAD_REACTORS
330
149
102
}
330
149
100
AcDbVisualStyle
  2
Thicken
 70
    13
 71
     2
 72
     2
 73
     0
 90
        0
 40
-0.6
 41
-30.0
 62
     5
 63
     7
 74
     1
 91
        4
 64
     7
 65
   257
 75
     1
175
     1
 42
1.0
 92
       12
 66
     7
 43
1.0
 76
     1
 77
     6
 78
     2
 67
     7
 79
     5
170
     0
171
     0
290
     0
174
     0
 93
        1
 44
0.0
173
     0
291
     1
 45
0.0
1001
ACAD
1000
AcDbSavedByObjectVersion
1070
     0
  0
VISUALSTYLE
  5
150
102
{ACAD_XDICTIONARY
360
543
102
}
102
{ACAD_REACTORS
330
149
102
}
330
149
100
AcDbVisualStyle
  2
Wireframe
 70
     5
 71
     0
 72
     2
 73
     0
 90
        0
 40
-0.6
 41
-30.0
 62
     5
 63
     7
 74
     1
 91
        4
 64
     7
 65
   257
 75
     1
175
     1
 42
1.0
 92
        0
 66
   257
 43
1.0
 76
     1
 77
     6
 78
     2
 67
     7
 79
     3
170
     0
171
     0
290
     0
174
     0
 93
        1
 44
0.0
173
     0
291
     0
 45
0.0
1001
ACAD
1000
AcDbSavedByObjectVersion
1070
     0
  0
VISUALSTYLE
  5
15C
102
{ACAD_XDICTIONARY
360
55B
102
}
102
{ACAD_REACTORS
330
149
102
}
330
149
100
AcDbVisualStyle
  2
X-Ray
 70
    25
 71
     2
 72
     2
 73
     1
 90
        1
 40
0.5
 41
-30.0
 62
     5
 63
     7
 74
     1
 91
        0
 64
     7
 65
   257
 75
     1
175
     1
 42
1.0
 92
        8
 66
     7
 43
1.0
 76
     1
 77
     6
 78
     2
 67
     7
 79
     3
170
     0
171
     0
290
     0
174
     0
 93
       13
 44
0.0
173
     0
291
     0
 45
0.0
1001
ACAD
1000
AcDbSavedByObjectVersion
1070
     0
  0
DICTIONARYVAR
  5
522
102
{ACAD_REACTORS
330
51D
102
}
330
51D
100
DictionaryVariables
280
     0
  1
1:1
  0
DICTIONARYVAR
  5
51F
102
{ACAD_REACTORS
330
51D
102
}
330
51D
100
DictionaryVariables
280
     0
  1
STANDARD
  0
DICTIONARYVAR
  5
51E
102
{ACAD_REACTORS
330
51D
102
}
330
51D
100
DictionaryVariables
280
     0
  1
STANDARD
  0
DICTIONARYVAR
  5
520
102
{ACAD_REACTORS
330
51D
102
}
330
51D
100
DictionaryVariables
280
     0
  1
Imperial24
  0
DICTIONARYVAR
  5
521
102
{ACAD_REACTORS
330
51D
102
}
330
51D
100
DictionaryVariables
280
     0
  1
Imperial24
  0
DICTIONARYVAR
  5
529
102
{ACAD_REACTORS
330
51D
102
}
330
51D
100
DictionaryVariables
280
     0
  1
2
  0
DICTIONARYVAR
  5
527
102
{ACAD_REACTORS
330
51D
102
}
330
51D
100
DictionaryVariables
280
     0
  1
2
  0
DICTIONARYVAR
  5
525
102
{ACAD_REACTORS
330
51D
102
}
330
51D
100
DictionaryVariables
280
     0
  1
1
  0
DICTIONARYVAR
  5
524
102
{ACAD_REACTORS
330
51D
102
}
330
51D
100
DictionaryVariables
280
     0
  1
0
  0
DICTIONARYVAR
  5
528
102
{ACAD_REACTORS
330
51D
102
}
330
51D
100
DictionaryVariables
280
     0
  1
1
  0
DICTIONARYVAR
  5
523
102
{ACAD_REACTORS
330
51D
102
}
330
51D
100
DictionaryVariables
280
     0
  1
127
  0
DICTIONARYVAR
  5
526
102
{ACAD_REACTORS
330
51D
102
}
330
51D
100
DictionaryVariables
280
     0
  1
0
  0
DICTIONARY
  5
1B5
102
{ACAD_REACTORS
330
1AE
102
}
330
1AE
100
AcDbDictionary
281
     1
  0
DICTIONARY
  5
530
330
1C
100
AcDbDictionary
280
     1
281
     1
  3
ACAD_XREC_ROUNDTRIP
360
531
  0
DICTIONARY
  5
532
330
1E
100
AcDbDictionary
280
     1
281
     1
  3
ACAD_XREC_ROUNDTRIP
360
533
  0
DICTIONARY
  5
13A
330
139
100
AcDbDictionary
280
     1
281
     1
  3
ACAD_XREC_ROUNDTRIP
360
535
  3
BUMPTILE
360
13C
  3
DIFFUSETILE
360
13B
  3
OPACITYTILE
360
13F
  3
REFLECTIONTILE
360
13E
  3
REFRACTIONTILE
360
140
  3
SPECULARTILE
360
13D
  0
DICTIONARY
  5
132
330
131
100
AcDbDictionary
280
     1
281
     1
  3
ACAD_XREC_ROUNDTRIP
360
534
  3
BUMPTILE
360
134
  3
DIFFUSETILE
360
133
  3
OPACITYTILE
360
137
  3
REFLECTIONTILE
360
136
  3
REFRACTIONTILE
360
138
  3
SPECULARTILE
360
135
  0
DICTIONARY
  5
142
330
141
100
AcDbDictionary
280
     1
281
     1
  3
ACAD_XREC_ROUNDTRIP
360
536
  3
BUMPTILE
360
144
  3
DIFFUSETILE
360
143
  3
OPACITYTILE
360
147
  3
REFLECTIONTILE
360
146
  3
REFRACTIONTILE
360
148
  3
SPECULARTILE
360
145
  0
DICTIONARY
  5
569
330
178
100
AcDbDictionary
280
     1
281
     1
  3
ACAD_XREC_ROUNDTRIP
360
56A
  0
DICTIONARY
  5
52A
330
164
100
AcDbDictionary
280
     1
281
     1
  3
ACAD_ROUNDTRIP_2008_TABLESTYLE_CELLSTYLEMAP
360
52B
  3
ACAD_XREC_ROUNDTRIP
360
567
  0
DICTIONARY
  5
541
330
14F
100
AcDbDictionary
280
     1
281
     1
  3
ACAD_XREC_ROUNDTRIP
360
542
  0
DICTIONARY
  5
53F
330
14E
100
AcDbDictionary
280
     1
281
     1
  3
ACAD_XREC_ROUNDTRIP
360
540
  0
DICTIONARY
  5
54D
330
155
100
AcDbDictionary
280
     1
281
     1
  3
ACAD_XREC_ROUNDTRIP
360
54E
  0
DICTIONARY
  5
555
330
159
100
AcDbDictionary
280
     1
281
     1
  3
ACAD_XREC_ROUNDTRIP
360
556
  0
DICTIONARY
  5
547
330
152
100
AcDbDictionary
280
     1
281
     1
  3
ACAD_XREC_ROUNDTRIP
360
548
  0
DICTIONARY
  5
54B
330
154
100
AcDbDictionary
280
     1
281
     1
  3
ACAD_XREC_ROUNDTRIP
360
54C
  0
DICTIONARY
  5
565
330
161
100
AcDbDictionary
280
     1
281
     1
  3
ACAD_XREC_ROUNDTRIP
360
566
  0
DICTIONARY
  5
553
330
158
100
AcDbDictionary
280
     1
281
     1
  3
ACAD_XREC_ROUNDTRIP
360
554
  0
DICTIONARY
  5
537
330
14A
100
AcDbDictionary
280
     1
281
     1
  3
ACAD_XREC_ROUNDTRIP
360
538
  0
DICTIONARY
  5
539
330
14B
100
AcDbDictionary
280
     1
281
     1
  3
ACAD_XREC_ROUNDTRIP
360
53A
  0
DICTIONARY
  5
53B
330
14C
100
AcDbDictionary
280
     1
281
     1
  3
ACAD_XREC_ROUNDTRIP
360
53C
  0
DICTIONARY
  5
53D
330
14D
100
AcDbDictionary
280
     1
281
     1
  3
ACAD_XREC_ROUNDTRIP
360
53E
  0
DICTIONARY
  5
545
330
151
100
AcDbDictionary
280
     1
281
     1
  3
ACAD_XREC_ROUNDTRIP
360
546
  0
DICTIONARY
  5
561
330
15F
100
AcDbDictionary
280
     1
281
     1
  3
ACAD_XREC_ROUNDTRIP
360
562
  0
DICTIONARY
  5
551
330
157
100
AcDbDictionary
280
     1
281
     1
  3
ACAD_XREC_ROUNDTRIP
360
552
  0
DICTIONARY
  5
563
330
160
100
AcDbDictionary
280
     1
281
     1
  3
ACAD_XREC_ROUNDTRIP
360
564
  0
DICTIONARY
  5
549
330
153
100
AcDbDictionary
280
     1
281
     1
  3
ACAD_XREC_ROUNDTRIP
360
54A
  0
DICTIONARY
  5
55F
330
15E
100
AcDbDictionary
280
     1
281
     1
  3
ACAD_XREC_ROUNDTRIP
360
560
  0
DICTIONARY
  5
55D
330
15D
100
AcDbDictionary
280
     1
281
     1
  3
ACAD_XREC_ROUNDTRIP
360
55E
  0
DICTIONARY
  5
557
330
15A
100
AcDbDictionary
280
     1
281
     1
  3
ACAD_XREC_ROUNDTRIP
360
558
  0
DICTIONARY
  5
559
330
15B
100
AcDbDictionary
280
     1
281
     1
  3
ACAD_XREC_ROUNDTRIP
360
55A
  0
DICTIONARY
  5
54F
330
156
100
AcDbDictionary
280
     1
281
     1
  3
ACAD_XREC_ROUNDTRIP
360
550
  0
DICTIONARY
  5
543
330
150
100
AcDbDictionary
280
     1
281
     1
  3
ACAD_XREC_ROUNDTRIP
360
544
  0
DICTIONARY
  5
55B
330
15C
100
AcDbDictionary
280
     1
281
     1
  3
ACAD_XREC_ROUNDTRIP
360
55C
  0
XRECORD
  5
531
102
{ACAD_REACTORS
330
530
102
}
330
530
100
AcDbXrecord
280
     1
102
SHADEPLOT
 70
     0
102
SHADEPLOTRESLEVEL
 70
     2
102
SHADEPLOTCUSTOMDPI
 70
   300
  0
XRECORD
  5
533
102
{ACAD_REACTORS
330
532
102
}
330
532
100
AcDbXrecord
280
     1
102
SHADEPLOT
 70
     0
102
SHADEPLOTRESLEVEL
 70
     2
102
SHADEPLOTCUSTOMDPI
 70
   300
  0
XRECORD
  5
535
102
{ACAD_REACTORS
330
13A
102
}
330
13A
100
AcDbXrecord
280
     1
102
MATERIAL
148
0.0
149
0.0
149
0.0
 93
        0
 94
      127
282
     0
 72
     0
 77
     0
171
     0
175
     0
179
     0
273
     0
  0
XRECORD
  5
13C
102
{ACAD_REACTORS
330
13A
102
}
330
13A
100
AcDbXrecord
280
     1
270
     1
271
     1
  0
XRECORD
  5
13B
102
{ACAD_REACTORS
330
13A
102
}
330
13A
100
AcDbXrecord
280
     1
270
     1
271
     1
  0
XRECORD
  5
13F
102
{ACAD_REACTORS
330
13A
102
}
330
13A
100
AcDbXrecord
280
     1
270
     1
271
     1
  0
XRECORD
  5
13E
102
{ACAD_REACTORS
330
13A
102
}
330
13A
100
AcDbXrecord
280
     1
270
     1
271
     1
  0
XRECORD
  5
140
102
{ACAD_REACTORS
330
13A
102
}
330
13A
100
AcDbXrecord
280
     1
270
     1
271
     1
  0
XRECORD
  5
13D
102
{ACAD_REACTORS
330
13A
102
}
330
13A
100
AcDbXrecord
280
     1
270
     1
271
     1
  0
XRECORD
  5
534
102
{ACAD_REACTORS
330
132
102
}
330
132
100
AcDbXrecord
280
     1
102
MATERIAL
148
0.0
149
0.0
149
0.0
 93
        0
 94
      127
282
     0
 72
     0
 77
     0
171
     0
175
     0
179
     0
273
     0
  0
XRECORD
  5
134
102
{ACAD_REACTORS
330
132
102
}
330
132
100
AcDbXrecord
280
     1
270
     1
271
     1
  0
XRECORD
  5
133
102
{ACAD_REACTORS
330
132
102
}
330
132
100
AcDbXrecord
280
     1
270
     1
271
     1
  0
XRECORD
  5
137
102
{ACAD_REACTORS
330
132
102
}
330
132
100
AcDbXrecord
280
     1
270
     1
271
     1
  0
XRECORD
  5
136
102
{ACAD_REACTORS
330
132
102
}
330
132
100
AcDbXrecord
280
     1
270
     1
271
     1
  0
XRECORD
  5
138
102
{ACAD_REACTORS
330
132
102
}
330
132
100
AcDbXrecord
280
     1
270
     1
271
     1
  0
XRECORD
  5
135
102
{ACAD_REACTORS
330
132
102
}
330
132
100
AcDbXrecord
280
     1
270
     1
271
     1
  0
XRECORD
  5
536
102
{ACAD_REACTORS
330
142
102
}
330
142
100
AcDbXrecord
280
     1
102
MATERIAL
148
0.0
149
0.0
149
0.0
 93
        0
 94
      127
282
     0
 72
     0
 77
     0
171
     0
175
     0
179
     0
273
     0
  0
XRECORD
  5
144
102
{ACAD_REACTORS
330
142
102
}
330
142
100
AcDbXrecord
280
     1
270
     1
271
     1
  0
XRECORD
  5
143
102
{ACAD_REACTORS
330
142
102
}
330
142
100
AcDbXrecord
280
     1
270
     1
271
     1
  0
XRECORD
  5
147
102
{ACAD_REACTORS
330
142
102
}
330
142
100
AcDbXrecord
280
     1
270
     1
271
     1
  0
XRECORD
  5
146
102
{ACAD_REACTORS
330
142
102
}
330
142
100
AcDbXrecord
280
     1
270
     1
271
     1
  0
XRECORD
  5
148
102
{ACAD_REACTORS
330
142
102
}
330
142
100
AcDbXrecord
280
     1
270
     1
271
     1
  0
XRECORD
  5
145
102
{ACAD_REACTORS
330
142
102
}
330
142
100
AcDbXrecord
280
     1
270
     1
271
     1
  0
XRECORD
  5
56A
102
{ACAD_REACTORS
330
569
102
}
330
569
100
AcDbXrecord
280
     1
102
ACAD_ROUNDTRIP_2012_MLEADER_STYLE
298
     1
  0
CELLSTYLEMAP
  5
52B
102
{ACAD_REACTORS
330
52A
102
}
330
52A
100
AcDbCellStyleMap
 90
        3
300
CELLSTYLE
  1
TABLEFORMAT_BEGIN
 90
        5
170
     1
 91
        0
 92
    32768
 62
   257
 93
        1
300
CONTENTFORMAT
  1
CONTENTFORMAT_BEGIN
 90
        0
 91
        0
 92
      512
 93
        0
300

 40
0.0
140
1.0
 94
        5
 62
     0
340
11
144
0.25
309
CONTENTFORMAT_END
171
     0
 94
        0
309
TABLEFORMAT_END
  1
CELLSTYLE_BEGIN
 90
        1
 91
        1
300
_TITLE
309
CELLSTYLE_END
300
CELLSTYLE
  1
TABLEFORMAT_BEGIN
 90
        5
170
     1
 91
        0
 92
        0
 62
   257
 93
        1
300
CONTENTFORMAT
  1
CONTENTFORMAT_BEGIN
 90
        0
 91
        0
 92
      512
 93
        0
300

 40
0.0
140
1.0
 94
        5
 62
     0
340
11
144
0.18
309
CONTENTFORMAT_END
171
     0
 94
        0
309
TABLEFORMAT_END
  1
CELLSTYLE_BEGIN
 90
        2
 91
        1
300
_HEADER
309
CELLSTYLE_END
300
CELLSTYLE
  1
TABLEFORMAT_BEGIN
 90
        5
170
     1
 91
        0
 92
        0
 62
   257
 93
        1
300
CONTENTFORMAT
  1
CONTENTFORMAT_BEGIN
 90
        0
 91
        0
 92
      512
 93
        0
300

 40
0.0
140
1.0
 94
        2
 62
     0
340
11
144
0.18
309
CONTENTFORMAT_END
171
     0
 94
        0
309
TABLEFORMAT_END
  1
CELLSTYLE_BEGIN
 90
        3
 91
        2
300
_DATA
309
CELLSTYLE_END
  0
XRECORD
  5
567
102
{ACAD_REACTORS
330
52A
102
}
330
52A
100
AcDbXrecord
280
     1
102
ACAD_ROUNDTRIP_PRE2007_TABLESTYLE
 90
      512
 91
        0
  1

 92
      512
 93
        0
  2

 94
      512
 95
        0
  3

  0
XRECORD
  5
542
102
{ACAD_REACTORS
330
541
102
}
330
541
100
AcDbXrecord
280
     1
102
RTVSPost2010Prop28
280
     1
102
RTVSPost2010PropOp28
 70
     1
102
RTVSPost2010Prop29
280
     1
102
RTVSPost2010PropOp29
 70
     1
102
RTVSPost2010Prop30
280
     0
102
RTVSPost2010PropOp30
 70
     1
102
RTVSPost2010Prop31
280
     0
102
RTVSPost2010PropOp31
 70
     1
102
RTVSPost2010Prop32
280
     0
102
RTVSPost2010PropOp32
 70
     1
102
RTVSPost2010Prop33
280
     0
102
RTVSPost2010PropOp33
 70
     1
102
RTVSPost2010Prop34
280
     0
102
RTVSPost2010PropOp34
 70
     1
102
RTVSPost2010Prop35
280
     0
102
RTVSPost2010PropOp35
 70
     1
102
RTVSPost2010Prop36
280
     0
102
RTVSPost2010PropOp36
 70
     1
102
RTVSPost2010Prop37
 90
       50
102
RTVSPost2010PropOp37
 70
     1
102
RTVSPost2010Prop38
140
0.0
102
RTVSPost2010PropOp38
 70
     1
102
RTVSPost2010Prop39
140
1.0
102
RTVSPost2010PropOp39
 70
     1
102
RTVSPost2010Prop40
 90
        0
102
RTVSPost2010PropOp40
 70
     1
102
RTVSPost2010Prop41ColorIndex
 90
       18
102
RTVSPost2010Prop41ColorRGB
 90
        0
102
RTVSPost2010PropOp41
 70
     1
102
RTVSPost2010Prop42
 90
       50
102
RTVSPost2010PropOp42
 70
     1
102
RTVSPost2010Prop43
 90
        3
102
RTVSPost2010PropOp43
 70
     1
102
RTVSPost2010Prop44ColorIndex
 90
        5
102
RTVSPost2010Prop44ColorRGB
 90
      255
102
RTVSPost2010PropOp44
 70
     1
102
RTVSPost2010Prop45
280
     0
102
RTVSPost2010PropOp45
 70
     1
102
RTVSPost2010Prop46
 90
       50
102
RTVSPost2010PropOp46
 70
     1
102
RTVSPost2010Prop47
 90
       50
102
RTVSPost2010PropOp47
 70
     1
102
RTVSPost2010Prop48
 90
       50
102
RTVSPost2010PropOp48
 70
     1
102
RTVSPost2010Prop49
280
     0
102
RTVSPost2010PropOp49
 70
     1
102
RTVSPost2010Prop50
 90
       50
102
RTVSPost2010PropOp50
 70
     1
102
RTVSPost2010Prop51ColorIndex
 90
      256
102
RTVSPost2010Prop51ColorRGB
 90
-16777216
102
RTVSPost2010PropOp51
 70
     0
102
RTVSPost2010Prop52
140
1.0
102
RTVSPost2010PropOp52
 70
     0
102
RTVSPost2010Prop53
 90
        2
102
RTVSPost2010PropOp53
 70
     1
102
RTVSPost2010Prop54
  1
strokes_ogs.tif
102
RTVSPost2010PropOp54
 70
     1
102
RTVSPost2010Prop55
280
     0
102
RTVSPost2010PropOp55
 70
     1
102
RTVSPost2010Prop56
140
1.0
102
RTVSPost2010PropOp56
 70
     1
102
RTVSPost2010Prop57
140
1.0
102
RTVSPost2010PropOp57
 70
     1
102
RTVSPropertyOp0
 70
     1
102
RTVSPropertyOp1
 70
     1
102
RTVSPropertyOp2
 70
     1
102
RTVSPropertyOp3
 70
     1
102
RTVSPropertyOp4
 70
     1
102
RTVSPropertyOp5
 70
     1
102
RTVSPropertyOp6
 70
     1
102
RTVSPropertyOp7
 70
     1
102
RTVSPropertyOp8
 70
     1
102
RTVSPropertyOp9
 70
     1
102
RTVSPropertyOp10
 70
     1
102
RTVSPropertyOp11
 70
     1
102
RTVSPropertyOp12
 70
     1
102
RTVSPropertyOp13
 70
     1
102
RTVSPropertyOp14
 70
     1
102
RTVSPropertyOp15
 70
     1
102
RTVSPropertyOp16
 70
     1
102
RTVSPropertyOp17
 70
     1
102
RTVSPropertyOp18
 70
     1
102
RTVSPropertyOp19
 70
     1
102
RTVSPropertyOp20
 70
     1
102
RTVSPropertyOp21
 70
     1
102
RTVSPropertyOp22
 70
     1
102
RTVSPropertyOp23
 70
     1
102
RTVSPropertyOp24
 70
     1
102
RTVSPropertyOp25
 70
     1
102
RTVSPropertyOp26
 70
     1
102
RTVSPropertyOp27
 70
     1
102
RTVSPropertyOp28
 70
     1
102
RTVSPropertyOp29
 70
     1
102
RTVSPropertyOp30
 70
     1
102
RTVSPropertyOp31
 70
     1
102
RTVSPropertyOp32
 70
     1
102
RTVSPropertyOp33
 70
     1
102
RTVSPropertyOp34
 70
     1
102
RTVSPropertyOp35
 70
     1
102
RTVSPropertyOp36
 70
     1
102
RTVSPropertyOp37
 70
     1
102
RTVSPropertyOp38
 70
     1
102
RTVSPropertyOp39
 70
     1
102
RTVSPropertyOp40
 70
     1
102
RTVSPropertyOp41
 70
     1
102
RTVSPropertyOp42
 70
     1
102
RTVSPropertyOp43
 70
     1
102
RTVSPropertyOp44
 70
     1
102
RTVSPropertyOp45
 70
     1
102
RTVSPropertyOp46
 70
     1
102
RTVSPropertyOp47
 70
     1
102
RTVSPropertyOp48
 70
     1
102
RTVSPropertyOp49
 70
     1
102
RTVSPropertyOp50
 70
     1
102
RTVSPropertyOp51
 70
     0
102
RTVSPropertyOp52
 70
     0
102
RTVSPropertyOp53
 70
     1
102
RTVSPropertyOp54
 70
     1
102
RTVSPropertyOp55
 70
     1
102
RTVSPropertyOp56
 70
     1
102
RTVSPropertyOp57
 70
     1
102
RTVSPropertyOp58
 70
     1
102
RTVSPropertyOp59
 70
     1
102
RTVSPropertyOp60
 70
     1
102
RTVSPropertyOp61
 70
     1
102
RTVSPropertyOp62
 70
     1
  0
XRECORD
  5
540
102
{ACAD_REACTORS
330
53F
102
}
330
53F
100
AcDbXrecord
280
     1
102
RTVSPost2010Prop28
280
     0
102
RTVSPost2010PropOp28
 70
     1
102
RTVSPost2010Prop29
280
     1
102
RTVSPost2010PropOp29
 70
     1
102
RTVSPost2010Prop30
280
     1
102
RTVSPost2010PropOp30
 70
     1
102
RTVSPost2010Prop31
280
     0
102
RTVSPost2010PropOp31
 70
     1
102
RTVSPost2010Prop32
280
     0
102
RTVSPost2010PropOp32
 70
     1
102
RTVSPost2010Prop33
280
     0
102
RTVSPost2010PropOp33
 70
     1
102
RTVSPost2010Prop34
280
     0
102
RTVSPost2010PropOp34
 70
     1
102
RTVSPost2010Prop35
280
     0
102
RTVSPost2010PropOp35
 70
     1
102
RTVSPost2010Prop36
280
     0
102
RTVSPost2010PropOp36
 70
     1
102
RTVSPost2010Prop37
 90
       50
102
RTVSPost2010PropOp37
 70
     1
102
RTVSPost2010Prop38
140
0.0
102
RTVSPost2010PropOp38
 70
     1
102
RTVSPost2010Prop39
140
1.0
102
RTVSPost2010PropOp39
 70
     1
102
RTVSPost2010Prop40
 90
        0
102
RTVSPost2010PropOp40
 70
     1
102
RTVSPost2010Prop41ColorIndex
 90
       18
102
RTVSPost2010Prop41ColorRGB
 90
        0
102
RTVSPost2010PropOp41
 70
     1
102
RTVSPost2010Prop42
 90
       50
102
RTVSPost2010PropOp42
 70
     1
102
RTVSPost2010Prop43
 90
        3
102
RTVSPost2010PropOp43
 70
     1
102
RTVSPost2010Prop44ColorIndex
 90
        5
102
RTVSPost2010Prop44ColorRGB
 90
      255
102
RTVSPost2010PropOp44
 70
     1
102
RTVSPost2010Prop45
280
     0
102
RTVSPost2010PropOp45
 70
     1
102
RTVSPost2010Prop46
 90
       50
102
RTVSPost2010PropOp46
 70
     1
102
RTVSPost2010Prop47
 90
       50
102
RTVSPost2010PropOp47
 70
     1
102
RTVSPost2010Prop48
 90
       50
102
RTVSPost2010PropOp48
 70
     1
102
RTVSPost2010Prop49
280
     0
102
RTVSPost2010PropOp49
 70
     1
102
RTVSPost2010Prop50
 90
       50
102
RTVSPost2010PropOp50
 70
     1
102
RTVSPost2010Prop51ColorIndex
 90
      256
102
RTVSPost2010Prop51ColorRGB
 90
-16777216
102
RTVSPost2010PropOp51
 70
     0
102
RTVSPost2010Prop52
140
1.0
102
RTVSPost2010PropOp52
 70
     0
102
RTVSPost2010Prop53
 90
        2
102
RTVSPost2010PropOp53
 70
     1
102
RTVSPost2010Prop54
  1
strokes_ogs.tif
102
RTVSPost2010PropOp54
 70
     1
102
RTVSPost2010Prop55
280
     0
102
RTVSPost2010PropOp55
 70
     1
102
RTVSPost2010Prop56
140
1.0
102
RTVSPost2010PropOp56
 70
     1
102
RTVSPost2010Prop57
140
1.0
102
RTVSPost2010PropOp57
 70
     1
102
RTVSPropertyOp0
 70
     1
102
RTVSPropertyOp1
 70
     1
102
RTVSPropertyOp2
 70
     1
102
RTVSPropertyOp3
 70
     1
102
RTVSPropertyOp4
 70
     1
102
RTVSPropertyOp5
 70
     1
102
RTVSPropertyOp6
 70
     1
102
RTVSPropertyOp7
 70
     1
102
RTVSPropertyOp8
 70
     1
102
RTVSPropertyOp9
 70
     1
102
RTVSPropertyOp10
 70
     1
102
RTVSPropertyOp11
 70
     1
102
RTVSPropertyOp12
 70
     1
102
RTVSPropertyOp13
 70
     1
102
RTVSPropertyOp14
 70
     1
102
RTVSPropertyOp15
 70
     1
102
RTVSPropertyOp16
 70
     1
102
RTVSPropertyOp17
 70
     1
102
RTVSPropertyOp18
 70
     1
102
RTVSPropertyOp19
 70
     1
102
RTVSPropertyOp20
 70
     1
102
RTVSPropertyOp21
 70
     1
102
RTVSPropertyOp22
 70
     1
102
RTVSPropertyOp23
 70
     1
102
RTVSPropertyOp24
 70
     1
102
RTVSPropertyOp25
 70
     1
102
RTVSPropertyOp26
 70
     1
102
RTVSPropertyOp27
 70
     1
102
RTVSPropertyOp28
 70
     1
102
RTVSPropertyOp29
 70
     1
102
RTVSPropertyOp30
 70
     1
102
RTVSPropertyOp31
 70
     1
102
RTVSPropertyOp32
 70
     1
102
RTVSPropertyOp33
 70
     1
102
RTVSPropertyOp34
 70
     1
102
RTVSPropertyOp35
 70
     1
102
RTVSPropertyOp36
 70
     1
102
RTVSPropertyOp37
 70
     1
102
RTVSPropertyOp38
 70
     1
102
RTVSPropertyOp39
 70
     1
102
RTVSPropertyOp40
 70
     1
102
RTVSPropertyOp41
 70
     1
102
RTVSPropertyOp42
 70
     1
102
RTVSPropertyOp43
 70
     1
102
RTVSPropertyOp44
 70
     1
102
RTVSPropertyOp45
 70
     1
102
RTVSPropertyOp46
 70
     1
102
RTVSPropertyOp47
 70
     1
102
RTVSPropertyOp48
 70
     1
102
RTVSPropertyOp49
 70
     1
102
RTVSPropertyOp50
 70
     1
102
RTVSPropertyOp51
 70
     0
102
RTVSPropertyOp52
 70
     0
102
RTVSPropertyOp53
 70
     1
102
RTVSPropertyOp54
 70
     1
102
RTVSPropertyOp55
 70
     1
102
RTVSPropertyOp56
 70
     1
102
RTVSPropertyOp57
 70
     1
102
RTVSPropertyOp58
 70
     1
102
RTVSPropertyOp59
 70
     1
102
RTVSPropertyOp60
 70
     1
102
RTVSPropertyOp61
 70
     1
102
RTVSPropertyOp62
 70
     1
  0
XRECORD
  5
54E
102
{ACAD_REACTORS
330
54D
102
}
330
54D
100
AcDbXrecord
280
     1
102
RTVSPost2010Prop28
280
     0
102
RTVSPost2010PropOp28
 70
     1
102
RTVSPost2010Prop29
280
     1
102
RTVSPost2010PropOp29
 70
     1
102
RTVSPost2010Prop30
280
     1
102
RTVSPost2010PropOp30
 70
     1
102
RTVSPost2010Prop31
280
     0
102
RTVSPost2010PropOp31
 70
     1
102
RTVSPost2010Prop32
280
     0
102
RTVSPost2010PropOp32
 70
     1
102
RTVSPost2010Prop33
280
     0
102
RTVSPost2010PropOp33
 70
     1
102
RTVSPost2010Prop34
280
     0
102
RTVSPost2010PropOp34
 70
     1
102
RTVSPost2010Prop35
280
     0
102
RTVSPost2010PropOp35
 70
     1
102
RTVSPost2010Prop36
280
     0
102
RTVSPost2010PropOp36
 70
     1
102
RTVSPost2010Prop37
 90
       50
102
RTVSPost2010PropOp37
 70
     1
102
RTVSPost2010Prop38
140
0.0
102
RTVSPost2010PropOp38
 70
     1
102
RTVSPost2010Prop39
140
1.0
102
RTVSPost2010PropOp39
 70
     1
102
RTVSPost2010Prop40
 90
        0
102
RTVSPost2010PropOp40
 70
     1
102
RTVSPost2010Prop41ColorIndex
 90
       18
102
RTVSPost2010Prop41ColorRGB
 90
        0
102
RTVSPost2010PropOp41
 70
     1
102
RTVSPost2010Prop42
 90
       50
102
RTVSPost2010PropOp42
 70
     1
102
RTVSPost2010Prop43
 90
        3
102
RTVSPost2010PropOp43
 70
     1
102
RTVSPost2010Prop44ColorIndex
 90
        5
102
RTVSPost2010Prop44ColorRGB
 90
      255
102
RTVSPost2010PropOp44
 70
     1
102
RTVSPost2010Prop45
280
     0
102
RTVSPost2010PropOp45
 70
     1
102
RTVSPost2010Prop46
 90
       50
102
RTVSPost2010PropOp46
 70
     1
102
RTVSPost2010Prop47
 90
       50
102
RTVSPost2010PropOp47
 70
     1
102
RTVSPost2010Prop48
 90
       50
102
RTVSPost2010PropOp48
 70
     1
102
RTVSPost2010Prop49
280
     0
102
RTVSPost2010PropOp49
 70
     1
102
RTVSPost2010Prop50
 90
       50
102
RTVSPost2010PropOp50
 70
     1
102
RTVSPost2010Prop51ColorIndex
 90
      256
102
RTVSPost2010Prop51ColorRGB
 90
-16777216
102
RTVSPost2010PropOp51
 70
     0
102
RTVSPost2010Prop52
140
1.0
102
RTVSPost2010PropOp52
 70
     0
102
RTVSPost2010Prop53
 90
        2
102
RTVSPost2010PropOp53
 70
     1
102
RTVSPost2010Prop54
  1
strokes_ogs.tif
102
RTVSPost2010PropOp54
 70
     1
102
RTVSPost2010Prop55
280
     0
102
RTVSPost2010PropOp55
 70
     1
102
RTVSPost2010Prop56
140
1.0
102
RTVSPost2010PropOp56
 70
     1
102
RTVSPost2010Prop57
140
1.0
102
RTVSPost2010PropOp57
 70
     1
102
RTVSPropertyOp0
 70
     1
102
RTVSPropertyOp1
 70
     1
102
RTVSPropertyOp2
 70
     1
102
RTVSPropertyOp3
 70
     1
102
RTVSPropertyOp4
 70
     1
102
RTVSPropertyOp5
 70
     1
102
RTVSPropertyOp6
 70
     1
102
RTVSPropertyOp7
 70
     1
102
RTVSPropertyOp8
 70
     1
102
RTVSPropertyOp9
 70
     1
102
RTVSPropertyOp10
 70
     1
102
RTVSPropertyOp11
 70
     1
102
RTVSPropertyOp12
 70
     1
102
RTVSPropertyOp13
 70
     1
102
RTVSPropertyOp14
 70
     1
102
RTVSPropertyOp15
 70
     1
102
RTVSPropertyOp16
 70
     1
102
RTVSPropertyOp17
 70
     1
102
RTVSPropertyOp18
 70
     1
102
RTVSPropertyOp19
 70
     1
102
RTVSPropertyOp20
 70
     1
102
RTVSPropertyOp21
 70
     1
102
RTVSPropertyOp22
 70
     1
102
RTVSPropertyOp23
 70
     1
102
RTVSPropertyOp24
 70
     1
102
RTVSPropertyOp25
 70
     1
102
RTVSPropertyOp26
 70
     1
102
RTVSPropertyOp27
 70
     1
102
RTVSPropertyOp28
 70
     1
102
RTVSPropertyOp29
 70
     1
102
RTVSPropertyOp30
 70
     1
102
RTVSPropertyOp31
 70
     1
102
RTVSPropertyOp32
 70
     1
102
RTVSPropertyOp33
 70
     1
102
RTVSPropertyOp34
 70
     1
102
RTVSPropertyOp35
 70
     1
102
RTVSPropertyOp36
 70
     1
102
RTVSPropertyOp37
 70
     1
102
RTVSPropertyOp38
 70
     1
102
RTVSPropertyOp39
 70
     1
102
RTVSPropertyOp40
 70
     1
102
RTVSPropertyOp41
 70
     1
102
RTVSPropertyOp42
 70
     1
102
RTVSPropertyOp43
 70
     1
102
RTVSPropertyOp44
 70
     1
102
RTVSPropertyOp45
 70
     1
102
RTVSPropertyOp46
 70
     1
102
RTVSPropertyOp47
 70
     1
102
RTVSPropertyOp48
 70
     1
102
RTVSPropertyOp49
 70
     1
102
RTVSPropertyOp50
 70
     1
102
RTVSPropertyOp51
 70
     0
102
RTVSPropertyOp52
 70
     0
102
RTVSPropertyOp53
 70
     1
102
RTVSPropertyOp54
 70
     1
102
RTVSPropertyOp55
 70
     1
102
RTVSPropertyOp56
 70
     1
102
RTVSPropertyOp57
 70
     1
102
RTVSPropertyOp58
 70
     1
102
RTVSPropertyOp59
 70
     1
102
RTVSPropertyOp60
 70
     1
102
RTVSPropertyOp61
 70
     1
102
RTVSPropertyOp62
 70
     1
  0
XRECORD
  5
556
102
{ACAD_REACTORS
330
555
102
}
330
555
100
AcDbXrecord
280
     1
102
RTVSPost2010Prop28
280
     0
102
RTVSPost2010PropOp28
 70
     1
102
RTVSPost2010Prop29
280
     1
102
RTVSPost2010PropOp29
 70
     1
102
RTVSPost2010Prop30
280
     1
102
RTVSPost2010PropOp30
 70
     1
102
RTVSPost2010Prop31
280
     0
102
RTVSPost2010PropOp31
 70
     1
102
RTVSPost2010Prop32
280
     0
102
RTVSPost2010PropOp32
 70
     1
102
RTVSPost2010Prop33
280
     0
102
RTVSPost2010PropOp33
 70
     1
102
RTVSPost2010Prop34
280
     0
102
RTVSPost2010PropOp34
 70
     1
102
RTVSPost2010Prop35
280
     0
102
RTVSPost2010PropOp35
 70
     1
102
RTVSPost2010Prop36
280
     0
102
RTVSPost2010PropOp36
 70
     1
102
RTVSPost2010Prop37
 90
       50
102
RTVSPost2010PropOp37
 70
     1
102
RTVSPost2010Prop38
140
0.0
102
RTVSPost2010PropOp38
 70
     1
102
RTVSPost2010Prop39
140
1.0
102
RTVSPost2010PropOp39
 70
     1
102
RTVSPost2010Prop40
 90
        0
102
RTVSPost2010PropOp40
 70
     1
102
RTVSPost2010Prop41ColorIndex
 90
       18
102
RTVSPost2010Prop41ColorRGB
 90
        0
102
RTVSPost2010PropOp41
 70
     1
102
RTVSPost2010Prop42
 90
       50
102
RTVSPost2010PropOp42
 70
     1
102
RTVSPost2010Prop43
 90
        3
102
RTVSPost2010PropOp43
 70
     1
102
RTVSPost2010Prop44ColorIndex
 90
        5
102
RTVSPost2010Prop44ColorRGB
 90
      255
102
RTVSPost2010PropOp44
 70
     1
102
RTVSPost2010Prop45
280
     0
102
RTVSPost2010PropOp45
 70
     1
102
RTVSPost2010Prop46
 90
       50
102
RTVSPost2010PropOp46
 70
     1
102
RTVSPost2010Prop47
 90
       50
102
RTVSPost2010PropOp47
 70
     1
102
RTVSPost2010Prop48
 90
       50
102
RTVSPost2010PropOp48
 70
     1
102
RTVSPost2010Prop49
280
     0
102
RTVSPost2010PropOp49
 70
     1
102
RTVSPost2010Prop50
 90
       50
102
RTVSPost2010PropOp50
 70
     1
102
RTVSPost2010Prop51ColorIndex
 90
      256
102
RTVSPost2010Prop51ColorRGB
 90
-16777216
102
RTVSPost2010PropOp51
 70
     0
102
RTVSPost2010Prop52
140
1.0
102
RTVSPost2010PropOp52
 70
     0
102
RTVSPost2010Prop53
 90
        2
102
RTVSPost2010PropOp53
 70
     1
102
RTVSPost2010Prop54
  1
strokes_ogs.tif
102
RTVSPost2010PropOp54
 70
     1
102
RTVSPost2010Prop55
280
     0
102
RTVSPost2010PropOp55
 70
     1
102
RTVSPost2010Prop56
140
1.0
102
RTVSPost2010PropOp56
 70
     1
102
RTVSPost2010Prop57
140
1.0
102
RTVSPost2010PropOp57
 70
     1
102
RTVSPropertyOp0
 70
     1
102
RTVSPropertyOp1
 70
     1
102
RTVSPropertyOp2
 70
     1
102
RTVSPropertyOp3
 70
     1
102
RTVSPropertyOp4
 70
     1
102
RTVSPropertyOp5
 70
     1
102
RTVSPropertyOp6
 70
     1
102
RTVSPropertyOp7
 70
     1
102
RTVSPropertyOp8
 70
     1
102
RTVSPropertyOp9
 70
     1
102
RTVSPropertyOp10
 70
     1
102
RTVSPropertyOp11
 70
     1
102
RTVSPropertyOp12
 70
     1
102
RTVSPropertyOp13
 70
     1
102
RTVSPropertyOp14
 70
     1
102
RTVSPropertyOp15
 70
     1
102
RTVSPropertyOp16
 70
     1
102
RTVSPropertyOp17
 70
     1
102
RTVSPropertyOp18
 70
     1
102
RTVSPropertyOp19
 70
     1
102
RTVSPropertyOp20
 70
     1
102
RTVSPropertyOp21
 70
     1
102
RTVSPropertyOp22
 70
     1
102
RTVSPropertyOp23
 70
     1
102
RTVSPropertyOp24
 70
     1
102
RTVSPropertyOp25
 70
     1
102
RTVSPropertyOp26
 70
     1
102
RTVSPropertyOp27
 70
     1
102
RTVSPropertyOp28
 70
     1
102
RTVSPropertyOp29
 70
     1
102
RTVSPropertyOp30
 70
     1
102
RTVSPropertyOp31
 70
     1
102
RTVSPropertyOp32
 70
     1
102
RTVSPropertyOp33
 70
     1
102
RTVSPropertyOp34
 70
     1
102
RTVSPropertyOp35
 70
     1
102
RTVSPropertyOp36
 70
     1
102
RTVSPropertyOp37
 70
     1
102
RTVSPropertyOp38
 70
     1
102
RTVSPropertyOp39
 70
     1
102
RTVSPropertyOp40
 70
     1
102
RTVSPropertyOp41
 70
     1
102
RTVSPropertyOp42
 70
     1
102
RTVSPropertyOp43
 70
     1
102
RTVSPropertyOp44
 70
     1
102
RTVSPropertyOp45
 70
     1
102
RTVSPropertyOp46
 70
     1
102
RTVSPropertyOp47
 70
     1
102
RTVSPropertyOp48
 70
     1
102
RTVSPropertyOp49
 70
     1
102
RTVSPropertyOp50
 70
     1
102
RTVSPropertyOp51
 70
     0
102
RTVSPropertyOp52
 70
     0
102
RTVSPropertyOp53
 70
     1
102
RTVSPropertyOp54
 70
     1
102
RTVSPropertyOp55
 70
     1
102
RTVSPropertyOp56
 70
     1
102
RTVSPropertyOp57
 70
     1
102
RTVSPropertyOp58
 70
     1
102
RTVSPropertyOp59
 70
     1
102
RTVSPropertyOp60
 70
     1
102
RTVSPropertyOp61
 70
     1
102
RTVSPropertyOp62
 70
     1
  0
XRECORD
  5
548
102
{ACAD_REACTORS
330
547
102
}
330
547
100
AcDbXrecord
280
     1
102
RTVSPost2010Prop28
280
     0
102
RTVSPost2010PropOp28
 70
     1
102
RTVSPost2010Prop29
280
     1
102
RTVSPost2010PropOp29
 70
     1
102
RTVSPost2010Prop30
280
     1
102
RTVSPost2010PropOp30
 70
     1
102
RTVSPost2010Prop31
280
     0
102
RTVSPost2010PropOp31
 70
     1
102
RTVSPost2010Prop32
280
     0
102
RTVSPost2010PropOp32
 70
     1
102
RTVSPost2010Prop33
280
     0
102
RTVSPost2010PropOp33
 70
     1
102
RTVSPost2010Prop34
280
     0
102
RTVSPost2010PropOp34
 70
     1
102
RTVSPost2010Prop35
280
     0
102
RTVSPost2010PropOp35
 70
     1
102
RTVSPost2010Prop36
280
     0
102
RTVSPost2010PropOp36
 70
     1
102
RTVSPost2010Prop37
 90
       50
102
RTVSPost2010PropOp37
 70
     1
102
RTVSPost2010Prop38
140
0.0
102
RTVSPost2010PropOp38
 70
     1
102
RTVSPost2010Prop39
140
1.0
102
RTVSPost2010PropOp39
 70
     1
102
RTVSPost2010Prop40
 90
        0
102
RTVSPost2010PropOp40
 70
     1
102
RTVSPost2010Prop41ColorIndex
 90
       18
102
RTVSPost2010Prop41ColorRGB
 90
        0
102
RTVSPost2010PropOp41
 70
     1
102
RTVSPost2010Prop42
 90
       50
102
RTVSPost2010PropOp42
 70
     1
102
RTVSPost2010Prop43
 90
        3
102
RTVSPost2010PropOp43
 70
     1
102
RTVSPost2010Prop44ColorIndex
 90
        5
102
RTVSPost2010Prop44ColorRGB
 90
      255
102
RTVSPost2010PropOp44
 70
     1
102
RTVSPost2010Prop45
280
     0
102
RTVSPost2010PropOp45
 70
     1
102
RTVSPost2010Prop46
 90
       50
102
RTVSPost2010PropOp46
 70
     1
102
RTVSPost2010Prop47
 90
       50
102
RTVSPost2010PropOp47
 70
     1
102
RTVSPost2010Prop48
 90
       50
102
RTVSPost2010PropOp48
 70
     1
102
RTVSPost2010Prop49
280
     0
102
RTVSPost2010PropOp49
 70
     1
102
RTVSPost2010Prop50
 90
       50
102
RTVSPost2010PropOp50
 70
     1
102
RTVSPost2010Prop51ColorIndex
 90
      256
102
RTVSPost2010Prop51ColorRGB
 90
-16777216
102
RTVSPost2010PropOp51
 70
     0
102
RTVSPost2010Prop52
140
1.0
102
RTVSPost2010PropOp52
 70
     0
102
RTVSPost2010Prop53
 90
        2
102
RTVSPost2010PropOp53
 70
     1
102
RTVSPost2010Prop54
  1
strokes_ogs.tif
102
RTVSPost2010PropOp54
 70
     1
102
RTVSPost2010Prop55
280
     0
102
RTVSPost2010PropOp55
 70
     1
102
RTVSPost2010Prop56
140
1.0
102
RTVSPost2010PropOp56
 70
     1
102
RTVSPost2010Prop57
140
1.0
102
RTVSPost2010PropOp57
 70
     1
102
RTVSPropertyOp0
 70
     1
102
RTVSPropertyOp1
 70
     1
102
RTVSPropertyOp2
 70
     1
102
RTVSPropertyOp3
 70
     1
102
RTVSPropertyOp4
 70
     1
102
RTVSPropertyOp5
 70
     1
102
RTVSPropertyOp6
 70
     1
102
RTVSPropertyOp7
 70
     1
102
RTVSPropertyOp8
 70
     1
102
RTVSPropertyOp9
 70
     1
102
RTVSPropertyOp10
 70
     1
102
RTVSPropertyOp11
 70
     1
102
RTVSPropertyOp12
 70
     1
102
RTVSPropertyOp13
 70
     1
102
RTVSPropertyOp14
 70
     1
102
RTVSPropertyOp15
 70
     1
102
RTVSPropertyOp16
 70
     1
102
RTVSPropertyOp17
 70
     1
102
RTVSPropertyOp18
 70
     1
102
RTVSPropertyOp19
 70
     1
102
RTVSPropertyOp20
 70
     1
102
RTVSPropertyOp21
 70
     1
102
RTVSPropertyOp22
 70
     1
102
RTVSPropertyOp23
 70
     1
102
RTVSPropertyOp24
 70
     1
102
RTVSPropertyOp25
 70
     1
102
RTVSPropertyOp26
 70
     1
102
RTVSPropertyOp27
 70
     1
102
RTVSPropertyOp28
 70
     1
102
RTVSPropertyOp29
 70
     1
102
RTVSPropertyOp30
 70
     1
102
RTVSPropertyOp31
 70
     1
102
RTVSPropertyOp32
 70
     1
102
RTVSPropertyOp33
 70
     1
102
RTVSPropertyOp34
 70
     1
102
RTVSPropertyOp35
 70
     1
102
RTVSPropertyOp36
 70
     1
102
RTVSPropertyOp37
 70
     1
102
RTVSPropertyOp38
 70
     1
102
RTVSPropertyOp39
 70
     1
102
RTVSPropertyOp40
 70
     1
102
RTVSPropertyOp41
 70
     1
102
RTVSPropertyOp42
 70
     1
102
RTVSPropertyOp43
 70
     1
102
RTVSPropertyOp44
 70
     1
102
RTVSPropertyOp45
 70
     1
102
RTVSPropertyOp46
 70
     1
102
RTVSPropertyOp47
 70
     1
102
RTVSPropertyOp48
 70
     1
102
RTVSPropertyOp49
 70
     1
102
RTVSPropertyOp50
 70
     1
102
RTVSPropertyOp51
 70
     0
102
RTVSPropertyOp52
 70
     0
102
RTVSPropertyOp53
 70
     1
102
RTVSPropertyOp54
 70
     1
102
RTVSPropertyOp55
 70
     1
102
RTVSPropertyOp56
 70
     1
102
RTVSPropertyOp57
 70
     1
102
RTVSPropertyOp58
 70
     1
102
RTVSPropertyOp59
 70
     1
102
RTVSPropertyOp60
 70
     1
102
RTVSPropertyOp61
 70
     1
102
RTVSPropertyOp62
 70
     1
  0
XRECORD
  5
54C
102
{ACAD_REACTORS
330
54B
102
}
330
54B
100
AcDbXrecord
280
     1
102
RTVSPost2010Prop28
280
     0
102
RTVSPost2010PropOp28
 70
     1
102
RTVSPost2010Prop29
280
     1
102
RTVSPost2010PropOp29
 70
     1
102
RTVSPost2010Prop30
280
     1
102
RTVSPost2010PropOp30
 70
     1
102
RTVSPost2010Prop31
280
     0
102
RTVSPost2010PropOp31
 70
     1
102
RTVSPost2010Prop32
280
     0
102
RTVSPost2010PropOp32
 70
     1
102
RTVSPost2010Prop33
280
     0
102
RTVSPost2010PropOp33
 70
     1
102
RTVSPost2010Prop34
280
     0
102
RTVSPost2010PropOp34
 70
     1
102
RTVSPost2010Prop35
280
     0
102
RTVSPost2010PropOp35
 70
     1
102
RTVSPost2010Prop36
280
     0
102
RTVSPost2010PropOp36
 70
     1
102
RTVSPost2010Prop37
 90
       50
102
RTVSPost2010PropOp37
 70
     1
102
RTVSPost2010Prop38
140
0.0
102
RTVSPost2010PropOp38
 70
     1
102
RTVSPost2010Prop39
140
1.0
102
RTVSPost2010PropOp39
 70
     1
102
RTVSPost2010Prop40
 90
        0
102
RTVSPost2010PropOp40
 70
     1
102
RTVSPost2010Prop41ColorIndex
 90
       18
102
RTVSPost2010Prop41ColorRGB
 90
        0
102
RTVSPost2010PropOp41
 70
     1
102
RTVSPost2010Prop42
 90
       50
102
RTVSPost2010PropOp42
 70
     1
102
RTVSPost2010Prop43
 90
        3
102
RTVSPost2010PropOp43
 70
     1
102
RTVSPost2010Prop44ColorIndex
 90
        5
102
RTVSPost2010Prop44ColorRGB
 90
      255
102
RTVSPost2010PropOp44
 70
     1
102
RTVSPost2010Prop45
280
     0
102
RTVSPost2010PropOp45
 70
     1
102
RTVSPost2010Prop46
 90
       50
102
RTVSPost2010PropOp46
 70
     1
102
RTVSPost2010Prop47
 90
       50
102
RTVSPost2010PropOp47
 70
     1
102
RTVSPost2010Prop48
 90
       50
102
RTVSPost2010PropOp48
 70
     1
102
RTVSPost2010Prop49
280
     0
102
RTVSPost2010PropOp49
 70
     1
102
RTVSPost2010Prop50
 90
       50
102
RTVSPost2010PropOp50
 70
     1
102
RTVSPost2010Prop51ColorIndex
 90
      256
102
RTVSPost2010Prop51ColorRGB
 90
-16777216
102
RTVSPost2010PropOp51
 70
     0
102
RTVSPost2010Prop52
140
1.0
102
RTVSPost2010PropOp52
 70
     0
102
RTVSPost2010Prop53
 90
        2
102
RTVSPost2010PropOp53
 70
     1
102
RTVSPost2010Prop54
  1
strokes_ogs.tif
102
RTVSPost2010PropOp54
 70
     1
102
RTVSPost2010Prop55
280
     0
102
RTVSPost2010PropOp55
 70
     1
102
RTVSPost2010Prop56
140
1.0
102
RTVSPost2010PropOp56
 70
     1
102
RTVSPost2010Prop57
140
1.0
102
RTVSPost2010PropOp57
 70
     1
102
RTVSPropertyOp0
 70
     1
102
RTVSPropertyOp1
 70
     1
102
RTVSPropertyOp2
 70
     1
102
RTVSPropertyOp3
 70
     1
102
RTVSPropertyOp4
 70
     1
102
RTVSPropertyOp5
 70
     1
102
RTVSPropertyOp6
 70
     1
102
RTVSPropertyOp7
 70
     1
102
RTVSPropertyOp8
 70
     1
102
RTVSPropertyOp9
 70
     1
102
RTVSPropertyOp10
 70
     1
102
RTVSPropertyOp11
 70
     1
102
RTVSPropertyOp12
 70
     1
102
RTVSPropertyOp13
 70
     1
102
RTVSPropertyOp14
 70
     1
102
RTVSPropertyOp15
 70
     1
102
RTVSPropertyOp16
 70
     1
102
RTVSPropertyOp17
 70
     1
102
RTVSPropertyOp18
 70
     1
102
RTVSPropertyOp19
 70
     1
102
RTVSPropertyOp20
 70
     1
102
RTVSPropertyOp21
 70
     1
102
RTVSPropertyOp22
 70
     1
102
RTVSPropertyOp23
 70
     1
102
RTVSPropertyOp24
 70
     1
102
RTVSPropertyOp25
 70
     1
102
RTVSPropertyOp26
 70
     1
102
RTVSPropertyOp27
 70
     1
102
RTVSPropertyOp28
 70
     1
102
RTVSPropertyOp29
 70
     1
102
RTVSPropertyOp30
 70
     1
102
RTVSPropertyOp31
 70
     1
102
RTVSPropertyOp32
 70
     1
102
RTVSPropertyOp33
 70
     1
102
RTVSPropertyOp34
 70
     1
102
RTVSPropertyOp35
 70
     1
102
RTVSPropertyOp36
 70
     1
102
RTVSPropertyOp37
 70
     1
102
RTVSPropertyOp38
 70
     1
102
RTVSPropertyOp39
 70
     1
102
RTVSPropertyOp40
 70
     1
102
RTVSPropertyOp41
 70
     1
102
RTVSPropertyOp42
 70
     1
102
RTVSPropertyOp43
 70
     1
102
RTVSPropertyOp44
 70
     1
102
RTVSPropertyOp45
 70
     1
102
RTVSPropertyOp46
 70
     1
102
RTVSPropertyOp47
 70
     1
102
RTVSPropertyOp48
 70
     1
102
RTVSPropertyOp49
 70
     1
102
RTVSPropertyOp50
 70
     1
102
RTVSPropertyOp51
 70
     0
102
RTVSPropertyOp52
 70
     0
102
RTVSPropertyOp53
 70
     1
102
RTVSPropertyOp54
 70
     1
102
RTVSPropertyOp55
 70
     1
102
RTVSPropertyOp56
 70
     1
102
RTVSPropertyOp57
 70
     1
102
RTVSPropertyOp58
 70
     1
102
RTVSPropertyOp59
 70
     1
102
RTVSPropertyOp60
 70
     1
102
RTVSPropertyOp61
 70
     1
102
RTVSPropertyOp62
 70
     1
  0
XRECORD
  5
566
102
{ACAD_REACTORS
330
565
102
}
330
565
100
AcDbXrecord
280
     1
102
RTVSPost2010Prop28
280
     0
102
RTVSPost2010PropOp28
 70
     0
102
RTVSPost2010Prop29
280
     1
102
RTVSPost2010PropOp29
 70
     0
102
RTVSPost2010Prop30
280
     1
102
RTVSPost2010PropOp30
 70
     0
102
RTVSPost2010Prop31
280
     0
102
RTVSPost2010PropOp31
 70
     0
102
RTVSPost2010Prop32
280
     0
102
RTVSPost2010PropOp32
 70
     0
102
RTVSPost2010Prop33
280
     0
102
RTVSPost2010PropOp33
 70
     0
102
RTVSPost2010Prop34
280
     0
102
RTVSPost2010PropOp34
 70
     0
102
RTVSPost2010Prop35
280
     0
102
RTVSPost2010PropOp35
 70
     0
102
RTVSPost2010Prop36
280
     0
102
RTVSPost2010PropOp36
 70
     0
102
RTVSPost2010Prop37
 90
       50
102
RTVSPost2010PropOp37
 70
     0
102
RTVSPost2010Prop38
140
0.0
102
RTVSPost2010PropOp38
 70
     0
102
RTVSPost2010Prop39
140
1.0
102
RTVSPost2010PropOp39
 70
     0
102
RTVSPost2010Prop40
 90
        0
102
RTVSPost2010PropOp40
 70
     0
102
RTVSPost2010Prop41ColorIndex
 90
       18
102
RTVSPost2010Prop41ColorRGB
 90
        0
102
RTVSPost2010PropOp41
 70
     0
102
RTVSPost2010Prop42
 90
       50
102
RTVSPost2010PropOp42
 70
     0
102
RTVSPost2010Prop43
 90
        3
102
RTVSPost2010PropOp43
 70
     0
102
RTVSPost2010Prop44ColorIndex
 90
        5
102
RTVSPost2010Prop44ColorRGB
 90
      255
102
RTVSPost2010PropOp44
 70
     0
102
RTVSPost2010Prop45
280
     0
102
RTVSPost2010PropOp45
 70
     0
102
RTVSPost2010Prop46
 90
       50
102
RTVSPost2010PropOp46
 70
     0
102
RTVSPost2010Prop47
 90
       50
102
RTVSPost2010PropOp47
 70
     0
102
RTVSPost2010Prop48
 90
       50
102
RTVSPost2010PropOp48
 70
     0
102
RTVSPost2010Prop49
280
     0
102
RTVSPost2010PropOp49
 70
     0
102
RTVSPost2010Prop50
 90
       50
102
RTVSPost2010PropOp50
 70
     0
102
RTVSPost2010Prop51ColorIndex
 90
      256
102
RTVSPost2010Prop51ColorRGB
 90
-16777216
102
RTVSPost2010PropOp51
 70
     0
102
RTVSPost2010Prop52
140
1.0
102
RTVSPost2010PropOp52
 70
     0
102
RTVSPost2010Prop53
 90
        2
102
RTVSPost2010PropOp53
 70
     0
102
RTVSPost2010Prop54
  1
strokes_ogs.tif
102
RTVSPost2010PropOp54
 70
     0
102
RTVSPost2010Prop55
280
     0
102
RTVSPost2010PropOp55
 70
     0
102
RTVSPost2010Prop56
140
1.0
102
RTVSPost2010PropOp56
 70
     0
102
RTVSPost2010Prop57
140
1.0
102
RTVSPost2010PropOp57
 70
     0
102
RTVSPropertyOp0
 70
     0
102
RTVSPropertyOp1
 70
     0
102
RTVSPropertyOp2
 70
     0
102
RTVSPropertyOp3
 70
     0
102
RTVSPropertyOp4
 70
     0
102
RTVSPropertyOp5
 70
     0
102
RTVSPropertyOp6
 70
     0
102
RTVSPropertyOp7
 70
     0
102
RTVSPropertyOp8
 70
     0
102
RTVSPropertyOp9
 70
     0
102
RTVSPropertyOp10
 70
     0
102
RTVSPropertyOp11
 70
     0
102
RTVSPropertyOp12
 70
     0
102
RTVSPropertyOp13
 70
     0
102
RTVSPropertyOp14
 70
     2
102
RTVSPropertyOp15
 70
     0
102
RTVSPropertyOp16
 70
     0
102
RTVSPropertyOp17
 70
     0
102
RTVSPropertyOp18
 70
     0
102
RTVSPropertyOp19
 70
     0
102
RTVSPropertyOp20
 70
     0
102
RTVSPropertyOp21
 70
     0
102
RTVSPropertyOp22
 70
     0
102
RTVSPropertyOp23
 70
     0
102
RTVSPropertyOp24
 70
     0
102
RTVSPropertyOp25
 70
     0
102
RTVSPropertyOp26
 70
     0
102
RTVSPropertyOp27
 70
     0
102
RTVSPropertyOp28
 70
     0
102
RTVSPropertyOp29
 70
     0
102
RTVSPropertyOp30
 70
     0
102
RTVSPropertyOp31
 70
     0
102
RTVSPropertyOp32
 70
     0
102
RTVSPropertyOp33
 70
     0
102
RTVSPropertyOp34
 70
     0
102
RTVSPropertyOp35
 70
     0
102
RTVSPropertyOp36
 70
     0
102
RTVSPropertyOp37
 70
     0
102
RTVSPropertyOp38
 70
     0
102
RTVSPropertyOp39
 70
     0
102
RTVSPropertyOp40
 70
     0
102
RTVSPropertyOp41
 70
     0
102
RTVSPropertyOp42
 70
     0
102
RTVSPropertyOp43
 70
     0
102
RTVSPropertyOp44
 70
     0
102
RTVSPropertyOp45
 70
     0
102
RTVSPropertyOp46
 70
     0
102
RTVSPropertyOp47
 70
     0
102
RTVSPropertyOp48
 70
     0
102
RTVSPropertyOp49
 70
     0
102
RTVSPropertyOp50
 70
     0
102
RTVSPropertyOp51
 70
     0
102
RTVSPropertyOp52
 70
     0
102
RTVSPropertyOp53
 70
     0
102
RTVSPropertyOp54
 70
     0
102
RTVSPropertyOp55
 70
     0
102
RTVSPropertyOp56
 70
     0
102
RTVSPropertyOp57
 70
     0
102
RTVSPropertyOp58
 70
     0
102
RTVSPropertyOp59
 70
     0
102
RTVSPropertyOp60
 70
     0
102
RTVSPropertyOp61
 70
     0
102
RTVSPropertyOp62
 70
     0
  0
XRECORD
  5
554
102
{ACAD_REACTORS
330
553
102
}
330
553
100
AcDbXrecord
280
     1
102
RTVSPost2010Prop28
280
     0
102
RTVSPost2010PropOp28
 70
     1
102
RTVSPost2010Prop29
280
     1
102
RTVSPost2010PropOp29
 70
     1
102
RTVSPost2010Prop30
280
     1
102
RTVSPost2010PropOp30
 70
     1
102
RTVSPost2010Prop31
280
     0
102
RTVSPost2010PropOp31
 70
     1
102
RTVSPost2010Prop32
280
     0
102
RTVSPost2010PropOp32
 70
     1
102
RTVSPost2010Prop33
280
     0
102
RTVSPost2010PropOp33
 70
     1
102
RTVSPost2010Prop34
280
     0
102
RTVSPost2010PropOp34
 70
     1
102
RTVSPost2010Prop35
280
     0
102
RTVSPost2010PropOp35
 70
     1
102
RTVSPost2010Prop36
280
     0
102
RTVSPost2010PropOp36
 70
     1
102
RTVSPost2010Prop37
 90
       50
102
RTVSPost2010PropOp37
 70
     1
102
RTVSPost2010Prop38
140
0.0
102
RTVSPost2010PropOp38
 70
     1
102
RTVSPost2010Prop39
140
1.0
102
RTVSPost2010PropOp39
 70
     1
102
RTVSPost2010Prop40
 90
        0
102
RTVSPost2010PropOp40
 70
     1
102
RTVSPost2010Prop41ColorIndex
 90
       18
102
RTVSPost2010Prop41ColorRGB
 90
        0
102
RTVSPost2010PropOp41
 70
     1
102
RTVSPost2010Prop42
 90
       50
102
RTVSPost2010PropOp42
 70
     1
102
RTVSPost2010Prop43
 90
        3
102
RTVSPost2010PropOp43
 70
     1
102
RTVSPost2010Prop44ColorIndex
 90
        5
102
RTVSPost2010Prop44ColorRGB
 90
      255
102
RTVSPost2010PropOp44
 70
     1
102
RTVSPost2010Prop45
280
     0
102
RTVSPost2010PropOp45
 70
     1
102
RTVSPost2010Prop46
 90
       50
102
RTVSPost2010PropOp46
 70
     1
102
RTVSPost2010Prop47
 90
       50
102
RTVSPost2010PropOp47
 70
     1
102
RTVSPost2010Prop48
 90
       50
102
RTVSPost2010PropOp48
 70
     1
102
RTVSPost2010Prop49
280
     0
102
RTVSPost2010PropOp49
 70
     1
102
RTVSPost2010Prop50
 90
       50
102
RTVSPost2010PropOp50
 70
     1
102
RTVSPost2010Prop51ColorIndex
 90
      256
102
RTVSPost2010Prop51ColorRGB
 90
-16777216
102
RTVSPost2010PropOp51
 70
     0
102
RTVSPost2010Prop52
140
1.0
102
RTVSPost2010PropOp52
 70
     0
102
RTVSPost2010Prop53
 90
        2
102
RTVSPost2010PropOp53
 70
     1
102
RTVSPost2010Prop54
  1
strokes_ogs.tif
102
RTVSPost2010PropOp54
 70
     1
102
RTVSPost2010Prop55
280
     0
102
RTVSPost2010PropOp55
 70
     1
102
RTVSPost2010Prop56
140
1.0
102
RTVSPost2010PropOp56
 70
     1
102
RTVSPost2010Prop57
140
1.0
102
RTVSPost2010PropOp57
 70
     1
102
RTVSPropertyOp0
 70
     1
102
RTVSPropertyOp1
 70
     1
102
RTVSPropertyOp2
 70
     1
102
RTVSPropertyOp3
 70
     1
102
RTVSPropertyOp4
 70
     1
102
RTVSPropertyOp5
 70
     1
102
RTVSPropertyOp6
 70
     1
102
RTVSPropertyOp7
 70
     1
102
RTVSPropertyOp8
 70
     1
102
RTVSPropertyOp9
 70
     1
102
RTVSPropertyOp10
 70
     1
102
RTVSPropertyOp11
 70
     1
102
RTVSPropertyOp12
 70
     1
102
RTVSPropertyOp13
 70
     1
102
RTVSPropertyOp14
 70
     1
102
RTVSPropertyOp15
 70
     1
102
RTVSPropertyOp16
 70
     1
102
RTVSPropertyOp17
 70
     1
102
RTVSPropertyOp18
 70
     1
102
RTVSPropertyOp19
 70
     1
102
RTVSPropertyOp20
 70
     1
102
RTVSPropertyOp21
 70
     1
102
RTVSPropertyOp22
 70
     1
102
RTVSPropertyOp23
 70
     1
102
RTVSPropertyOp24
 70
     1
102
RTVSPropertyOp25
 70
     1
102
RTVSPropertyOp26
 70
     1
102
RTVSPropertyOp27
 70
     1
102
RTVSPropertyOp28
 70
     1
102
RTVSPropertyOp29
 70
     1
102
RTVSPropertyOp30
 70
     1
102
RTVSPropertyOp31
 70
     1
102
RTVSPropertyOp32
 70
     1
102
RTVSPropertyOp33
 70
     1
102
RTVSPropertyOp34
 70
     1
102
RTVSPropertyOp35
 70
     1
102
RTVSPropertyOp36
 70
     1
102
RTVSPropertyOp37
 70
     1
102
RTVSPropertyOp38
 70
     1
102
RTVSPropertyOp39
 70
     1
102
RTVSPropertyOp40
 70
     1
102
RTVSPropertyOp41
 70
     1
102
RTVSPropertyOp42
 70
     1
102
RTVSPropertyOp43
 70
     1
102
RTVSPropertyOp44
 70
     1
102
RTVSPropertyOp45
 70
     1
102
RTVSPropertyOp46
 70
     1
102
RTVSPropertyOp47
 70
     1
102
RTVSPropertyOp48
 70
     1
102
RTVSPropertyOp49
 70
     1
102
RTVSPropertyOp50
 70
     1
102
RTVSPropertyOp51
 70
     0
102
RTVSPropertyOp52
 70
     0
102
RTVSPropertyOp53
 70
     1
102
RTVSPropertyOp54
 70
     1
102
RTVSPropertyOp55
 70
     1
102
RTVSPropertyOp56
 70
     1
102
RTVSPropertyOp57
 70
     1
102
RTVSPropertyOp58
 70
     1
102
RTVSPropertyOp59
 70
     1
102
RTVSPropertyOp60
 70
     1
102
RTVSPropertyOp61
 70
     1
102
RTVSPropertyOp62
 70
     1
  0
XRECORD
  5
538
102
{ACAD_REACTORS
330
537
102
}
330
537
100
AcDbXrecord
280
     1
102
RTVSPost2010Prop28
280
     0
102
RTVSPost2010PropOp28
 70
     1
102
RTVSPost2010Prop29
280
     1
102
RTVSPost2010PropOp29
 70
     1
102
RTVSPost2010Prop30
280
     1
102
RTVSPost2010PropOp30
 70
     1
102
RTVSPost2010Prop31
280
     0
102
RTVSPost2010PropOp31
 70
     1
102
RTVSPost2010Prop32
280
     0
102
RTVSPost2010PropOp32
 70
     1
102
RTVSPost2010Prop33
280
     0
102
RTVSPost2010PropOp33
 70
     1
102
RTVSPost2010Prop34
280
     0
102
RTVSPost2010PropOp34
 70
     1
102
RTVSPost2010Prop35
280
     0
102
RTVSPost2010PropOp35
 70
     1
102
RTVSPost2010Prop36
280
     0
102
RTVSPost2010PropOp36
 70
     1
102
RTVSPost2010Prop37
 90
       50
102
RTVSPost2010PropOp37
 70
     1
102
RTVSPost2010Prop38
140
0.0
102
RTVSPost2010PropOp38
 70
     1
102
RTVSPost2010Prop39
140
1.0
102
RTVSPost2010PropOp39
 70
     1
102
RTVSPost2010Prop40
 90
        0
102
RTVSPost2010PropOp40
 70
     1
102
RTVSPost2010Prop41ColorIndex
 90
       18
102
RTVSPost2010Prop41ColorRGB
 90
        0
102
RTVSPost2010PropOp41
 70
     1
102
RTVSPost2010Prop42
 90
       50
102
RTVSPost2010PropOp42
 70
     1
102
RTVSPost2010Prop43
 90
        3
102
RTVSPost2010PropOp43
 70
     1
102
RTVSPost2010Prop44ColorIndex
 90
        5
102
RTVSPost2010Prop44ColorRGB
 90
      255
102
RTVSPost2010PropOp44
 70
     1
102
RTVSPost2010Prop45
280
     0
102
RTVSPost2010PropOp45
 70
     1
102
RTVSPost2010Prop46
 90
       50
102
RTVSPost2010PropOp46
 70
     1
102
RTVSPost2010Prop47
 90
       50
102
RTVSPost2010PropOp47
 70
     1
102
RTVSPost2010Prop48
 90
       50
102
RTVSPost2010PropOp48
 70
     1
102
RTVSPost2010Prop49
280
     0
102
RTVSPost2010PropOp49
 70
     1
102
RTVSPost2010Prop50
 90
       50
102
RTVSPost2010PropOp50
 70
     1
102
RTVSPost2010Prop51ColorIndex
 90
      256
102
RTVSPost2010Prop51ColorRGB
 90
-16777216
102
RTVSPost2010PropOp51
 70
     0
102
RTVSPost2010Prop52
140
1.0
102
RTVSPost2010PropOp52
 70
     0
102
RTVSPost2010Prop53
 90
        2
102
RTVSPost2010PropOp53
 70
     1
102
RTVSPost2010Prop54
  1
strokes_ogs.tif
102
RTVSPost2010PropOp54
 70
     1
102
RTVSPost2010Prop55
280
     0
102
RTVSPost2010PropOp55
 70
     1
102
RTVSPost2010Prop56
140
1.0
102
RTVSPost2010PropOp56
 70
     1
102
RTVSPost2010Prop57
140
1.0
102
RTVSPost2010PropOp57
 70
     1
102
RTVSPropertyOp0
 70
     1
102
RTVSPropertyOp1
 70
     1
102
RTVSPropertyOp2
 70
     1
102
RTVSPropertyOp3
 70
     1
102
RTVSPropertyOp4
 70
     1
102
RTVSPropertyOp5
 70
     1
102
RTVSPropertyOp6
 70
     1
102
RTVSPropertyOp7
 70
     1
102
RTVSPropertyOp8
 70
     1
102
RTVSPropertyOp9
 70
     1
102
RTVSPropertyOp10
 70
     1
102
RTVSPropertyOp11
 70
     1
102
RTVSPropertyOp12
 70
     1
102
RTVSPropertyOp13
 70
     1
102
RTVSPropertyOp14
 70
     1
102
RTVSPropertyOp15
 70
     1
102
RTVSPropertyOp16
 70
     1
102
RTVSPropertyOp17
 70
     1
102
RTVSPropertyOp18
 70
     1
102
RTVSPropertyOp19
 70
     1
102
RTVSPropertyOp20
 70
     1
102
RTVSPropertyOp21
 70
     1
102
RTVSPropertyOp22
 70
     1
102
RTVSPropertyOp23
 70
     1
102
RTVSPropertyOp24
 70
     1
102
RTVSPropertyOp25
 70
     1
102
RTVSPropertyOp26
 70
     1
102
RTVSPropertyOp27
 70
     1
102
RTVSPropertyOp28
 70
     1
102
RTVSPropertyOp29
 70
     1
102
RTVSPropertyOp30
 70
     1
102
RTVSPropertyOp31
 70
     1
102
RTVSPropertyOp32
 70
     1
102
RTVSPropertyOp33
 70
     1
102
RTVSPropertyOp34
 70
     1
102
RTVSPropertyOp35
 70
     1
102
RTVSPropertyOp36
 70
     1
102
RTVSPropertyOp37
 70
     1
102
RTVSPropertyOp38
 70
     1
102
RTVSPropertyOp39
 70
     1
102
RTVSPropertyOp40
 70
     1
102
RTVSPropertyOp41
 70
     1
102
RTVSPropertyOp42
 70
     1
102
RTVSPropertyOp43
 70
     1
102
RTVSPropertyOp44
 70
     1
102
RTVSPropertyOp45
 70
     1
102
RTVSPropertyOp46
 70
     1
102
RTVSPropertyOp47
 70
     1
102
RTVSPropertyOp48
 70
     1
102
RTVSPropertyOp49
 70
     1
102
RTVSPropertyOp50
 70
     1
102
RTVSPropertyOp51
 70
     0
102
RTVSPropertyOp52
 70
     0
102
RTVSPropertyOp53
 70
     1
102
RTVSPropertyOp54
 70
     1
102
RTVSPropertyOp55
 70
     1
102
RTVSPropertyOp56
 70
     1
102
RTVSPropertyOp57
 70
     1
102
RTVSPropertyOp58
 70
     1
102
RTVSPropertyOp59
 70
     1
102
RTVSPropertyOp60
 70
     1
102
RTVSPropertyOp61
 70
     1
102
RTVSPropertyOp62
 70
     1
  0
XRECORD
  5
53A
102
{ACAD_REACTORS
330
539
102
}
330
539
100
AcDbXrecord
280
     1
102
RTVSPost2010Prop28
280
     0
102
RTVSPost2010PropOp28
 70
     1
102
RTVSPost2010Prop29
280
     1
102
RTVSPost2010PropOp29
 70
     1
102
RTVSPost2010Prop30
280
     1
102
RTVSPost2010PropOp30
 70
     1
102
RTVSPost2010Prop31
280
     0
102
RTVSPost2010PropOp31
 70
     1
102
RTVSPost2010Prop32
280
     0
102
RTVSPost2010PropOp32
 70
     1
102
RTVSPost2010Prop33
280
     0
102
RTVSPost2010PropOp33
 70
     1
102
RTVSPost2010Prop34
280
     0
102
RTVSPost2010PropOp34
 70
     1
102
RTVSPost2010Prop35
280
     0
102
RTVSPost2010PropOp35
 70
     1
102
RTVSPost2010Prop36
280
     0
102
RTVSPost2010PropOp36
 70
     1
102
RTVSPost2010Prop37
 90
       50
102
RTVSPost2010PropOp37
 70
     1
102
RTVSPost2010Prop38
140
0.0
102
RTVSPost2010PropOp38
 70
     1
102
RTVSPost2010Prop39
140
1.0
102
RTVSPost2010PropOp39
 70
     1
102
RTVSPost2010Prop40
 90
        0
102
RTVSPost2010PropOp40
 70
     1
102
RTVSPost2010Prop41ColorIndex
 90
       18
102
RTVSPost2010Prop41ColorRGB
 90
        0
102
RTVSPost2010PropOp41
 70
     1
102
RTVSPost2010Prop42
 90
       50
102
RTVSPost2010PropOp42
 70
     1
102
RTVSPost2010Prop43
 90
        3
102
RTVSPost2010PropOp43
 70
     1
102
RTVSPost2010Prop44ColorIndex
 90
        5
102
RTVSPost2010Prop44ColorRGB
 90
      255
102
RTVSPost2010PropOp44
 70
     1
102
RTVSPost2010Prop45
280
     0
102
RTVSPost2010PropOp45
 70
     1
102
RTVSPost2010Prop46
 90
       50
102
RTVSPost2010PropOp46
 70
     1
102
RTVSPost2010Prop47
 90
       50
102
RTVSPost2010PropOp47
 70
     1
102
RTVSPost2010Prop48
 90
       50
102
RTVSPost2010PropOp48
 70
     1
102
RTVSPost2010Prop49
280
     0
102
RTVSPost2010PropOp49
 70
     1
102
RTVSPost2010Prop50
 90
       50
102
RTVSPost2010PropOp50
 70
     1
102
RTVSPost2010Prop51ColorIndex
 90
      256
102
RTVSPost2010Prop51ColorRGB
 90
-16777216
102
RTVSPost2010PropOp51
 70
     0
102
RTVSPost2010Prop52
140
1.0
102
RTVSPost2010PropOp52
 70
     0
102
RTVSPost2010Prop53
 90
        2
102
RTVSPost2010PropOp53
 70
     1
102
RTVSPost2010Prop54
  1
strokes_ogs.tif
102
RTVSPost2010PropOp54
 70
     1
102
RTVSPost2010Prop55
280
     0
102
RTVSPost2010PropOp55
 70
     1
102
RTVSPost2010Prop56
140
1.0
102
RTVSPost2010PropOp56
 70
     1
102
RTVSPost2010Prop57
140
1.0
102
RTVSPost2010PropOp57
 70
     1
102
RTVSPropertyOp0
 70
     1
102
RTVSPropertyOp1
 70
     1
102
RTVSPropertyOp2
 70
     1
102
RTVSPropertyOp3
 70
     1
102
RTVSPropertyOp4
 70
     1
102
RTVSPropertyOp5
 70
     1
102
RTVSPropertyOp6
 70
     1
102
RTVSPropertyOp7
 70
     1
102
RTVSPropertyOp8
 70
     1
102
RTVSPropertyOp9
 70
     1
102
RTVSPropertyOp10
 70
     1
102
RTVSPropertyOp11
 70
     1
102
RTVSPropertyOp12
 70
     1
102
RTVSPropertyOp13
 70
     1
102
RTVSPropertyOp14
 70
     1
102
RTVSPropertyOp15
 70
     1
102
RTVSPropertyOp16
 70
     1
102
RTVSPropertyOp17
 70
     1
102
RTVSPropertyOp18
 70
     1
102
RTVSPropertyOp19
 70
     1
102
RTVSPropertyOp20
 70
     1
102
RTVSPropertyOp21
 70
     1
102
RTVSPropertyOp22
 70
     1
102
RTVSPropertyOp23
 70
     1
102
RTVSPropertyOp24
 70
     1
102
RTVSPropertyOp25
 70
     1
102
RTVSPropertyOp26
 70
     1
102
RTVSPropertyOp27
 70
     1
102
RTVSPropertyOp28
 70
     1
102
RTVSPropertyOp29
 70
     1
102
RTVSPropertyOp30
 70
     1
102
RTVSPropertyOp31
 70
     1
102
RTVSPropertyOp32
 70
     1
102
RTVSPropertyOp33
 70
     1
102
RTVSPropertyOp34
 70
     1
102
RTVSPropertyOp35
 70
     1
102
RTVSPropertyOp36
 70
     1
102
RTVSPropertyOp37
 70
     1
102
RTVSPropertyOp38
 70
     1
102
RTVSPropertyOp39
 70
     1
102
RTVSPropertyOp40
 70
     1
102
RTVSPropertyOp41
 70
     1
102
RTVSPropertyOp42
 70
     1
102
RTVSPropertyOp43
 70
     1
102
RTVSPropertyOp44
 70
     1
102
RTVSPropertyOp45
 70
     1
102
RTVSPropertyOp46
 70
     1
102
RTVSPropertyOp47
 70
     1
102
RTVSPropertyOp48
 70
     1
102
RTVSPropertyOp49
 70
     1
102
RTVSPropertyOp50
 70
     1
102
RTVSPropertyOp51
 70
     0
102
RTVSPropertyOp52
 70
     0
102
RTVSPropertyOp53
 70
     1
102
RTVSPropertyOp54
 70
     1
102
RTVSPropertyOp55
 70
     1
102
RTVSPropertyOp56
 70
     1
102
RTVSPropertyOp57
 70
     1
102
RTVSPropertyOp58
 70
     1
102
RTVSPropertyOp59
 70
     1
102
RTVSPropertyOp60
 70
     1
102
RTVSPropertyOp61
 70
     1
102
RTVSPropertyOp62
 70
     1
  0
XRECORD
  5
53C
102
{ACAD_REACTORS
330
53B
102
}
330
53B
100
AcDbXrecord
280
     1
102
RTVSPost2010Prop28
280
     0
102
RTVSPost2010PropOp28
 70
     1
102
RTVSPost2010Prop29
280
     1
102
RTVSPost2010PropOp29
 70
     1
102
RTVSPost2010Prop30
280
     1
102
RTVSPost2010PropOp30
 70
     1
102
RTVSPost2010Prop31
280
     0
102
RTVSPost2010PropOp31
 70
     1
102
RTVSPost2010Prop32
280
     0
102
RTVSPost2010PropOp32
 70
     1
102
RTVSPost2010Prop33
280
     0
102
RTVSPost2010PropOp33
 70
     1
102
RTVSPost2010Prop34
280
     0
102
RTVSPost2010PropOp34
 70
     1
102
RTVSPost2010Prop35
280
     0
102
RTVSPost2010PropOp35
 70
     1
102
RTVSPost2010Prop36
280
     0
102
RTVSPost2010PropOp36
 70
     1
102
RTVSPost2010Prop37
 90
       50
102
RTVSPost2010PropOp37
 70
     1
102
RTVSPost2010Prop38
140
0.0
102
RTVSPost2010PropOp38
 70
     1
102
RTVSPost2010Prop39
140
1.0
102
RTVSPost2010PropOp39
 70
     1
102
RTVSPost2010Prop40
 90
        0
102
RTVSPost2010PropOp40
 70
     1
102
RTVSPost2010Prop41ColorIndex
 90
       18
102
RTVSPost2010Prop41ColorRGB
 90
        0
102
RTVSPost2010PropOp41
 70
     1
102
RTVSPost2010Prop42
 90
       50
102
RTVSPost2010PropOp42
 70
     1
102
RTVSPost2010Prop43
 90
        3
102
RTVSPost2010PropOp43
 70
     1
102
RTVSPost2010Prop44ColorIndex
 90
        5
102
RTVSPost2010Prop44ColorRGB
 90
      255
102
RTVSPost2010PropOp44
 70
     1
102
RTVSPost2010Prop45
280
     0
102
RTVSPost2010PropOp45
 70
     1
102
RTVSPost2010Prop46
 90
       50
102
RTVSPost2010PropOp46
 70
     1
102
RTVSPost2010Prop47
 90
       50
102
RTVSPost2010PropOp47
 70
     1
102
RTVSPost2010Prop48
 90
       50
102
RTVSPost2010PropOp48
 70
     1
102
RTVSPost2010Prop49
280
     0
102
RTVSPost2010PropOp49
 70
     1
102
RTVSPost2010Prop50
 90
       50
102
RTVSPost2010PropOp50
 70
     1
102
RTVSPost2010Prop51ColorIndex
 90
      256
102
RTVSPost2010Prop51ColorRGB
 90
-16777216
102
RTVSPost2010PropOp51
 70
     0
102
RTVSPost2010Prop52
140
1.0
102
RTVSPost2010PropOp52
 70
     0
102
RTVSPost2010Prop53
 90
        2
102
RTVSPost2010PropOp53
 70
     1
102
RTVSPost2010Prop54
  1
strokes_ogs.tif
102
RTVSPost2010PropOp54
 70
     1
102
RTVSPost2010Prop55
280
     0
102
RTVSPost2010PropOp55
 70
     1
102
RTVSPost2010Prop56
140
1.0
102
RTVSPost2010PropOp56
 70
     1
102
RTVSPost2010Prop57
140
1.0
102
RTVSPost2010PropOp57
 70
     1
102
RTVSPropertyOp0
 70
     1
102
RTVSPropertyOp1
 70
     1
102
RTVSPropertyOp2
 70
     1
102
RTVSPropertyOp3
 70
     1
102
RTVSPropertyOp4
 70
     1
102
RTVSPropertyOp5
 70
     1
102
RTVSPropertyOp6
 70
     1
102
RTVSPropertyOp7
 70
     1
102
RTVSPropertyOp8
 70
     1
102
RTVSPropertyOp9
 70
     1
102
RTVSPropertyOp10
 70
     1
102
RTVSPropertyOp11
 70
     1
102
RTVSPropertyOp12
 70
     1
102
RTVSPropertyOp13
 70
     1
102
RTVSPropertyOp14
 70
     1
102
RTVSPropertyOp15
 70
     1
102
RTVSPropertyOp16
 70
     1
102
RTVSPropertyOp17
 70
     1
102
RTVSPropertyOp18
 70
     1
102
RTVSPropertyOp19
 70
     1
102
RTVSPropertyOp20
 70
     1
102
RTVSPropertyOp21
 70
     1
102
RTVSPropertyOp22
 70
     1
102
RTVSPropertyOp23
 70
     1
102
RTVSPropertyOp24
 70
     1
102
RTVSPropertyOp25
 70
     1
102
RTVSPropertyOp26
 70
     1
102
RTVSPropertyOp27
 70
     1
102
RTVSPropertyOp28
 70
     1
102
RTVSPropertyOp29
 70
     1
102
RTVSPropertyOp30
 70
     1
102
RTVSPropertyOp31
 70
     1
102
RTVSPropertyOp32
 70
     1
102
RTVSPropertyOp33
 70
     1
102
RTVSPropertyOp34
 70
     1
102
RTVSPropertyOp35
 70
     1
102
RTVSPropertyOp36
 70
     1
102
RTVSPropertyOp37
 70
     1
102
RTVSPropertyOp38
 70
     1
102
RTVSPropertyOp39
 70
     1
102
RTVSPropertyOp40
 70
     1
102
RTVSPropertyOp41
 70
     1
102
RTVSPropertyOp42
 70
     1
102
RTVSPropertyOp43
 70
     1
102
RTVSPropertyOp44
 70
     1
102
RTVSPropertyOp45
 70
     1
102
RTVSPropertyOp46
 70
     1
102
RTVSPropertyOp47
 70
     1
102
RTVSPropertyOp48
 70
     1
102
RTVSPropertyOp49
 70
     1
102
RTVSPropertyOp50
 70
     1
102
RTVSPropertyOp51
 70
     0
102
RTVSPropertyOp52
 70
     0
102
RTVSPropertyOp53
 70
     1
102
RTVSPropertyOp54
 70
     1
102
RTVSPropertyOp55
 70
     1
102
RTVSPropertyOp56
 70
     1
102
RTVSPropertyOp57
 70
     1
102
RTVSPropertyOp58
 70
     1
102
RTVSPropertyOp59
 70
     1
102
RTVSPropertyOp60
 70
     1
102
RTVSPropertyOp61
 70
     1
102
RTVSPropertyOp62
 70
     1
  0
XRECORD
  5
53E
102
{ACAD_REACTORS
330
53D
102
}
330
53D
100
AcDbXrecord
280
     1
102
RTVSPost2010Prop28
280
     0
102
RTVSPost2010PropOp28
 70
     1
102
RTVSPost2010Prop29
280
     1
102
RTVSPost2010PropOp29
 70
     1
102
RTVSPost2010Prop30
280
     1
102
RTVSPost2010PropOp30
 70
     1
102
RTVSPost2010Prop31
280
     0
102
RTVSPost2010PropOp31
 70
     1
102
RTVSPost2010Prop32
280
     0
102
RTVSPost2010PropOp32
 70
     1
102
RTVSPost2010Prop33
280
     0
102
RTVSPost2010PropOp33
 70
     1
102
RTVSPost2010Prop34
280
     0
102
RTVSPost2010PropOp34
 70
     1
102
RTVSPost2010Prop35
280
     0
102
RTVSPost2010PropOp35
 70
     1
102
RTVSPost2010Prop36
280
     0
102
RTVSPost2010PropOp36
 70
     1
102
RTVSPost2010Prop37
 90
       50
102
RTVSPost2010PropOp37
 70
     1
102
RTVSPost2010Prop38
140
0.0
102
RTVSPost2010PropOp38
 70
     1
102
RTVSPost2010Prop39
140
1.0
102
RTVSPost2010PropOp39
 70
     1
102
RTVSPost2010Prop40
 90
        0
102
RTVSPost2010PropOp40
 70
     1
102
RTVSPost2010Prop41ColorIndex
 90
       18
102
RTVSPost2010Prop41ColorRGB
 90
        0
102
RTVSPost2010PropOp41
 70
     1
102
RTVSPost2010Prop42
 90
       50
102
RTVSPost2010PropOp42
 70
     1
102
RTVSPost2010Prop43
 90
        3
102
RTVSPost2010PropOp43
 70
     1
102
RTVSPost2010Prop44ColorIndex
 90
        5
102
RTVSPost2010Prop44ColorRGB
 90
      255
102
RTVSPost2010PropOp44
 70
     1
102
RTVSPost2010Prop45
280
     0
102
RTVSPost2010PropOp45
 70
     1
102
RTVSPost2010Prop46
 90
       50
102
RTVSPost2010PropOp46
 70
     1
102
RTVSPost2010Prop47
 90
       50
102
RTVSPost2010PropOp47
 70
     1
102
RTVSPost2010Prop48
 90
       50
102
RTVSPost2010PropOp48
 70
     1
102
RTVSPost2010Prop49
280
     0
102
RTVSPost2010PropOp49
 70
     1
102
RTVSPost2010Prop50
 90
       50
102
RTVSPost2010PropOp50
 70
     1
102
RTVSPost2010Prop51ColorIndex
 90
      256
102
RTVSPost2010Prop51ColorRGB
 90
-16777216
102
RTVSPost2010PropOp51
 70
     0
102
RTVSPost2010Prop52
140
1.0
102
RTVSPost2010PropOp52
 70
     0
102
RTVSPost2010Prop53
 90
        2
102
RTVSPost2010PropOp53
 70
     1
102
RTVSPost2010Prop54
  1
strokes_ogs.tif
102
RTVSPost2010PropOp54
 70
     1
102
RTVSPost2010Prop55
280
     0
102
RTVSPost2010PropOp55
 70
     1
102
RTVSPost2010Prop56
140
1.0
102
RTVSPost2010PropOp56
 70
     1
102
RTVSPost2010Prop57
140
1.0
102
RTVSPost2010PropOp57
 70
     1
102
RTVSPropertyOp0
 70
     1
102
RTVSPropertyOp1
 70
     1
102
RTVSPropertyOp2
 70
     1
102
RTVSPropertyOp3
 70
     1
102
RTVSPropertyOp4
 70
     1
102
RTVSPropertyOp5
 70
     1
102
RTVSPropertyOp6
 70
     1
102
RTVSPropertyOp7
 70
     1
102
RTVSPropertyOp8
 70
     1
102
RTVSPropertyOp9
 70
     1
102
RTVSPropertyOp10
 70
     1
102
RTVSPropertyOp11
 70
     1
102
RTVSPropertyOp12
 70
     1
102
RTVSPropertyOp13
 70
     1
102
RTVSPropertyOp14
 70
     1
102
RTVSPropertyOp15
 70
     1
102
RTVSPropertyOp16
 70
     1
102
RTVSPropertyOp17
 70
     1
102
RTVSPropertyOp18
 70
     1
102
RTVSPropertyOp19
 70
     1
102
RTVSPropertyOp20
 70
     1
102
RTVSPropertyOp21
 70
     1
102
RTVSPropertyOp22
 70
     1
102
RTVSPropertyOp23
 70
     1
102
RTVSPropertyOp24
 70
     1
102
RTVSPropertyOp25
 70
     1
102
RTVSPropertyOp26
 70
     1
102
RTVSPropertyOp27
 70
     1
102
RTVSPropertyOp28
 70
     1
102
RTVSPropertyOp29
 70
     1
102
RTVSPropertyOp30
 70
     1
102
RTVSPropertyOp31
 70
     1
102
RTVSPropertyOp32
 70
     1
102
RTVSPropertyOp33
 70
     1
102
RTVSPropertyOp34
 70
     1
102
RTVSPropertyOp35
 70
     1
102
RTVSPropertyOp36
 70
     1
102
RTVSPropertyOp37
 70
     1
102
RTVSPropertyOp38
 70
     1
102
RTVSPropertyOp39
 70
     1
102
RTVSPropertyOp40
 70
     1
102
RTVSPropertyOp41
 70
     1
102
RTVSPropertyOp42
 70
     1
102
RTVSPropertyOp43
 70
     1
102
RTVSPropertyOp44
 70
     1
102
RTVSPropertyOp45
 70
     1
102
RTVSPropertyOp46
 70
     1
102
RTVSPropertyOp47
 70
     1
102
RTVSPropertyOp48
 70
     1
102
RTVSPropertyOp49
 70
     1
102
RTVSPropertyOp50
 70
     1
102
RTVSPropertyOp51
 70
     0
102
RTVSPropertyOp52
 70
     0
102
RTVSPropertyOp53
 70
     1
102
RTVSPropertyOp54
 70
     1
102
RTVSPropertyOp55
 70
     1
102
RTVSPropertyOp56
 70
     1
102
RTVSPropertyOp57
 70
     1
102
RTVSPropertyOp58
 70
     1
102
RTVSPropertyOp59
 70
     1
102
RTVSPropertyOp60
 70
     1
102
RTVSPropertyOp61
 70
     1
102
RTVSPropertyOp62
 70
     1
  0
XRECORD
  5
546
102
{ACAD_REACTORS
330
545
102
}
330
545
100
AcDbXrecord
280
     1
102
RTVSPost2010Prop28
280
     0
102
RTVSPost2010PropOp28
 70
     1
102
RTVSPost2010Prop29
280
     1
102
RTVSPost2010PropOp29
 70
     1
102
RTVSPost2010Prop30
280
     1
102
RTVSPost2010PropOp30
 70
     1
102
RTVSPost2010Prop31
280
     0
102
RTVSPost2010PropOp31
 70
     1
102
RTVSPost2010Prop32
280
     0
102
RTVSPost2010PropOp32
 70
     1
102
RTVSPost2010Prop33
280
     0
102
RTVSPost2010PropOp33
 70
     1
102
RTVSPost2010Prop34
280
     0
102
RTVSPost2010PropOp34
 70
     1
102
RTVSPost2010Prop35
280
     0
102
RTVSPost2010PropOp35
 70
     1
102
RTVSPost2010Prop36
280
     0
102
RTVSPost2010PropOp36
 70
     1
102
RTVSPost2010Prop37
 90
       50
102
RTVSPost2010PropOp37
 70
     1
102
RTVSPost2010Prop38
140
0.0
102
RTVSPost2010PropOp38
 70
     1
102
RTVSPost2010Prop39
140
1.0
102
RTVSPost2010PropOp39
 70
     1
102
RTVSPost2010Prop40
 90
        0
102
RTVSPost2010PropOp40
 70
     1
102
RTVSPost2010Prop41ColorIndex
 90
       18
102
RTVSPost2010Prop41ColorRGB
 90
        0
102
RTVSPost2010PropOp41
 70
     1
102
RTVSPost2010Prop42
 90
       50
102
RTVSPost2010PropOp42
 70
     1
102
RTVSPost2010Prop43
 90
        3
102
RTVSPost2010PropOp43
 70
     1
102
RTVSPost2010Prop44ColorIndex
 90
        5
102
RTVSPost2010Prop44ColorRGB
 90
      255
102
RTVSPost2010PropOp44
 70
     1
102
RTVSPost2010Prop45
280
     0
102
RTVSPost2010PropOp45
 70
     1
102
RTVSPost2010Prop46
 90
       50
102
RTVSPost2010PropOp46
 70
     1
102
RTVSPost2010Prop47
 90
       50
102
RTVSPost2010PropOp47
 70
     1
102
RTVSPost2010Prop48
 90
       50
102
RTVSPost2010PropOp48
 70
     1
102
RTVSPost2010Prop49
280
     0
102
RTVSPost2010PropOp49
 70
     1
102
RTVSPost2010Prop50
 90
       50
102
RTVSPost2010PropOp50
 70
     1
102
RTVSPost2010Prop51ColorIndex
 90
      256
102
RTVSPost2010Prop51ColorRGB
 90
-16777216
102
RTVSPost2010PropOp51
 70
     0
102
RTVSPost2010Prop52
140
1.0
102
RTVSPost2010PropOp52
 70
     0
102
RTVSPost2010Prop53
 90
        2
102
RTVSPost2010PropOp53
 70
     1
102
RTVSPost2010Prop54
  1
strokes_ogs.tif
102
RTVSPost2010PropOp54
 70
     1
102
RTVSPost2010Prop55
280
     0
102
RTVSPost2010PropOp55
 70
     1
102
RTVSPost2010Prop56
140
1.0
102
RTVSPost2010PropOp56
 70
     1
102
RTVSPost2010Prop57
140
1.0
102
RTVSPost2010PropOp57
 70
     1
102
RTVSPropertyOp0
 70
     1
102
RTVSPropertyOp1
 70
     1
102
RTVSPropertyOp2
 70
     1
102
RTVSPropertyOp3
 70
     1
102
RTVSPropertyOp4
 70
     1
102
RTVSPropertyOp5
 70
     1
102
RTVSPropertyOp6
 70
     1
102
RTVSPropertyOp7
 70
     1
102
RTVSPropertyOp8
 70
     1
102
RTVSPropertyOp9
 70
     1
102
RTVSPropertyOp10
 70
     1
102
RTVSPropertyOp11
 70
     1
102
RTVSPropertyOp12
 70
     1
102
RTVSPropertyOp13
 70
     1
102
RTVSPropertyOp14
 70
     1
102
RTVSPropertyOp15
 70
     1
102
RTVSPropertyOp16
 70
     1
102
RTVSPropertyOp17
 70
     1
102
RTVSPropertyOp18
 70
     1
102
RTVSPropertyOp19
 70
     1
102
RTVSPropertyOp20
 70
     1
102
RTVSPropertyOp21
 70
     1
102
RTVSPropertyOp22
 70
     1
102
RTVSPropertyOp23
 70
     1
102
RTVSPropertyOp24
 70
     1
102
RTVSPropertyOp25
 70
     1
102
RTVSPropertyOp26
 70
     1
102
RTVSPropertyOp27
 70
     1
102
RTVSPropertyOp28
 70
     1
102
RTVSPropertyOp29
 70
     1
102
RTVSPropertyOp30
 70
     1
102
RTVSPropertyOp31
 70
     1
102
RTVSPropertyOp32
 70
     1
102
RTVSPropertyOp33
 70
     1
102
RTVSPropertyOp34
 70
     1
102
RTVSPropertyOp35
 70
     1
102
RTVSPropertyOp36
 70
     1
102
RTVSPropertyOp37
 70
     1
102
RTVSPropertyOp38
 70
     1
102
RTVSPropertyOp39
 70
     1
102
RTVSPropertyOp40
 70
     1
102
RTVSPropertyOp41
 70
     1
102
RTVSPropertyOp42
 70
     1
102
RTVSPropertyOp43
 70
     1
102
RTVSPropertyOp44
 70
     1
102
RTVSPropertyOp45
 70
     1
102
RTVSPropertyOp46
 70
     1
102
RTVSPropertyOp47
 70
     1
102
RTVSPropertyOp48
 70
     1
102
RTVSPropertyOp49
 70
     1
102
RTVSPropertyOp50
 70
     1
102
RTVSPropertyOp51
 70
     0
102
RTVSPropertyOp52
 70
     0
102
RTVSPropertyOp53
 70
     1
102
RTVSPropertyOp54
 70
     1
102
RTVSPropertyOp55
 70
     1
102
RTVSPropertyOp56
 70
     1
102
RTVSPropertyOp57
 70
     1
102
RTVSPropertyOp58
 70
     1
102
RTVSPropertyOp59
 70
     1
102
RTVSPropertyOp60
 70
     1
102
RTVSPropertyOp61
 70
     1
102
RTVSPropertyOp62
 70
     1
  0
XRECORD
  5
562
102
{ACAD_REACTORS
330
561
102
}
330
561
100
AcDbXrecord
280
     1
102
RTVSPost2010Prop28
280
     0
102
RTVSPost2010PropOp28
 70
     0
102
RTVSPost2010Prop29
280
     1
102
RTVSPost2010PropOp29
 70
     0
102
RTVSPost2010Prop30
280
     1
102
RTVSPost2010PropOp30
 70
     0
102
RTVSPost2010Prop31
280
     0
102
RTVSPost2010PropOp31
 70
     0
102
RTVSPost2010Prop32
280
     0
102
RTVSPost2010PropOp32
 70
     0
102
RTVSPost2010Prop33
280
     0
102
RTVSPost2010PropOp33
 70
     0
102
RTVSPost2010Prop34
280
     0
102
RTVSPost2010PropOp34
 70
     0
102
RTVSPost2010Prop35
280
     0
102
RTVSPost2010PropOp35
 70
     0
102
RTVSPost2010Prop36
280
     0
102
RTVSPost2010PropOp36
 70
     0
102
RTVSPost2010Prop37
 90
       50
102
RTVSPost2010PropOp37
 70
     0
102
RTVSPost2010Prop38
140
0.0
102
RTVSPost2010PropOp38
 70
     0
102
RTVSPost2010Prop39
140
1.0
102
RTVSPost2010PropOp39
 70
     0
102
RTVSPost2010Prop40
 90
        0
102
RTVSPost2010PropOp40
 70
     0
102
RTVSPost2010Prop41ColorIndex
 90
       18
102
RTVSPost2010Prop41ColorRGB
 90
        0
102
RTVSPost2010PropOp41
 70
     0
102
RTVSPost2010Prop42
 90
       50
102
RTVSPost2010PropOp42
 70
     0
102
RTVSPost2010Prop43
 90
        3
102
RTVSPost2010PropOp43
 70
     0
102
RTVSPost2010Prop44ColorIndex
 90
        5
102
RTVSPost2010Prop44ColorRGB
 90
      255
102
RTVSPost2010PropOp44
 70
     0
102
RTVSPost2010Prop45
280
     0
102
RTVSPost2010PropOp45
 70
     0
102
RTVSPost2010Prop46
 90
       50
102
RTVSPost2010PropOp46
 70
     0
102
RTVSPost2010Prop47
 90
       50
102
RTVSPost2010PropOp47
 70
     0
102
RTVSPost2010Prop48
 90
       50
102
RTVSPost2010PropOp48
 70
     0
102
RTVSPost2010Prop49
280
     0
102
RTVSPost2010PropOp49
 70
     0
102
RTVSPost2010Prop50
 90
       50
102
RTVSPost2010PropOp50
 70
     0
102
RTVSPost2010Prop51ColorIndex
 90
      256
102
RTVSPost2010Prop51ColorRGB
 90
-16777216
102
RTVSPost2010PropOp51
 70
     0
102
RTVSPost2010Prop52
140
1.0
102
RTVSPost2010PropOp52
 70
     0
102
RTVSPost2010Prop53
 90
        2
102
RTVSPost2010PropOp53
 70
     0
102
RTVSPost2010Prop54
  1
strokes_ogs.tif
102
RTVSPost2010PropOp54
 70
     0
102
RTVSPost2010Prop55
280
     0
102
RTVSPost2010PropOp55
 70
     0
102
RTVSPost2010Prop56
140
1.0
102
RTVSPost2010PropOp56
 70
     0
102
RTVSPost2010Prop57
140
1.0
102
RTVSPost2010PropOp57
 70
     0
102
RTVSPropertyOp0
 70
     0
102
RTVSPropertyOp1
 70
     0
102
RTVSPropertyOp2
 70
     0
102
RTVSPropertyOp3
 70
     0
102
RTVSPropertyOp4
 70
     0
102
RTVSPropertyOp5
 70
     0
102
RTVSPropertyOp6
 70
     0
102
RTVSPropertyOp7
 70
     0
102
RTVSPropertyOp8
 70
     0
102
RTVSPropertyOp9
 70
     0
102
RTVSPropertyOp10
 70
     0
102
RTVSPropertyOp11
 70
     0
102
RTVSPropertyOp12
 70
     0
102
RTVSPropertyOp13
 70
     0
102
RTVSPropertyOp14
 70
     2
102
RTVSPropertyOp15
 70
     0
102
RTVSPropertyOp16
 70
     0
102
RTVSPropertyOp17
 70
     0
102
RTVSPropertyOp18
 70
     0
102
RTVSPropertyOp19
 70
     0
102
RTVSPropertyOp20
 70
     0
102
RTVSPropertyOp21
 70
     0
102
RTVSPropertyOp22
 70
     0
102
RTVSPropertyOp23
 70
     0
102
RTVSPropertyOp24
 70
     0
102
RTVSPropertyOp25
 70
     0
102
RTVSPropertyOp26
 70
     0
102
RTVSPropertyOp27
 70
     0
102
RTVSPropertyOp28
 70
     0
102
RTVSPropertyOp29
 70
     0
102
RTVSPropertyOp30
 70
     0
102
RTVSPropertyOp31
 70
     0
102
RTVSPropertyOp32
 70
     0
102
RTVSPropertyOp33
 70
     0
102
RTVSPropertyOp34
 70
     0
102
RTVSPropertyOp35
 70
     0
102
RTVSPropertyOp36
 70
     0
102
RTVSPropertyOp37
 70
     0
102
RTVSPropertyOp38
 70
     0
102
RTVSPropertyOp39
 70
     0
102
RTVSPropertyOp40
 70
     0
102
RTVSPropertyOp41
 70
     0
102
RTVSPropertyOp42
 70
     0
102
RTVSPropertyOp43
 70
     0
102
RTVSPropertyOp44
 70
     0
102
RTVSPropertyOp45
 70
     0
102
RTVSPropertyOp46
 70
     0
102
RTVSPropertyOp47
 70
     0
102
RTVSPropertyOp48
 70
     0
102
RTVSPropertyOp49
 70
     0
102
RTVSPropertyOp50
 70
     0
102
RTVSPropertyOp51
 70
     0
102
RTVSPropertyOp52
 70
     0
102
RTVSPropertyOp53
 70
     0
102
RTVSPropertyOp54
 70
     0
102
RTVSPropertyOp55
 70
     0
102
RTVSPropertyOp56
 70
     0
102
RTVSPropertyOp57
 70
     0
102
RTVSPropertyOp58
 70
     0
102
RTVSPropertyOp59
 70
     0
102
RTVSPropertyOp60
 70
     0
102
RTVSPropertyOp61
 70
     0
102
RTVSPropertyOp62
 70
     0
  0
XRECORD
  5
552
102
{ACAD_REACTORS
330
551
102
}
330
551
100
AcDbXrecord
280
     1
102
RTVSPost2010Prop28
280
     0
102
RTVSPost2010PropOp28
 70
     1
102
RTVSPost2010Prop29
280
     1
102
RTVSPost2010PropOp29
 70
     1
102
RTVSPost2010Prop30
280
     1
102
RTVSPost2010PropOp30
 70
     1
102
RTVSPost2010Prop31
280
     0
102
RTVSPost2010PropOp31
 70
     1
102
RTVSPost2010Prop32
280
     0
102
RTVSPost2010PropOp32
 70
     1
102
RTVSPost2010Prop33
280
     0
102
RTVSPost2010PropOp33
 70
     1
102
RTVSPost2010Prop34
280
     0
102
RTVSPost2010PropOp34
 70
     1
102
RTVSPost2010Prop35
280
     0
102
RTVSPost2010PropOp35
 70
     1
102
RTVSPost2010Prop36
280
     0
102
RTVSPost2010PropOp36
 70
     1
102
RTVSPost2010Prop37
 90
       50
102
RTVSPost2010PropOp37
 70
     1
102
RTVSPost2010Prop38
140
0.0
102
RTVSPost2010PropOp38
 70
     1
102
RTVSPost2010Prop39
140
1.0
102
RTVSPost2010PropOp39
 70
     1
102
RTVSPost2010Prop40
 90
        0
102
RTVSPost2010PropOp40
 70
     1
102
RTVSPost2010Prop41ColorIndex
 90
       18
102
RTVSPost2010Prop41ColorRGB
 90
        0
102
RTVSPost2010PropOp41
 70
     1
102
RTVSPost2010Prop42
 90
       50
102
RTVSPost2010PropOp42
 70
     1
102
RTVSPost2010Prop43
 90
        3
102
RTVSPost2010PropOp43
 70
     1
102
RTVSPost2010Prop44ColorIndex
 90
        5
102
RTVSPost2010Prop44ColorRGB
 90
      255
102
RTVSPost2010PropOp44
 70
     1
102
RTVSPost2010Prop45
280
     0
102
RTVSPost2010PropOp45
 70
     1
102
RTVSPost2010Prop46
 90
       50
102
RTVSPost2010PropOp46
 70
     1
102
RTVSPost2010Prop47
 90
       50
102
RTVSPost2010PropOp47
 70
     1
102
RTVSPost2010Prop48
 90
       50
102
RTVSPost2010PropOp48
 70
     1
102
RTVSPost2010Prop49
280
     0
102
RTVSPost2010PropOp49
 70
     1
102
RTVSPost2010Prop50
 90
       50
102
RTVSPost2010PropOp50
 70
     1
102
RTVSPost2010Prop51ColorIndex
 90
      256
102
RTVSPost2010Prop51ColorRGB
 90
-16777216
102
RTVSPost2010PropOp51
 70
     0
102
RTVSPost2010Prop52
140
1.0
102
RTVSPost2010PropOp52
 70
     0
102
RTVSPost2010Prop53
 90
        2
102
RTVSPost2010PropOp53
 70
     1
102
RTVSPost2010Prop54
  1
strokes_ogs.tif
102
RTVSPost2010PropOp54
 70
     1
102
RTVSPost2010Prop55
280
     0
102
RTVSPost2010PropOp55
 70
     1
102
RTVSPost2010Prop56
140
1.0
102
RTVSPost2010PropOp56
 70
     1
102
RTVSPost2010Prop57
140
1.0
102
RTVSPost2010PropOp57
 70
     1
102
RTVSPropertyOp0
 70
     1
102
RTVSPropertyOp1
 70
     1
102
RTVSPropertyOp2
 70
     1
102
RTVSPropertyOp3
 70
     1
102
RTVSPropertyOp4
 70
     1
102
RTVSPropertyOp5
 70
     1
102
RTVSPropertyOp6
 70
     1
102
RTVSPropertyOp7
 70
     1
102
RTVSPropertyOp8
 70
     1
102
RTVSPropertyOp9
 70
     1
102
RTVSPropertyOp10
 70
     1
102
RTVSPropertyOp11
 70
     1
102
RTVSPropertyOp12
 70
     1
102
RTVSPropertyOp13
 70
     1
102
RTVSPropertyOp14
 70
     1
102
RTVSPropertyOp15
 70
     1
102
RTVSPropertyOp16
 70
     1
102
RTVSPropertyOp17
 70
     1
102
RTVSPropertyOp18
 70
     1
102
RTVSPropertyOp19
 70
     1
102
RTVSPropertyOp20
 70
     1
102
RTVSPropertyOp21
 70
     1
102
RTVSPropertyOp22
 70
     1
102
RTVSPropertyOp23
 70
     1
102
RTVSPropertyOp24
 70
     1
102
RTVSPropertyOp25
 70
     1
102
RTVSPropertyOp26
 70
     1
102
RTVSPropertyOp27
 70
     1
102
RTVSPropertyOp28
 70
     1
102
RTVSPropertyOp29
 70
     1
102
RTVSPropertyOp30
 70
     1
102
RTVSPropertyOp31
 70
     1
102
RTVSPropertyOp32
 70
     1
102
RTVSPropertyOp33
 70
     1
102
RTVSPropertyOp34
 70
     1
102
RTVSPropertyOp35
 70
     1
102
RTVSPropertyOp36
 70
     1
102
RTVSPropertyOp37
 70
     1
102
RTVSPropertyOp38
 70
     1
102
RTVSPropertyOp39
 70
     1
102
RTVSPropertyOp40
 70
     1
102
RTVSPropertyOp41
 70
     1
102
RTVSPropertyOp42
 70
     1
102
RTVSPropertyOp43
 70
     1
102
RTVSPropertyOp44
 70
     1
102
RTVSPropertyOp45
 70
     1
102
RTVSPropertyOp46
 70
     1
102
RTVSPropertyOp47
 70
     1
102
RTVSPropertyOp48
 70
     1
102
RTVSPropertyOp49
 70
     1
102
RTVSPropertyOp50
 70
     1
102
RTVSPropertyOp51
 70
     0
102
RTVSPropertyOp52
 70
     0
102
RTVSPropertyOp53
 70
     1
102
RTVSPropertyOp54
 70
     1
102
RTVSPropertyOp55
 70
     1
102
RTVSPropertyOp56
 70
     1
102
RTVSPropertyOp57
 70
     1
102
RTVSPropertyOp58
 70
     1
102
RTVSPropertyOp59
 70
     1
102
RTVSPropertyOp60
 70
     1
102
RTVSPropertyOp61
 70
     1
102
RTVSPropertyOp62
 70
     1
  0
XRECORD
  5
564
102
{ACAD_REACTORS
330
563
102
}
330
563
100
AcDbXrecord
280
     1
102
RTVSPost2010Prop28
280
     0
102
RTVSPost2010PropOp28
 70
     0
102
RTVSPost2010Prop29
280
     1
102
RTVSPost2010PropOp29
 70
     0
102
RTVSPost2010Prop30
280
     1
102
RTVSPost2010PropOp30
 70
     0
102
RTVSPost2010Prop31
280
     0
102
RTVSPost2010PropOp31
 70
     0
102
RTVSPost2010Prop32
280
     0
102
RTVSPost2010PropOp32
 70
     0
102
RTVSPost2010Prop33
280
     0
102
RTVSPost2010PropOp33
 70
     0
102
RTVSPost2010Prop34
280
     0
102
RTVSPost2010PropOp34
 70
     0
102
RTVSPost2010Prop35
280
     0
102
RTVSPost2010PropOp35
 70
     0
102
RTVSPost2010Prop36
280
     0
102
RTVSPost2010PropOp36
 70
     0
102
RTVSPost2010Prop37
 90
       50
102
RTVSPost2010PropOp37
 70
     0
102
RTVSPost2010Prop38
140
0.0
102
RTVSPost2010PropOp38
 70
     0
102
RTVSPost2010Prop39
140
1.0
102
RTVSPost2010PropOp39
 70
     0
102
RTVSPost2010Prop40
 90
        0
102
RTVSPost2010PropOp40
 70
     0
102
RTVSPost2010Prop41ColorIndex
 90
       18
102
RTVSPost2010Prop41ColorRGB
 90
        0
102
RTVSPost2010PropOp41
 70
     0
102
RTVSPost2010Prop42
 90
       50
102
RTVSPost2010PropOp42
 70
     0
102
RTVSPost2010Prop43
 90
        3
102
RTVSPost2010PropOp43
 70
     0
102
RTVSPost2010Prop44ColorIndex
 90
        5
102
RTVSPost2010Prop44ColorRGB
 90
      255
102
RTVSPost2010PropOp44
 70
     0
102
RTVSPost2010Prop45
280
     0
102
RTVSPost2010PropOp45
 70
     0
102
RTVSPost2010Prop46
 90
       50
102
RTVSPost2010PropOp46
 70
     0
102
RTVSPost2010Prop47
 90
       50
102
RTVSPost2010PropOp47
 70
     0
102
RTVSPost2010Prop48
 90
       50
102
RTVSPost2010PropOp48
 70
     0
102
RTVSPost2010Prop49
280
     0
102
RTVSPost2010PropOp49
 70
     0
102
RTVSPost2010Prop50
 90
       50
102
RTVSPost2010PropOp50
 70
     0
102
RTVSPost2010Prop51ColorIndex
 90
      256
102
RTVSPost2010Prop51ColorRGB
 90
-16777216
102
RTVSPost2010PropOp51
 70
     0
102
RTVSPost2010Prop52
140
1.0
102
RTVSPost2010PropOp52
 70
     0
102
RTVSPost2010Prop53
 90
        2
102
RTVSPost2010PropOp53
 70
     0
102
RTVSPost2010Prop54
  1
strokes_ogs.tif
102
RTVSPost2010PropOp54
 70
     0
102
RTVSPost2010Prop55
280
     0
102
RTVSPost2010PropOp55
 70
     0
102
RTVSPost2010Prop56
140
1.0
102
RTVSPost2010PropOp56
 70
     0
102
RTVSPost2010Prop57
140
1.0
102
RTVSPost2010PropOp57
 70
     0
102
RTVSPropertyOp0
 70
     0
102
RTVSPropertyOp1
 70
     0
102
RTVSPropertyOp2
 70
     0
102
RTVSPropertyOp3
 70
     0
102
RTVSPropertyOp4
 70
     0
102
RTVSPropertyOp5
 70
     0
102
RTVSPropertyOp6
 70
     0
102
RTVSPropertyOp7
 70
     0
102
RTVSPropertyOp8
 70
     0
102
RTVSPropertyOp9
 70
     0
102
RTVSPropertyOp10
 70
     0
102
RTVSPropertyOp11
 70
     0
102
RTVSPropertyOp12
 70
     0
102
RTVSPropertyOp13
 70
     0
102
RTVSPropertyOp14
 70
     2
102
RTVSPropertyOp15
 70
     0
102
RTVSPropertyOp16
 70
     0
102
RTVSPropertyOp17
 70
     0
102
RTVSPropertyOp18
 70
     0
102
RTVSPropertyOp19
 70
     0
102
RTVSPropertyOp20
 70
     0
102
RTVSPropertyOp21
 70
     0
102
RTVSPropertyOp22
 70
     0
102
RTVSPropertyOp23
 70
     0
102
RTVSPropertyOp24
 70
     0
102
RTVSPropertyOp25
 70
     0
102
RTVSPropertyOp26
 70
     0
102
RTVSPropertyOp27
 70
     0
102
RTVSPropertyOp28
 70
     0
102
RTVSPropertyOp29
 70
     0
102
RTVSPropertyOp30
 70
     0
102
RTVSPropertyOp31
 70
     0
102
RTVSPropertyOp32
 70
     0
102
RTVSPropertyOp33
 70
     0
102
RTVSPropertyOp34
 70
     0
102
RTVSPropertyOp35
 70
     0
102
RTVSPropertyOp36
 70
     0
102
RTVSPropertyOp37
 70
     0
102
RTVSPropertyOp38
 70
     0
102
RTVSPropertyOp39
 70
     0
102
RTVSPropertyOp40
 70
     0
102
RTVSPropertyOp41
 70
     0
102
RTVSPropertyOp42
 70
     0
102
RTVSPropertyOp43
 70
     0
102
RTVSPropertyOp44
 70
     0
102
RTVSPropertyOp45
 70
     0
102
RTVSPropertyOp46
 70
     0
102
RTVSPropertyOp47
 70
     0
102
RTVSPropertyOp48
 70
     0
102
RTVSPropertyOp49
 70
     0
102
RTVSPropertyOp50
 70
     0
102
RTVSPropertyOp51
 70
     0
102
RTVSPropertyOp52
 70
     0
102
RTVSPropertyOp53
 70
     0
102
RTVSPropertyOp54
 70
     0
102
RTVSPropertyOp55
 70
     0
102
RTVSPropertyOp56
 70
     0
102
RTVSPropertyOp57
 70
     0
102
RTVSPropertyOp58
 70
     0
102
RTVSPropertyOp59
 70
     0
102
RTVSPropertyOp60
 70
     0
102
RTVSPropertyOp61
 70
     0
102
RTVSPropertyOp62
 70
     0
  0
XRECORD
  5
54A
102
{ACAD_REACTORS
330
549
102
}
330
549
100
AcDbXrecord
280
     1
102
RTVSPost2010Prop28
280
     0
102
RTVSPost2010PropOp28
 70
     1
102
RTVSPost2010Prop29
280
     1
102
RTVSPost2010PropOp29
 70
     1
102
RTVSPost2010Prop30
280
     1
102
RTVSPost2010PropOp30
 70
     1
102
RTVSPost2010Prop31
280
     0
102
RTVSPost2010PropOp31
 70
     1
102
RTVSPost2010Prop32
280
     0
102
RTVSPost2010PropOp32
 70
     1
102
RTVSPost2010Prop33
280
     0
102
RTVSPost2010PropOp33
 70
     1
102
RTVSPost2010Prop34
280
     0
102
RTVSPost2010PropOp34
 70
     1
102
RTVSPost2010Prop35
280
     0
102
RTVSPost2010PropOp35
 70
     1
102
RTVSPost2010Prop36
280
     0
102
RTVSPost2010PropOp36
 70
     1
102
RTVSPost2010Prop37
 90
       50
102
RTVSPost2010PropOp37
 70
     1
102
RTVSPost2010Prop38
140
0.0
102
RTVSPost2010PropOp38
 70
     1
102
RTVSPost2010Prop39
140
1.0
102
RTVSPost2010PropOp39
 70
     1
102
RTVSPost2010Prop40
 90
        0
102
RTVSPost2010PropOp40
 70
     1
102
RTVSPost2010Prop41ColorIndex
 90
       18
102
RTVSPost2010Prop41ColorRGB
 90
        0
102
RTVSPost2010PropOp41
 70
     1
102
RTVSPost2010Prop42
 90
       50
102
RTVSPost2010PropOp42
 70
     1
102
RTVSPost2010Prop43
 90
        3
102
RTVSPost2010PropOp43
 70
     1
102
RTVSPost2010Prop44ColorIndex
 90
        5
102
RTVSPost2010Prop44ColorRGB
 90
      255
102
RTVSPost2010PropOp44
 70
     1
102
RTVSPost2010Prop45
280
     0
102
RTVSPost2010PropOp45
 70
     1
102
RTVSPost2010Prop46
 90
       50
102
RTVSPost2010PropOp46
 70
     1
102
RTVSPost2010Prop47
 90
       50
102
RTVSPost2010PropOp47
 70
     1
102
RTVSPost2010Prop48
 90
       50
102
RTVSPost2010PropOp48
 70
     1
102
RTVSPost2010Prop49
280
     0
102
RTVSPost2010PropOp49
 70
     1
102
RTVSPost2010Prop50
 90
       50
102
RTVSPost2010PropOp50
 70
     1
102
RTVSPost2010Prop51ColorIndex
 90
      256
102
RTVSPost2010Prop51ColorRGB
 90
-16777216
102
RTVSPost2010PropOp51
 70
     0
102
RTVSPost2010Prop52
140
1.0
102
RTVSPost2010PropOp52
 70
     0
102
RTVSPost2010Prop53
 90
        2
102
RTVSPost2010PropOp53
 70
     1
102
RTVSPost2010Prop54
  1
strokes_ogs.tif
102
RTVSPost2010PropOp54
 70
     1
102
RTVSPost2010Prop55
280
     0
102
RTVSPost2010PropOp55
 70
     1
102
RTVSPost2010Prop56
140
1.0
102
RTVSPost2010PropOp56
 70
     1
102
RTVSPost2010Prop57
140
1.0
102
RTVSPost2010PropOp57
 70
     1
102
RTVSPropertyOp0
 70
     1
102
RTVSPropertyOp1
 70
     1
102
RTVSPropertyOp2
 70
     1
102
RTVSPropertyOp3
 70
     1
102
RTVSPropertyOp4
 70
     1
102
RTVSPropertyOp5
 70
     1
102
RTVSPropertyOp6
 70
     1
102
RTVSPropertyOp7
 70
     1
102
RTVSPropertyOp8
 70
     1
102
RTVSPropertyOp9
 70
     1
102
RTVSPropertyOp10
 70
     1
102
RTVSPropertyOp11
 70
     1
102
RTVSPropertyOp12
 70
     1
102
RTVSPropertyOp13
 70
     1
102
RTVSPropertyOp14
 70
     1
102
RTVSPropertyOp15
 70
     1
102
RTVSPropertyOp16
 70
     1
102
RTVSPropertyOp17
 70
     1
102
RTVSPropertyOp18
 70
     1
102
RTVSPropertyOp19
 70
     1
102
RTVSPropertyOp20
 70
     1
102
RTVSPropertyOp21
 70
     1
102
RTVSPropertyOp22
 70
     1
102
RTVSPropertyOp23
 70
     1
102
RTVSPropertyOp24
 70
     1
102
RTVSPropertyOp25
 70
     1
102
RTVSPropertyOp26
 70
     1
102
RTVSPropertyOp27
 70
     1
102
RTVSPropertyOp28
 70
     1
102
RTVSPropertyOp29
 70
     1
102
RTVSPropertyOp30
 70
     1
102
RTVSPropertyOp31
 70
     1
102
RTVSPropertyOp32
 70
     1
102
RTVSPropertyOp33
 70
     1
102
RTVSPropertyOp34
 70
     1
102
RTVSPropertyOp35
 70
     1
102
RTVSPropertyOp36
 70
     1
102
RTVSPropertyOp37
 70
     1
102
RTVSPropertyOp38
 70
     1
102
RTVSPropertyOp39
 70
     1
102
RTVSPropertyOp40
 70
     1
102
RTVSPropertyOp41
 70
     1
102
RTVSPropertyOp42
 70
     1
102
RTVSPropertyOp43
 70
     1
102
RTVSPropertyOp44
 70
     1
102
RTVSPropertyOp45
 70
     1
102
RTVSPropertyOp46
 70
     1
102
RTVSPropertyOp47
 70
     1
102
RTVSPropertyOp48
 70
     1
102
RTVSPropertyOp49
 70
     1
102
RTVSPropertyOp50
 70
     1
102
RTVSPropertyOp51
 70
     0
102
RTVSPropertyOp52
 70
     0
102
RTVSPropertyOp53
 70
     1
102
RTVSPropertyOp54
 70
     1
102
RTVSPropertyOp55
 70
     1
102
RTVSPropertyOp56
 70
     1
102
RTVSPropertyOp57
 70
     1
102
RTVSPropertyOp58
 70
     1
102
RTVSPropertyOp59
 70
     1
102
RTVSPropertyOp60
 70
     1
102
RTVSPropertyOp61
 70
     1
102
RTVSPropertyOp62
 70
     1
  0
XRECORD
  5
560
102
{ACAD_REACTORS
330
55F
102
}
330
55F
100
AcDbXrecord
280
     1
102
RTVSPost2010Prop28
280
     0
102
RTVSPost2010PropOp28
 70
     1
102
RTVSPost2010Prop29
280
     1
102
RTVSPost2010PropOp29
 70
     1
102
RTVSPost2010Prop30
280
     1
102
RTVSPost2010PropOp30
 70
     1
102
RTVSPost2010Prop31
280
     0
102
RTVSPost2010PropOp31
 70
     1
102
RTVSPost2010Prop32
280
     0
102
RTVSPost2010PropOp32
 70
     1
102
RTVSPost2010Prop33
280
     0
102
RTVSPost2010PropOp33
 70
     1
102
RTVSPost2010Prop34
280
     0
102
RTVSPost2010PropOp34
 70
     1
102
RTVSPost2010Prop35
280
     0
102
RTVSPost2010PropOp35
 70
     1
102
RTVSPost2010Prop36
280
     0
102
RTVSPost2010PropOp36
 70
     1
102
RTVSPost2010Prop37
 90
       50
102
RTVSPost2010PropOp37
 70
     1
102
RTVSPost2010Prop38
140
0.0
102
RTVSPost2010PropOp38
 70
     1
102
RTVSPost2010Prop39
140
1.0
102
RTVSPost2010PropOp39
 70
     1
102
RTVSPost2010Prop40
 90
        0
102
RTVSPost2010PropOp40
 70
     1
102
RTVSPost2010Prop41ColorIndex
 90
       18
102
RTVSPost2010Prop41ColorRGB
 90
        0
102
RTVSPost2010PropOp41
 70
     1
102
RTVSPost2010Prop42
 90
       50
102
RTVSPost2010PropOp42
 70
     1
102
RTVSPost2010Prop43
 90
        3
102
RTVSPost2010PropOp43
 70
     1
102
RTVSPost2010Prop44ColorIndex
 90
        5
102
RTVSPost2010Prop44ColorRGB
 90
      255
102
RTVSPost2010PropOp44
 70
     1
102
RTVSPost2010Prop45
280
     0
102
RTVSPost2010PropOp45
 70
     1
102
RTVSPost2010Prop46
 90
       50
102
RTVSPost2010PropOp46
 70
     1
102
RTVSPost2010Prop47
 90
       50
102
RTVSPost2010PropOp47
 70
     1
102
RTVSPost2010Prop48
 90
       50
102
RTVSPost2010PropOp48
 70
     1
102
RTVSPost2010Prop49
280
     0
102
RTVSPost2010PropOp49
 70
     1
102
RTVSPost2010Prop50
 90
       50
102
RTVSPost2010PropOp50
 70
     1
102
RTVSPost2010Prop51ColorIndex
 90
      256
102
RTVSPost2010Prop51ColorRGB
 90
-16777216
102
RTVSPost2010PropOp51
 70
     0
102
RTVSPost2010Prop52
140
1.0
102
RTVSPost2010PropOp52
 70
     0
102
RTVSPost2010Prop53
 90
        2
102
RTVSPost2010PropOp53
 70
     1
102
RTVSPost2010Prop54
  1
strokes_ogs.tif
102
RTVSPost2010PropOp54
 70
     1
102
RTVSPost2010Prop55
280
     0
102
RTVSPost2010PropOp55
 70
     1
102
RTVSPost2010Prop56
140
1.0
102
RTVSPost2010PropOp56
 70
     1
102
RTVSPost2010Prop57
140
1.0
102
RTVSPost2010PropOp57
 70
     1
102
RTVSPropertyOp0
 70
     1
102
RTVSPropertyOp1
 70
     1
102
RTVSPropertyOp2
 70
     1
102
RTVSPropertyOp3
 70
     1
102
RTVSPropertyOp4
 70
     1
102
RTVSPropertyOp5
 70
     1
102
RTVSPropertyOp6
 70
     1
102
RTVSPropertyOp7
 70
     1
102
RTVSPropertyOp8
 70
     1
102
RTVSPropertyOp9
 70
     1
102
RTVSPropertyOp10
 70
     1
102
RTVSPropertyOp11
 70
     1
102
RTVSPropertyOp12
 70
     1
102
RTVSPropertyOp13
 70
     1
102
RTVSPropertyOp14
 70
     1
102
RTVSPropertyOp15
 70
     1
102
RTVSPropertyOp16
 70
     1
102
RTVSPropertyOp17
 70
     1
102
RTVSPropertyOp18
 70
     1
102
RTVSPropertyOp19
 70
     1
102
RTVSPropertyOp20
 70
     1
102
RTVSPropertyOp21
 70
     1
102
RTVSPropertyOp22
 70
     1
102
RTVSPropertyOp23
 70
     1
102
RTVSPropertyOp24
 70
     1
102
RTVSPropertyOp25
 70
     1
102
RTVSPropertyOp26
 70
     1
102
RTVSPropertyOp27
 70
     1
102
RTVSPropertyOp28
 70
     1
102
RTVSPropertyOp29
 70
     1
102
RTVSPropertyOp30
 70
     1
102
RTVSPropertyOp31
 70
     1
102
RTVSPropertyOp32
 70
     1
102
RTVSPropertyOp33
 70
     1
102
RTVSPropertyOp34
 70
     1
102
RTVSPropertyOp35
 70
     1
102
RTVSPropertyOp36
 70
     1
102
RTVSPropertyOp37
 70
     1
102
RTVSPropertyOp38
 70
     1
102
RTVSPropertyOp39
 70
     1
102
RTVSPropertyOp40
 70
     1
102
RTVSPropertyOp41
 70
     1
102
RTVSPropertyOp42
 70
     1
102
RTVSPropertyOp43
 70
     1
102
RTVSPropertyOp44
 70
     1
102
RTVSPropertyOp45
 70
     1
102
RTVSPropertyOp46
 70
     1
102
RTVSPropertyOp47
 70
     1
102
RTVSPropertyOp48
 70
     1
102
RTVSPropertyOp49
 70
     1
102
RTVSPropertyOp50
 70
     1
102
RTVSPropertyOp51
 70
     0
102
RTVSPropertyOp52
 70
     0
102
RTVSPropertyOp53
 70
     1
102
RTVSPropertyOp54
 70
     1
102
RTVSPropertyOp55
 70
     1
102
RTVSPropertyOp56
 70
     1
102
RTVSPropertyOp57
 70
     1
102
RTVSPropertyOp58
 70
     1
102
RTVSPropertyOp59
 70
     1
102
RTVSPropertyOp60
 70
     1
102
RTVSPropertyOp61
 70
     1
102
RTVSPropertyOp62
 70
     1
  0
XRECORD
  5
55E
102
{ACAD_REACTORS
330
55D
102
}
330
55D
100
AcDbXrecord
280
     1
102
RTVSPost2010Prop28
280
     0
102
RTVSPost2010PropOp28
 70
     1
102
RTVSPost2010Prop29
280
     1
102
RTVSPost2010PropOp29
 70
     1
102
RTVSPost2010Prop30
280
     1
102
RTVSPost2010PropOp30
 70
     1
102
RTVSPost2010Prop31
280
     0
102
RTVSPost2010PropOp31
 70
     1
102
RTVSPost2010Prop32
280
     0
102
RTVSPost2010PropOp32
 70
     1
102
RTVSPost2010Prop33
280
     0
102
RTVSPost2010PropOp33
 70
     1
102
RTVSPost2010Prop34
280
     0
102
RTVSPost2010PropOp34
 70
     1
102
RTVSPost2010Prop35
280
     0
102
RTVSPost2010PropOp35
 70
     1
102
RTVSPost2010Prop36
280
     0
102
RTVSPost2010PropOp36
 70
     1
102
RTVSPost2010Prop37
 90
       50
102
RTVSPost2010PropOp37
 70
     1
102
RTVSPost2010Prop38
140
0.0
102
RTVSPost2010PropOp38
 70
     1
102
RTVSPost2010Prop39
140
1.0
102
RTVSPost2010PropOp39
 70
     1
102
RTVSPost2010Prop40
 90
        0
102
RTVSPost2010PropOp40
 70
     1
102
RTVSPost2010Prop41ColorIndex
 90
       18
102
RTVSPost2010Prop41ColorRGB
 90
        0
102
RTVSPost2010PropOp41
 70
     1
102
RTVSPost2010Prop42
 90
       50
102
RTVSPost2010PropOp42
 70
     1
102
RTVSPost2010Prop43
 90
        3
102
RTVSPost2010PropOp43
 70
     1
102
RTVSPost2010Prop44ColorIndex
 90
        5
102
RTVSPost2010Prop44ColorRGB
 90
      255
102
RTVSPost2010PropOp44
 70
     1
102
RTVSPost2010Prop45
280
     0
102
RTVSPost2010PropOp45
 70
     1
102
RTVSPost2010Prop46
 90
       50
102
RTVSPost2010PropOp46
 70
     1
102
RTVSPost2010Prop47
 90
       50
102
RTVSPost2010PropOp47
 70
     1
102
RTVSPost2010Prop48
 90
       50
102
RTVSPost2010PropOp48
 70
     1
102
RTVSPost2010Prop49
280
     0
102
RTVSPost2010PropOp49
 70
     1
102
RTVSPost2010Prop50
 90
       50
102
RTVSPost2010PropOp50
 70
     1
102
RTVSPost2010Prop51ColorIndex
 90
      256
102
RTVSPost2010Prop51ColorRGB
 90
-16777216
102
RTVSPost2010PropOp51
 70
     0
102
RTVSPost2010Prop52
140
1.0
102
RTVSPost2010PropOp52
 70
     0
102
RTVSPost2010Prop53
 90
        2
102
RTVSPost2010PropOp53
 70
     1
102
RTVSPost2010Prop54
  1
strokes_ogs.tif
102
RTVSPost2010PropOp54
 70
     1
102
RTVSPost2010Prop55
280
     0
102
RTVSPost2010PropOp55
 70
     1
102
RTVSPost2010Prop56
140
1.0
102
RTVSPost2010PropOp56
 70
     1
102
RTVSPost2010Prop57
140
1.0
102
RTVSPost2010PropOp57
 70
     1
102
RTVSPropertyOp0
 70
     1
102
RTVSPropertyOp1
 70
     1
102
RTVSPropertyOp2
 70
     1
102
RTVSPropertyOp3
 70
     1
102
RTVSPropertyOp4
 70
     1
102
RTVSPropertyOp5
 70
     1
102
RTVSPropertyOp6
 70
     1
102
RTVSPropertyOp7
 70
     1
102
RTVSPropertyOp8
 70
     1
102
RTVSPropertyOp9
 70
     1
102
RTVSPropertyOp10
 70
     1
102
RTVSPropertyOp11
 70
     1
102
RTVSPropertyOp12
 70
     1
102
RTVSPropertyOp13
 70
     1
102
RTVSPropertyOp14
 70
     1
102
RTVSPropertyOp15
 70
     1
102
RTVSPropertyOp16
 70
     1
102
RTVSPropertyOp17
 70
     1
102
RTVSPropertyOp18
 70
     1
102
RTVSPropertyOp19
 70
     1
102
RTVSPropertyOp20
 70
     1
102
RTVSPropertyOp21
 70
     1
102
RTVSPropertyOp22
 70
     1
102
RTVSPropertyOp23
 70
     1
102
RTVSPropertyOp24
 70
     1
102
RTVSPropertyOp25
 70
     1
102
RTVSPropertyOp26
 70
     1
102
RTVSPropertyOp27
 70
     1
102
RTVSPropertyOp28
 70
     1
102
RTVSPropertyOp29
 70
     1
102
RTVSPropertyOp30
 70
     1
102
RTVSPropertyOp31
 70
     1
102
RTVSPropertyOp32
 70
     1
102
RTVSPropertyOp33
 70
     1
102
RTVSPropertyOp34
 70
     1
102
RTVSPropertyOp35
 70
     1
102
RTVSPropertyOp36
 70
     1
102
RTVSPropertyOp37
 70
     1
102
RTVSPropertyOp38
 70
     1
102
RTVSPropertyOp39
 70
     1
102
RTVSPropertyOp40
 70
     1
102
RTVSPropertyOp41
 70
     1
102
RTVSPropertyOp42
 70
     1
102
RTVSPropertyOp43
 70
     1
102
RTVSPropertyOp44
 70
     1
102
RTVSPropertyOp45
 70
     1
102
RTVSPropertyOp46
 70
     1
102
RTVSPropertyOp47
 70
     1
102
RTVSPropertyOp48
 70
     1
102
RTVSPropertyOp49
 70
     1
102
RTVSPropertyOp50
 70
     1
102
RTVSPropertyOp51
 70
     0
102
RTVSPropertyOp52
 70
     0
102
RTVSPropertyOp53
 70
     1
102
RTVSPropertyOp54
 70
     1
102
RTVSPropertyOp55
 70
     1
102
RTVSPropertyOp56
 70
     1
102
RTVSPropertyOp57
 70
     1
102
RTVSPropertyOp58
 70
     1
102
RTVSPropertyOp59
 70
     1
102
RTVSPropertyOp60
 70
     1
102
RTVSPropertyOp61
 70
     1
102
RTVSPropertyOp62
 70
     1
  0
XRECORD
  5
558
102
{ACAD_REACTORS
330
557
102
}
330
557
100
AcDbXrecord
280
     1
102
RTVSPost2010Prop28
280
     0
102
RTVSPost2010PropOp28
 70
     1
102
RTVSPost2010Prop29
280
     1
102
RTVSPost2010PropOp29
 70
     1
102
RTVSPost2010Prop30
280
     1
102
RTVSPost2010PropOp30
 70
     1
102
RTVSPost2010Prop31
280
     0
102
RTVSPost2010PropOp31
 70
     1
102
RTVSPost2010Prop32
280
     0
102
RTVSPost2010PropOp32
 70
     1
102
RTVSPost2010Prop33
280
     0
102
RTVSPost2010PropOp33
 70
     1
102
RTVSPost2010Prop34
280
     0
102
RTVSPost2010PropOp34
 70
     1
102
RTVSPost2010Prop35
280
     0
102
RTVSPost2010PropOp35
 70
     1
102
RTVSPost2010Prop36
280
     0
102
RTVSPost2010PropOp36
 70
     1
102
RTVSPost2010Prop37
 90
       50
102
RTVSPost2010PropOp37
 70
     1
102
RTVSPost2010Prop38
140
0.0
102
RTVSPost2010PropOp38
 70
     1
102
RTVSPost2010Prop39
140
1.0
102
RTVSPost2010PropOp39
 70
     1
102
RTVSPost2010Prop40
 90
        0
102
RTVSPost2010PropOp40
 70
     1
102
RTVSPost2010Prop41ColorIndex
 90
       18
102
RTVSPost2010Prop41ColorRGB
 90
        0
102
RTVSPost2010PropOp41
 70
     1
102
RTVSPost2010Prop42
 90
       50
102
RTVSPost2010PropOp42
 70
     1
102
RTVSPost2010Prop43
 90
        3
102
RTVSPost2010PropOp43
 70
     1
102
RTVSPost2010Prop44ColorIndex
 90
        5
102
RTVSPost2010Prop44ColorRGB
 90
      255
102
RTVSPost2010PropOp44
 70
     1
102
RTVSPost2010Prop45
280
     0
102
RTVSPost2010PropOp45
 70
     1
102
RTVSPost2010Prop46
 90
       50
102
RTVSPost2010PropOp46
 70
     1
102
RTVSPost2010Prop47
 90
       50
102
RTVSPost2010PropOp47
 70
     1
102
RTVSPost2010Prop48
 90
       50
102
RTVSPost2010PropOp48
 70
     1
102
RTVSPost2010Prop49
280
     0
102
RTVSPost2010PropOp49
 70
     1
102
RTVSPost2010Prop50
 90
       50
102
RTVSPost2010PropOp50
 70
     1
102
RTVSPost2010Prop51ColorIndex
 90
      256
102
RTVSPost2010Prop51ColorRGB
 90
-16777216
102
RTVSPost2010PropOp51
 70
     0
102
RTVSPost2010Prop52
140
1.0
102
RTVSPost2010PropOp52
 70
     0
102
RTVSPost2010Prop53
 90
        2
102
RTVSPost2010PropOp53
 70
     1
102
RTVSPost2010Prop54
  1
strokes_ogs.tif
102
RTVSPost2010PropOp54
 70
     1
102
RTVSPost2010Prop55
280
     0
102
RTVSPost2010PropOp55
 70
     1
102
RTVSPost2010Prop56
140
1.0
102
RTVSPost2010PropOp56
 70
     1
102
RTVSPost2010Prop57
140
1.0
102
RTVSPost2010PropOp57
 70
     1
102
RTVSPropertyOp0
 70
     1
102
RTVSPropertyOp1
 70
     1
102
RTVSPropertyOp2
 70
     1
102
RTVSPropertyOp3
 70
     1
102
RTVSPropertyOp4
 70
     1
102
RTVSPropertyOp5
 70
     1
102
RTVSPropertyOp6
 70
     1
102
RTVSPropertyOp7
 70
     1
102
RTVSPropertyOp8
 70
     1
102
RTVSPropertyOp9
 70
     1
102
RTVSPropertyOp10
 70
     1
102
RTVSPropertyOp11
 70
     1
102
RTVSPropertyOp12
 70
     1
102
RTVSPropertyOp13
 70
     1
102
RTVSPropertyOp14
 70
     1
102
RTVSPropertyOp15
 70
     1
102
RTVSPropertyOp16
 70
     1
102
RTVSPropertyOp17
 70
     1
102
RTVSPropertyOp18
 70
     1
102
RTVSPropertyOp19
 70
     1
102
RTVSPropertyOp20
 70
     1
102
RTVSPropertyOp21
 70
     1
102
RTVSPropertyOp22
 70
     1
102
RTVSPropertyOp23
 70
     1
102
RTVSPropertyOp24
 70
     1
102
RTVSPropertyOp25
 70
     1
102
RTVSPropertyOp26
 70
     1
102
RTVSPropertyOp27
 70
     1
102
RTVSPropertyOp28
 70
     1
102
RTVSPropertyOp29
 70
     1
102
RTVSPropertyOp30
 70
     1
102
RTVSPropertyOp31
 70
     1
102
RTVSPropertyOp32
 70
     1
102
RTVSPropertyOp33
 70
     1
102
RTVSPropertyOp34
 70
     1
102
RTVSPropertyOp35
 70
     1
102
RTVSPropertyOp36
 70
     1
102
RTVSPropertyOp37
 70
     1
102
RTVSPropertyOp38
 70
     1
102
RTVSPropertyOp39
 70
     1
102
RTVSPropertyOp40
 70
     1
102
RTVSPropertyOp41
 70
     1
102
RTVSPropertyOp42
 70
     1
102
RTVSPropertyOp43
 70
     1
102
RTVSPropertyOp44
 70
     1
102
RTVSPropertyOp45
 70
     1
102
RTVSPropertyOp46
 70
     1
102
RTVSPropertyOp47
 70
     1
102
RTVSPropertyOp48
 70
     1
102
RTVSPropertyOp49
 70
     1
102
RTVSPropertyOp50
 70
     1
102
RTVSPropertyOp51
 70
     0
102
RTVSPropertyOp52
 70
     0
102
RTVSPropertyOp53
 70
     1
102
RTVSPropertyOp54
 70
     1
102
RTVSPropertyOp55
 70
     1
102
RTVSPropertyOp56
 70
     1
102
RTVSPropertyOp57
 70
     1
102
RTVSPropertyOp58
 70
     1
102
RTVSPropertyOp59
 70
     1
102
RTVSPropertyOp60
 70
     1
102
RTVSPropertyOp61
 70
     1
102
RTVSPropertyOp62
 70
     1
  0
XRECORD
  5
55A
102
{ACAD_REACTORS
330
559
102
}
330
559
100
AcDbXrecord
280
     1
102
RTVSPost2010Prop28
280
     0
102
RTVSPost2010PropOp28
 70
     1
102
RTVSPost2010Prop29
280
     1
102
RTVSPost2010PropOp29
 70
     1
102
RTVSPost2010Prop30
280
     1
102
RTVSPost2010PropOp30
 70
     1
102
RTVSPost2010Prop31
280
     0
102
RTVSPost2010PropOp31
 70
     1
102
RTVSPost2010Prop32
280
     0
102
RTVSPost2010PropOp32
 70
     1
102
RTVSPost2010Prop33
280
     0
102
RTVSPost2010PropOp33
 70
     1
102
RTVSPost2010Prop34
280
     0
102
RTVSPost2010PropOp34
 70
     1
102
RTVSPost2010Prop35
280
     0
102
RTVSPost2010PropOp35
 70
     1
102
RTVSPost2010Prop36
280
     0
102
RTVSPost2010PropOp36
 70
     1
102
RTVSPost2010Prop37
 90
       50
102
RTVSPost2010PropOp37
 70
     1
102
RTVSPost2010Prop38
140
0.0
102
RTVSPost2010PropOp38
 70
     1
102
RTVSPost2010Prop39
140
1.0
102
RTVSPost2010PropOp39
 70
     1
102
RTVSPost2010Prop40
 90
        0
102
RTVSPost2010PropOp40
 70
     1
102
RTVSPost2010Prop41ColorIndex
 90
       18
102
RTVSPost2010Prop41ColorRGB
 90
        0
102
RTVSPost2010PropOp41
 70
     1
102
RTVSPost2010Prop42
 90
       50
102
RTVSPost2010PropOp42
 70
     1
102
RTVSPost2010Prop43
 90
        3
102
RTVSPost2010PropOp43
 70
     1
102
RTVSPost2010Prop44ColorIndex
 90
        5
102
RTVSPost2010Prop44ColorRGB
 90
      255
102
RTVSPost2010PropOp44
 70
     1
102
RTVSPost2010Prop45
280
     0
102
RTVSPost2010PropOp45
 70
     1
102
RTVSPost2010Prop46
 90
       50
102
RTVSPost2010PropOp46
 70
     1
102
RTVSPost2010Prop47
 90
       50
102
RTVSPost2010PropOp47
 70
     1
102
RTVSPost2010Prop48
 90
       50
102
RTVSPost2010PropOp48
 70
     1
102
RTVSPost2010Prop49
280
     0
102
RTVSPost2010PropOp49
 70
     1
102
RTVSPost2010Prop50
 90
       50
102
RTVSPost2010PropOp50
 70
     1
102
RTVSPost2010Prop51ColorIndex
 90
      256
102
RTVSPost2010Prop51ColorRGB
 90
-16777216
102
RTVSPost2010PropOp51
 70
     0
102
RTVSPost2010Prop52
140
1.0
102
RTVSPost2010PropOp52
 70
     0
102
RTVSPost2010Prop53
 90
        2
102
RTVSPost2010PropOp53
 70
     1
102
RTVSPost2010Prop54
  1
strokes_ogs.tif
102
RTVSPost2010PropOp54
 70
     1
102
RTVSPost2010Prop55
280
     0
102
RTVSPost2010PropOp55
 70
     1
102
RTVSPost2010Prop56
140
1.0
102
RTVSPost2010PropOp56
 70
     1
102
RTVSPost2010Prop57
140
1.0
102
RTVSPost2010PropOp57
 70
     1
102
RTVSPropertyOp0
 70
     1
102
RTVSPropertyOp1
 70
     1
102
RTVSPropertyOp2
 70
     1
102
RTVSPropertyOp3
 70
     1
102
RTVSPropertyOp4
 70
     1
102
RTVSPropertyOp5
 70
     1
102
RTVSPropertyOp6
 70
     1
102
RTVSPropertyOp7
 70
     1
102
RTVSPropertyOp8
 70
     1
102
RTVSPropertyOp9
 70
     1
102
RTVSPropertyOp10
 70
     1
102
RTVSPropertyOp11
 70
     1
102
RTVSPropertyOp12
 70
     1
102
RTVSPropertyOp13
 70
     1
102
RTVSPropertyOp14
 70
     1
102
RTVSPropertyOp15
 70
     1
102
RTVSPropertyOp16
 70
     1
102
RTVSPropertyOp17
 70
     1
102
RTVSPropertyOp18
 70
     1
102
RTVSPropertyOp19
 70
     1
102
RTVSPropertyOp20
 70
     1
102
RTVSPropertyOp21
 70
     1
102
RTVSPropertyOp22
 70
     1
102
RTVSPropertyOp23
 70
     1
102
RTVSPropertyOp24
 70
     1
102
RTVSPropertyOp25
 70
     1
102
RTVSPropertyOp26
 70
     1
102
RTVSPropertyOp27
 70
     1
102
RTVSPropertyOp28
 70
     1
102
RTVSPropertyOp29
 70
     1
102
RTVSPropertyOp30
 70
     1
102
RTVSPropertyOp31
 70
     1
102
RTVSPropertyOp32
 70
     1
102
RTVSPropertyOp33
 70
     1
102
RTVSPropertyOp34
 70
     1
102
RTVSPropertyOp35
 70
     1
102
RTVSPropertyOp36
 70
     1
102
RTVSPropertyOp37
 70
     1
102
RTVSPropertyOp38
 70
     1
102
RTVSPropertyOp39
 70
     1
102
RTVSPropertyOp40
 70
     1
102
RTVSPropertyOp41
 70
     1
102
RTVSPropertyOp42
 70
     1
102
RTVSPropertyOp43
 70
     1
102
RTVSPropertyOp44
 70
     1
102
RTVSPropertyOp45
 70
     1
102
RTVSPropertyOp46
 70
     1
102
RTVSPropertyOp47
 70
     1
102
RTVSPropertyOp48
 70
     1
102
RTVSPropertyOp49
 70
     1
102
RTVSPropertyOp50
 70
     1
102
RTVSPropertyOp51
 70
     0
102
RTVSPropertyOp52
 70
     0
102
RTVSPropertyOp53
 70
     1
102
RTVSPropertyOp54
 70
     1
102
RTVSPropertyOp55
 70
     1
102
RTVSPropertyOp56
 70
     1
102
RTVSPropertyOp57
 70
     1
102
RTVSPropertyOp58
 70
     1
102
RTVSPropertyOp59
 70
     1
102
RTVSPropertyOp60
 70
     1
102
RTVSPropertyOp61
 70
     1
102
RTVSPropertyOp62
 70
     1
  0
XRECORD
  5
550
102
{ACAD_REACTORS
330
54F
102
}
330
54F
100
AcDbXrecord
280
     1
102
RTVSPost2010Prop28
280
     0
102
RTVSPost2010PropOp28
 70
     1
102
RTVSPost2010Prop29
280
     1
102
RTVSPost2010PropOp29
 70
     1
102
RTVSPost2010Prop30
280
     1
102
RTVSPost2010PropOp30
 70
     1
102
RTVSPost2010Prop31
280
     0
102
RTVSPost2010PropOp31
 70
     1
102
RTVSPost2010Prop32
280
     0
102
RTVSPost2010PropOp32
 70
     1
102
RTVSPost2010Prop33
280
     0
102
RTVSPost2010PropOp33
 70
     1
102
RTVSPost2010Prop34
280
     0
102
RTVSPost2010PropOp34
 70
     1
102
RTVSPost2010Prop35
280
     0
102
RTVSPost2010PropOp35
 70
     1
102
RTVSPost2010Prop36
280
     0
102
RTVSPost2010PropOp36
 70
     1
102
RTVSPost2010Prop37
 90
       50
102
RTVSPost2010PropOp37
 70
     1
102
RTVSPost2010Prop38
140
0.0
102
RTVSPost2010PropOp38
 70
     1
102
RTVSPost2010Prop39
140
1.0
102
RTVSPost2010PropOp39
 70
     1
102
RTVSPost2010Prop40
 90
        0
102
RTVSPost2010PropOp40
 70
     1
102
RTVSPost2010Prop41ColorIndex
 90
       18
102
RTVSPost2010Prop41ColorRGB
 90
        0
102
RTVSPost2010PropOp41
 70
     1
102
RTVSPost2010Prop42
 90
       50
102
RTVSPost2010PropOp42
 70
     1
102
RTVSPost2010Prop43
 90
        3
102
RTVSPost2010PropOp43
 70
     1
102
RTVSPost2010Prop44ColorIndex
 90
        5
102
RTVSPost2010Prop44ColorRGB
 90
      255
102
RTVSPost2010PropOp44
 70
     1
102
RTVSPost2010Prop45
280
     0
102
RTVSPost2010PropOp45
 70
     1
102
RTVSPost2010Prop46
 90
       50
102
RTVSPost2010PropOp46
 70
     1
102
RTVSPost2010Prop47
 90
       50
102
RTVSPost2010PropOp47
 70
     1
102
RTVSPost2010Prop48
 90
       50
102
RTVSPost2010PropOp48
 70
     1
102
RTVSPost2010Prop49
280
     0
102
RTVSPost2010PropOp49
 70
     1
102
RTVSPost2010Prop50
 90
       50
102
RTVSPost2010PropOp50
 70
     1
102
RTVSPost2010Prop51ColorIndex
 90
      256
102
RTVSPost2010Prop51ColorRGB
 90
-16777216
102
RTVSPost2010PropOp51
 70
     0
102
RTVSPost2010Prop52
140
1.0
102
RTVSPost2010PropOp52
 70
     0
102
RTVSPost2010Prop53
 90
        2
102
RTVSPost2010PropOp53
 70
     1
102
RTVSPost2010Prop54
  1
strokes_ogs.tif
102
RTVSPost2010PropOp54
 70
     1
102
RTVSPost2010Prop55
280
     0
102
RTVSPost2010PropOp55
 70
     1
102
RTVSPost2010Prop56
140
1.0
102
RTVSPost2010PropOp56
 70
     1
102
RTVSPost2010Prop57
140
1.0
102
RTVSPost2010PropOp57
 70
     1
102
RTVSPropertyOp0
 70
     1
102
RTVSPropertyOp1
 70
     1
102
RTVSPropertyOp2
 70
     1
102
RTVSPropertyOp3
 70
     1
102
RTVSPropertyOp4
 70
     1
102
RTVSPropertyOp5
 70
     1
102
RTVSPropertyOp6
 70
     1
102
RTVSPropertyOp7
 70
     1
102
RTVSPropertyOp8
 70
     1
102
RTVSPropertyOp9
 70
     1
102
RTVSPropertyOp10
 70
     1
102
RTVSPropertyOp11
 70
     1
102
RTVSPropertyOp12
 70
     1
102
RTVSPropertyOp13
 70
     1
102
RTVSPropertyOp14
 70
     1
102
RTVSPropertyOp15
 70
     1
102
RTVSPropertyOp16
 70
     1
102
RTVSPropertyOp17
 70
     1
102
RTVSPropertyOp18
 70
     1
102
RTVSPropertyOp19
 70
     1
102
RTVSPropertyOp20
 70
     1
102
RTVSPropertyOp21
 70
     1
102
RTVSPropertyOp22
 70
     1
102
RTVSPropertyOp23
 70
     1
102
RTVSPropertyOp24
 70
     1
102
RTVSPropertyOp25
 70
     1
102
RTVSPropertyOp26
 70
     1
102
RTVSPropertyOp27
 70
     1
102
RTVSPropertyOp28
 70
     1
102
RTVSPropertyOp29
 70
     1
102
RTVSPropertyOp30
 70
     1
102
RTVSPropertyOp31
 70
     1
102
RTVSPropertyOp32
 70
     1
102
RTVSPropertyOp33
 70
     1
102
RTVSPropertyOp34
 70
     1
102
RTVSPropertyOp35
 70
     1
102
RTVSPropertyOp36
 70
     1
102
RTVSPropertyOp37
 70
     1
102
RTVSPropertyOp38
 70
     1
102
RTVSPropertyOp39
 70
     1
102
RTVSPropertyOp40
 70
     1
102
RTVSPropertyOp41
 70
     1
102
RTVSPropertyOp42
 70
     1
102
RTVSPropertyOp43
 70
     1
102
RTVSPropertyOp44
 70
     1
102
RTVSPropertyOp45
 70
     1
102
RTVSPropertyOp46
 70
     1
102
RTVSPropertyOp47
 70
     1
102
RTVSPropertyOp48
 70
     1
102
RTVSPropertyOp49
 70
     1
102
RTVSPropertyOp50
 70
     1
102
RTVSPropertyOp51
 70
     0
102
RTVSPropertyOp52
 70
     0
102
RTVSPropertyOp53
 70
     1
102
RTVSPropertyOp54
 70
     1
102
RTVSPropertyOp55
 70
     1
102
RTVSPropertyOp56
 70
     1
102
RTVSPropertyOp57
 70
     1
102
RTVSPropertyOp58
 70
     1
102
RTVSPropertyOp59
 70
     1
102
RTVSPropertyOp60
 70
     1
102
RTVSPropertyOp61
 70
     1
102
RTVSPropertyOp62
 70
     1
  0
XRECORD
  5
544
102
{ACAD_REACTORS
330
543
102
}
330
543
100
AcDbXrecord
280
     1
102
RTVSPost2010Prop28
280
     0
102
RTVSPost2010PropOp28
 70
     1
102
RTVSPost2010Prop29
280
     1
102
RTVSPost2010PropOp29
 70
     1
102
RTVSPost2010Prop30
280
     1
102
RTVSPost2010PropOp30
 70
     1
102
RTVSPost2010Prop31
280
     0
102
RTVSPost2010PropOp31
 70
     1
102
RTVSPost2010Prop32
280
     0
102
RTVSPost2010PropOp32
 70
     1
102
RTVSPost2010Prop33
280
     0
102
RTVSPost2010PropOp33
 70
     1
102
RTVSPost2010Prop34
280
     0
102
RTVSPost2010PropOp34
 70
     1
102
RTVSPost2010Prop35
280
     0
102
RTVSPost2010PropOp35
 70
     1
102
RTVSPost2010Prop36
280
     0
102
RTVSPost2010PropOp36
 70
     1
102
RTVSPost2010Prop37
 90
       50
102
RTVSPost2010PropOp37
 70
     1
102
RTVSPost2010Prop38
140
0.0
102
RTVSPost2010PropOp38
 70
     1
102
RTVSPost2010Prop39
140
1.0
102
RTVSPost2010PropOp39
 70
     1
102
RTVSPost2010Prop40
 90
        0
102
RTVSPost2010PropOp40
 70
     1
102
RTVSPost2010Prop41ColorIndex
 90
       18
102
RTVSPost2010Prop41ColorRGB
 90
        0
102
RTVSPost2010PropOp41
 70
     1
102
RTVSPost2010Prop42
 90
       50
102
RTVSPost2010PropOp42
 70
     1
102
RTVSPost2010Prop43
 90
        3
102
RTVSPost2010PropOp43
 70
     1
102
RTVSPost2010Prop44ColorIndex
 90
        5
102
RTVSPost2010Prop44ColorRGB
 90
      255
102
RTVSPost2010PropOp44
 70
     1
102
RTVSPost2010Prop45
280
     0
102
RTVSPost2010PropOp45
 70
     1
102
RTVSPost2010Prop46
 90
       50
102
RTVSPost2010PropOp46
 70
     1
102
RTVSPost2010Prop47
 90
       50
102
RTVSPost2010PropOp47
 70
     1
102
RTVSPost2010Prop48
 90
       50
102
RTVSPost2010PropOp48
 70
     1
102
RTVSPost2010Prop49
280
     0
102
RTVSPost2010PropOp49
 70
     1
102
RTVSPost2010Prop50
 90
       50
102
RTVSPost2010PropOp50
 70
     1
102
RTVSPost2010Prop51ColorIndex
 90
      256
102
RTVSPost2010Prop51ColorRGB
 90
-16777216
102
RTVSPost2010PropOp51
 70
     0
102
RTVSPost2010Prop52
140
1.0
102
RTVSPost2010PropOp52
 70
     0
102
RTVSPost2010Prop53
 90
        2
102
RTVSPost2010PropOp53
 70
     1
102
RTVSPost2010Prop54
  1
strokes_ogs.tif
102
RTVSPost2010PropOp54
 70
     1
102
RTVSPost2010Prop55
280
     0
102
RTVSPost2010PropOp55
 70
     1
102
RTVSPost2010Prop56
140
1.0
102
RTVSPost2010PropOp56
 70
     1
102
RTVSPost2010Prop57
140
1.0
102
RTVSPost2010PropOp57
 70
     1
102
RTVSPropertyOp0
 70
     1
102
RTVSPropertyOp1
 70
     1
102
RTVSPropertyOp2
 70
     1
102
RTVSPropertyOp3
 70
     1
102
RTVSPropertyOp4
 70
     1
102
RTVSPropertyOp5
 70
     1
102
RTVSPropertyOp6
 70
     1
102
RTVSPropertyOp7
 70
     1
102
RTVSPropertyOp8
 70
     1
102
RTVSPropertyOp9
 70
     1
102
RTVSPropertyOp10
 70
     1
102
RTVSPropertyOp11
 70
     1
102
RTVSPropertyOp12
 70
     1
102
RTVSPropertyOp13
 70
     1
102
RTVSPropertyOp14
 70
     1
102
RTVSPropertyOp15
 70
     1
102
RTVSPropertyOp16
 70
     1
102
RTVSPropertyOp17
 70
     1
102
RTVSPropertyOp18
 70
     1
102
RTVSPropertyOp19
 70
     1
102
RTVSPropertyOp20
 70
     1
102
RTVSPropertyOp21
 70
     1
102
RTVSPropertyOp22
 70
     1
102
RTVSPropertyOp23
 70
     1
102
RTVSPropertyOp24
 70
     1
102
RTVSPropertyOp25
 70
     1
102
RTVSPropertyOp26
 70
     1
102
RTVSPropertyOp27
 70
     1
102
RTVSPropertyOp28
 70
     1
102
RTVSPropertyOp29
 70
     1
102
RTVSPropertyOp30
 70
     1
102
RTVSPropertyOp31
 70
     1
102
RTVSPropertyOp32
 70
     1
102
RTVSPropertyOp33
 70
     1
102
RTVSPropertyOp34
 70
     1
102
RTVSPropertyOp35
 70
     1
102
RTVSPropertyOp36
 70
     1
102
RTVSPropertyOp37
 70
     1
102
RTVSPropertyOp38
 70
     1
102
RTVSPropertyOp39
 70
     1
102
RTVSPropertyOp40
 70
     1
102
RTVSPropertyOp41
 70
     1
102
RTVSPropertyOp42
 70
     1
102
RTVSPropertyOp43
 70
     1
102
RTVSPropertyOp44
 70
     1
102
RTVSPropertyOp45
 70
     1
102
RTVSPropertyOp46
 70
     1
102
RTVSPropertyOp47
 70
     1
102
RTVSPropertyOp48
 70
     1
102
RTVSPropertyOp49
 70
     1
102
RTVSPropertyOp50
 70
     1
102
RTVSPropertyOp51
 70
     0
102
RTVSPropertyOp52
 70
     0
102
RTVSPropertyOp53
 70
     1
102
RTVSPropertyOp54
 70
     1
102
RTVSPropertyOp55
 70
     1
102
RTVSPropertyOp56
 70
     1
102
RTVSPropertyOp57
 70
     1
102
RTVSPropertyOp58
 70
     1
102
RTVSPropertyOp59
 70
     1
102
RTVSPropertyOp60
 70
     1
102
RTVSPropertyOp61
 70
     1
102
RTVSPropertyOp62
 70
     1
  0
XRECORD
  5
55C
102
{ACAD_REACTORS
330
55B
102
}
330
55B
100
AcDbXrecord
280
     1
102
RTVSPost2010Prop28
280
     0
102
RTVSPost2010PropOp28
 70
     1
102
RTVSPost2010Prop29
280
     1
102
RTVSPost2010PropOp29
 70
     1
102
RTVSPost2010Prop30
280
     1
102
RTVSPost2010PropOp30
 70
     1
102
RTVSPost2010Prop31
280
     0
102
RTVSPost2010PropOp31
 70
     1
102
RTVSPost2010Prop32
280
     0
102
RTVSPost2010PropOp32
 70
     1
102
RTVSPost2010Prop33
280
     0
102
RTVSPost2010PropOp33
 70
     1
102
RTVSPost2010Prop34
280
     0
102
RTVSPost2010PropOp34
 70
     1
102
RTVSPost2010Prop35
280
     0
102
RTVSPost2010PropOp35
 70
     1
102
RTVSPost2010Prop36
280
     0
102
RTVSPost2010PropOp36
 70
     1
102
RTVSPost2010Prop37
 90
       50
102
RTVSPost2010PropOp37
 70
     1
102
RTVSPost2010Prop38
140
0.0
102
RTVSPost2010PropOp38
 70
     1
102
RTVSPost2010Prop39
140
1.0
102
RTVSPost2010PropOp39
 70
     1
102
RTVSPost2010Prop40
 90
        0
102
RTVSPost2010PropOp40
 70
     1
102
RTVSPost2010Prop41ColorIndex
 90
       18
102
RTVSPost2010Prop41ColorRGB
 90
        0
102
RTVSPost2010PropOp41
 70
     1
102
RTVSPost2010Prop42
 90
       50
102
RTVSPost2010PropOp42
 70
     1
102
RTVSPost2010Prop43
 90
        3
102
RTVSPost2010PropOp43
 70
     1
102
RTVSPost2010Prop44ColorIndex
 90
        5
102
RTVSPost2010Prop44ColorRGB
 90
      255
102
RTVSPost2010PropOp44
 70
     1
102
RTVSPost2010Prop45
280
     0
102
RTVSPost2010PropOp45
 70
     1
102
RTVSPost2010Prop46
 90
       50
102
RTVSPost2010PropOp46
 70
     1
102
RTVSPost2010Prop47
 90
       50
102
RTVSPost2010PropOp47
 70
     1
102
RTVSPost2010Prop48
 90
       50
102
RTVSPost2010PropOp48
 70
     1
102
RTVSPost2010Prop49
280
     0
102
RTVSPost2010PropOp49
 70
     1
102
RTVSPost2010Prop50
 90
       50
102
RTVSPost2010PropOp50
 70
     1
102
RTVSPost2010Prop51ColorIndex
 90
      256
102
RTVSPost2010Prop51ColorRGB
 90
-16777216
102
RTVSPost2010PropOp51
 70
     0
102
RTVSPost2010Prop52
140
1.0
102
RTVSPost2010PropOp52
 70
     0
102
RTVSPost2010Prop53
 90
        2
102
RTVSPost2010PropOp53
 70
     1
102
RTVSPost2010Prop54
  1
strokes_ogs.tif
102
RTVSPost2010PropOp54
 70
     1
102
RTVSPost2010Prop55
280
     0
102
RTVSPost2010PropOp55
 70
     1
102
RTVSPost2010Prop56
140
1.0
102
RTVSPost2010PropOp56
 70
     1
102
RTVSPost2010Prop57
140
1.0
102
RTVSPost2010PropOp57
 70
     1
102
RTVSPropertyOp0
 70
     1
102
RTVSPropertyOp1
 70
     1
102
RTVSPropertyOp2
 70
     1
102
RTVSPropertyOp3
 70
     1
102
RTVSPropertyOp4
 70
     1
102
RTVSPropertyOp5
 70
     1
102
RTVSPropertyOp6
 70
     1
102
RTVSPropertyOp7
 70
     1
102
RTVSPropertyOp8
 70
     1
102
RTVSPropertyOp9
 70
     1
102
RTVSPropertyOp10
 70
     1
102
RTVSPropertyOp11
 70
     1
102
RTVSPropertyOp12
 70
     1
102
RTVSPropertyOp13
 70
     1
102
RTVSPropertyOp14
 70
     1
102
RTVSPropertyOp15
 70
     1
102
RTVSPropertyOp16
 70
     1
102
RTVSPropertyOp17
 70
     1
102
RTVSPropertyOp18
 70
     1
102
RTVSPropertyOp19
 70
     1
102
RTVSPropertyOp20
 70
     1
102
RTVSPropertyOp21
 70
     1
102
RTVSPropertyOp22
 70
     1
102
RTVSPropertyOp23
 70
     1
102
RTVSPropertyOp24
 70
     1
102
RTVSPropertyOp25
 70
     1
102
RTVSPropertyOp26
 70
     1
102
RTVSPropertyOp27
 70
     1
102
RTVSPropertyOp28
 70
     1
102
RTVSPropertyOp29
 70
     1
102
RTVSPropertyOp30
 70
     1
102
RTVSPropertyOp31
 70
     1
102
RTVSPropertyOp32
 70
     1
102
RTVSPropertyOp33
 70
     1
102
RTVSPropertyOp34
 70
     1
102
RTVSPropertyOp35
 70
     1
102
RTVSPropertyOp36
 70
     1
102
RTVSPropertyOp37
 70
     1
102
RTVSPropertyOp38
 70
     1
102
RTVSPropertyOp39
 70
     1
102
RTVSPropertyOp40
 70
     1
102
RTVSPropertyOp41
 70
     1
102
RTVSPropertyOp42
 70
     1
102
RTVSPropertyOp43
 70
     1
102
RTVSPropertyOp44
 70
     1
102
RTVSPropertyOp45
 70
     1
102
RTVSPropertyOp46
 70
     1
102
RTVSPropertyOp47
 70
     1
102
RTVSPropertyOp48
 70
     1
102
RTVSPropertyOp49
 70
     1
102
RTVSPropertyOp50
 70
     1
102
RTVSPropertyOp51
 70
     0
102
RTVSPropertyOp52
 70
     0
102
RTVSPropertyOp53
 70
     1
102
RTVSPropertyOp54
 70
     1
102
RTVSPropertyOp55
 70
     1
102
RTVSPropertyOp56
 70
     1
102
RTVSPropertyOp57
 70
     1
102
RTVSPropertyOp58
 70
     1
102
RTVSPropertyOp59
 70
     1
102
RTVSPropertyOp60
 70
     1
102
RTVSPropertyOp61
 70
     1
102
RTVSPropertyOp62
 70
     1
  0
ENDSEC
  0
EOF
